  0
SECTION
  2
HEADER
  9
$ACADVER
  1
AC1024
  9
$ACADMAINTVER
 70
   205
  9
$DWGCODEPAGE
  3
ANSI_1251
  9
$INSBASE
 10
0.0
 20
0.0
 30
0.0
  9
$EXTMIN
 10
1.000000000000000E+20
 20
1.000000000000000E+20
 30
1.000000000000000E+20
  9
$EXTMAX
 10
-1.000000000000000E+20
 20
-1.000000000000000E+20
 30
-1.000000000000000E+20
  9
$LIMMIN
 10
0.0
 20
0.0
  9
$LIMMAX
 10
12.0
 20
9.0
  9
$ORTHOMODE
 70
     0
  9
$REGENMODE
 70
     1
  9
$FILLMODE
 70
     1
  9
$QTEXTMODE
 70
     0
  9
$MIRRTEXT
 70
     1
  9
$LTSCALE
 40
1.0
  9
$ATTMODE
 70
     1
  9
$TEXTSIZE
 40
0.2
  9
$TRACEWID
 40
0.05
  9
$TEXTSTYLE
  7
Standard
  9
$CLAYER
  8
OracDecor_cornice_mouldings
  9
$CELTYPE
  6
ByLayer
  9
$CECOLOR
 62
   256
  9
$CELTSCALE
 40
1.0
  9
$DISPSILH
 70
     0
  9
$DIMSCALE
 40
1.0
  9
$DIMASZ
 40
0.18
  9
$DIMEXO
 40
0.0625
  9
$DIMDLI
 40
0.38
  9
$DIMRND
 40
0.0
  9
$DIMDLE
 40
0.0
  9
$DIMEXE
 40
0.18
  9
$DIMTP
 40
0.0
  9
$DIMTM
 40
0.0
  9
$DIMTXT
 40
0.18
  9
$DIMCEN
 40
0.09
  9
$DIMTSZ
 40
0.0
  9
$DIMTOL
 70
     0
  9
$DIMLIM
 70
     0
  9
$DIMTIH
 70
     1
  9
$DIMTOH
 70
     1
  9
$DIMSE1
 70
     0
  9
$DIMSE2
 70
     0
  9
$DIMTAD
 70
     0
  9
$DIMZIN
 70
     0
  9
$DIMBLK
  1

  9
$DIMASO
 70
     1
  9
$DIMSHO
 70
     1
  9
$DIMPOST
  1

  9
$DIMAPOST
  1

  9
$DIMALT
 70
     0
  9
$DIMALTD
 70
     2
  9
$DIMALTF
 40
25.4
  9
$DIMLFAC
 40
1.0
  9
$DIMTOFL
 70
     0
  9
$DIMTVP
 40
0.0
  9
$DIMTIX
 70
     0
  9
$DIMSOXD
 70
     0
  9
$DIMSAH
 70
     0
  9
$DIMBLK1
  1

  9
$DIMBLK2
  1

  9
$DIMSTYLE
  2
Standard
  9
$DIMCLRD
 70
     0
  9
$DIMCLRE
 70
     0
  9
$DIMCLRT
 70
     0
  9
$DIMTFAC
 40
1.0
  9
$DIMGAP
 40
0.09
  9
$DIMJUST
 70
     0
  9
$DIMSD1
 70
     0
  9
$DIMSD2
 70
     0
  9
$DIMTOLJ
 70
     1
  9
$DIMTZIN
 70
     0
  9
$DIMALTZ
 70
     0
  9
$DIMALTTZ
 70
     0
  9
$DIMUPT
 70
     0
  9
$DIMDEC
 70
     4
  9
$DIMTDEC
 70
     4
  9
$DIMALTU
 70
     2
  9
$DIMALTTD
 70
     2
  9
$DIMTXSTY
  7
Standard
  9
$DIMAUNIT
 70
     0
  9
$DIMADEC
 70
     0
  9
$DIMALTRND
 40
0.0
  9
$DIMAZIN
 70
     0
  9
$DIMDSEP
 70
    46
  9
$DIMATFIT
 70
     3
  9
$DIMFRAC
 70
     0
  9
$DIMLDRBLK
  1

  9
$DIMLUNIT
 70
     2
  9
$DIMLWD
 70
    -2
  9
$DIMLWE
 70
    -2
  9
$DIMTMOVE
 70
     0
  9
$DIMFXL
 40
1.0
  9
$DIMFXLON
 70
     0
  9
$DIMJOGANG
 40
0.7853981633974483
  9
$DIMTFILL
 70
     0
  9
$DIMTFILLCLR
 70
     0
  9
$DIMARCSYM
 70
     0
  9
$DIMLTYPE
  6

  9
$DIMLTEX1
  6

  9
$DIMLTEX2
  6

  9
$DIMTXTDIRECTION
 70
     0
  9
$LUNITS
 70
     2
  9
$LUPREC
 70
     4
  9
$SKETCHINC
 40
0.1
  9
$FILLETRAD
 40
0.5
  9
$AUNITS
 70
     0
  9
$AUPREC
 70
     0
  9
$MENU
  1
.
  9
$ELEVATION
 40
0.0
  9
$PELEVATION
 40
0.0
  9
$THICKNESS
 40
0.0
  9
$LIMCHECK
 70
     0
  9
$CHAMFERA
 40
0.5
  9
$CHAMFERB
 40
0.5
  9
$CHAMFERC
 40
1.0
  9
$CHAMFERD
 40
0.0
  9
$SKPOLY
 70
     0
  9
$TDCREATE
 40
2451380.930432396
  9
$TDUCREATE
 40
2451380.805432396
  9
$TDUPDATE
 40
2451380.966180555
  9
$TDUUPDATE
 40
2451380.841180556
  9
$TDINDWG
 40
0.0075614005
  9
$TDUSRTIMER
 40
0.0075523611
  9
$USRTIMER
 70
     1
  9
$ANGBASE
 50
0.0
  9
$ANGDIR
 70
     0
  9
$PDMODE
 70
     0
  9
$PDSIZE
 40
0.0
  9
$PLINEWID
 40
0.0
  9
$SPLFRAME
 70
     0
  9
$SPLINETYPE
 70
     6
  9
$SPLINESEGS
 70
     8
  9
$HANDSEED
  5
18F
  9
$SURFTAB1
 70
     6
  9
$SURFTAB2
 70
     6
  9
$SURFTYPE
 70
     6
  9
$SURFU
 70
     6
  9
$SURFV
 70
     6
  9
$UCSBASE
  2

  9
$UCSNAME
  2

  9
$UCSORG
 10
0.0
 20
0.0
 30
0.0
  9
$UCSXDIR
 10
1.0
 20
0.0
 30
0.0
  9
$UCSYDIR
 10
0.0
 20
1.0
 30
0.0
  9
$UCSORTHOREF
  2

  9
$UCSORTHOVIEW
 70
     0
  9
$UCSORGTOP
 10
0.0
 20
0.0
 30
0.0
  9
$UCSORGBOTTOM
 10
0.0
 20
0.0
 30
0.0
  9
$UCSORGLEFT
 10
0.0
 20
0.0
 30
0.0
  9
$UCSORGRIGHT
 10
0.0
 20
0.0
 30
0.0
  9
$UCSORGFRONT
 10
0.0
 20
0.0
 30
0.0
  9
$UCSORGBACK
 10
0.0
 20
0.0
 30
0.0
  9
$PUCSBASE
  2

  9
$PUCSNAME
  2

  9
$PUCSORG
 10
0.0
 20
0.0
 30
0.0
  9
$PUCSXDIR
 10
1.0
 20
0.0
 30
0.0
  9
$PUCSYDIR
 10
0.0
 20
1.0
 30
0.0
  9
$PUCSORTHOREF
  2

  9
$PUCSORTHOVIEW
 70
     0
  9
$PUCSORGTOP
 10
0.0
 20
0.0
 30
0.0
  9
$PUCSORGBOTTOM
 10
0.0
 20
0.0
 30
0.0
  9
$PUCSORGLEFT
 10
0.0
 20
0.0
 30
0.0
  9
$PUCSORGRIGHT
 10
0.0
 20
0.0
 30
0.0
  9
$PUCSORGFRONT
 10
0.0
 20
0.0
 30
0.0
  9
$PUCSORGBACK
 10
0.0
 20
0.0
 30
0.0
  9
$USERI1
 70
     0
  9
$USERI2
 70
     0
  9
$USERI3
 70
     0
  9
$USERI4
 70
     0
  9
$USERI5
 70
     0
  9
$USERR1
 40
0.0
  9
$USERR2
 40
0.0
  9
$USERR3
 40
0.0
  9
$USERR4
 40
0.0
  9
$USERR5
 40
0.0
  9
$WORLDVIEW
 70
     1
  9
$SHADEDGE
 70
     3
  9
$SHADEDIF
 70
    70
  9
$TILEMODE
 70
     1
  9
$MAXACTVP
 70
    64
  9
$PINSBASE
 10
0.0
 20
0.0
 30
0.0
  9
$PLIMCHECK
 70
     0
  9
$PEXTMIN
 10
1.000000000000000E+20
 20
1.000000000000000E+20
 30
1.000000000000000E+20
  9
$PEXTMAX
 10
-1.000000000000000E+20
 20
-1.000000000000000E+20
 30
-1.000000000000000E+20
  9
$PLIMMIN
 10
0.0
 20
0.0
  9
$PLIMMAX
 10
12.0
 20
9.0
  9
$UNITMODE
 70
     0
  9
$VISRETAIN
 70
     1
  9
$PLINEGEN
 70
     0
  9
$PSLTSCALE
 70
     1
  9
$TREEDEPTH
 70
  3020
  9
$CMLSTYLE
  2
Standard
  9
$CMLJUST
 70
     0
  9
$CMLSCALE
 40
1.0
  9
$PROXYGRAPHICS
 70
     1
  9
$MEASUREMENT
 70
     1
  9
$CELWEIGHT
370
    -1
  9
$ENDCAPS
280
     0
  9
$JOINSTYLE
280
     0
  9
$LWDISPLAY
290
     0
  9
$INSUNITS
 70
     4
  9
$HYPERLINKBASE
  1

  9
$STYLESHEET
  1

  9
$XEDIT
290
     1
  9
$CEPSNTYPE
380
     0
  9
$PSTYLEMODE
290
     1
  9
$FINGERPRINTGUID
  2
{12F50282-3ED8-11D3-A8B7-0060B0F84BC6}
  9
$VERSIONGUID
  2
{12F50293-3ED8-11D3-A8B7-0060B0F84BC6}
  9
$EXTNAMES
290
     1
  9
$PSVPSCALE
 40
0.0
  9
$OLESTARTUP
290
     0
  9
$SORTENTS
280
   127
  9
$INDEXCTL
280
     0
  9
$HIDETEXT
280
     0
  9
$XCLIPFRAME
280
     2
  9
$HALOGAP
280
     0
  9
$OBSCOLOR
 70
   257
  9
$OBSLTYPE
280
     0
  9
$INTERSECTIONDISPLAY
280
     0
  9
$INTERSECTIONCOLOR
 70
   257
  9
$DIMASSOC
280
     1
  9
$PROJECTNAME
  1

  9
$CAMERADISPLAY
290
     0
  9
$LENSLENGTH
 40
50.0
  9
$CAMERAHEIGHT
 40
0.0
  9
$STEPSPERSEC
 40
2.0
  9
$STEPSIZE
 40
6.0
  9
$3DDWFPREC
 40
2.0
  9
$PSOLWIDTH
 40
0.25
  9
$PSOLHEIGHT
 40
4.0
  9
$LOFTANG1
 40
1.570796326794896
  9
$LOFTANG2
 40
1.570796326794896
  9
$LOFTMAG1
 40
0.0
  9
$LOFTMAG2
 40
0.0
  9
$LOFTPARAM
 70
     7
  9
$LOFTNORMALS
280
     1
  9
$LATITUDE
 40
37.795
  9
$LONGITUDE
 40
-122.394
  9
$NORTHDIRECTION
 40
0.0
  9
$TIMEZONE
 70
 -8000
  9
$LIGHTGLYPHDISPLAY
280
     1
  9
$TILEMODELIGHTSYNCH
280
     1
  9
$CMATERIAL
347
AB
  9
$SOLIDHIST
280
     0
  9
$SHOWHIST
280
     1
  9
$DWFFRAME
280
     2
  9
$DGNFRAME
280
     0
  9
$REALWORLDSCALE
290
     1
  9
$INTERFERECOLOR
 62
     1
  9
$INTERFEREOBJVS
345
CD
  9
$INTERFEREVPVS
346
CA
  9
$CSHADOW
280
     0
  9
$SHADOWPLANELOCATION
 40
0.0
  0
ENDSEC
  0
SECTION
  2
CLASSES
  0
CLASS
  1
ACDBDICTIONARYWDFLT
  2
AcDbDictionaryWithDefault
  3
ObjectDBX Classes
 90
        0
 91
        1
280
     0
281
     0
  0
CLASS
  1
ACDBPLACEHOLDER
  2
AcDbPlaceHolder
  3
ObjectDBX Classes
 90
        0
 91
        2
280
     0
281
     0
  0
CLASS
  1
LAYOUT
  2
AcDbLayout
  3
ObjectDBX Classes
 90
        0
 91
        3
280
     0
281
     0
  0
CLASS
  1
MATERIAL
  2
AcDbMaterial
  3
ObjectDBX Classes
 90
     1153
 91
        3
280
     0
281
     0
  0
CLASS
  1
VISUALSTYLE
  2
AcDbVisualStyle
  3
ObjectDBX Classes
 90
     4095
 91
       24
280
     0
281
     0
  0
CLASS
  1
TABLESTYLE
  2
AcDbTableStyle
  3
ObjectDBX Classes
 90
     4095
 91
        1
280
     0
281
     0
  0
CLASS
  1
SCALE
  2
AcDbScale
  3
ObjectDBX Classes
 90
     1153
 91
       17
280
     0
281
     0
  0
CLASS
  1
MLEADERSTYLE
  2
AcDbMLeaderStyle
  3
ACDB_MLEADERSTYLE_CLASS
 90
     4095
 91
        1
280
     0
281
     0
  0
CLASS
  1
ACDBSECTIONVIEWSTYLE
  2
AcDbSectionViewStyle
  3
ObjectDBX Classes
 90
     1025
 91
        1
280
     0
281
     0
  0
CLASS
  1
ACDBDETAILVIEWSTYLE
  2
AcDbDetailViewStyle
  3
ObjectDBX Classes
 90
     1025
 91
        1
280
     0
281
     0
  0
CLASS
  1
MESH
  2
AcDbSubDMesh
  3
ObjectDBX Classes
 90
        0
 91
        1
280
     0
281
     1
  0
CLASS
  1
DICTIONARYVAR
  2
AcDbDictionaryVar
  3
ObjectDBX Classes
 90
        0
 91
        9
280
     0
281
     0
  0
CLASS
  1
CELLSTYLEMAP
  2
AcDbCellStyleMap
  3
ObjectDBX Classes
 90
     1152
 91
        1
280
     0
281
     0
  0
ENDSEC
  0
SECTION
  2
TABLES
  0
TABLE
  2
VPORT
  5
8
330
0
100
AcDbSymbolTable
 70
     1
  0
VPORT
  5
A8
330
8
100
AcDbSymbolTableRecord
100
AcDbViewportTableRecord
  2
*Active
 70
     0
 10
0.0
 20
0.0
 11
1.0
 21
1.0
 12
0.0000121382945508
 22
-16.32989120483398
 13
0.0
 23
0.0
 14
0.5
 24
0.5
 15
0.5
 25
0.5
 16
-1.0
 26
-1.0
 36
1.0
 17
0.0
 27
0.0
 37
0.0
 40
1079.999937030537
 41
1.667900773976292
 42
50.0
 43
0.0
 44
0.0
 50
0.0
 51
0.0
 71
     0
 72
   100
 73
     1
 74
     3
 75
     0
 76
     0
 77
     0
 78
     0
281
     0
 65
     1
110
0.0
120
0.0
130
0.0
111
1.0
121
0.0
131
0.0
112
0.0
122
1.0
132
0.0
 79
     0
146
0.0
348
C9
 60
     3
 61
     5
292
     1
282
     1
141
0.0
142
0.0
 63
   250
421
  3355443
  0
ENDTAB
  0
TABLE
  2
LTYPE
  5
5
330
0
100
AcDbSymbolTable
 70
     1
  0
LTYPE
  5
14
330
5
100
AcDbSymbolTableRecord
100
AcDbLinetypeTableRecord
  2
ByBlock
 70
     0
  3

 72
    65
 73
     0
 40
0.0
  0
LTYPE
  5
15
330
5
100
AcDbSymbolTableRecord
100
AcDbLinetypeTableRecord
  2
ByLayer
 70
     0
  3

 72
    65
 73
     0
 40
0.0
  0
LTYPE
  5
16
330
5
100
AcDbSymbolTableRecord
100
AcDbLinetypeTableRecord
  2
Continuous
 70
     0
  3
Solid line
 72
    65
 73
     0
 40
0.0
  0
ENDTAB
  0
TABLE
  2
LAYER
  5
2
330
0
100
AcDbSymbolTable
 70
     3
  0
LAYER
  5
10
330
2
100
AcDbSymbolTableRecord
100
AcDbLayerTableRecord
  2
0
 70
     0
 62
     7
  6
Continuous
370
    -3
390
F
347
BB
  0
LAYER
  5
2B
330
2
100
AcDbSymbolTableRecord
100
AcDbLayerTableRecord
  2
ASHADE
 70
     4
 62
     7
  6
Continuous
370
    -3
390
2D
347
BB
  0
LAYER
  5
F8
330
2
100
AcDbSymbolTableRecord
100
AcDbLayerTableRecord
  2
OracDecor_cornice_mouldings
 70
     0
 62
   136
420
   427889
  6
Continuous
370
    -3
390
F
347
BB
  0
ENDTAB
  0
TABLE
  2
STYLE
  5
3
330
0
100
AcDbSymbolTable
 70
     2
  0
STYLE
  5
11
330
3
100
AcDbSymbolTableRecord
100
AcDbTextStyleTableRecord
  2
Standard
 70
     0
 40
0.0
 41
1.0
 50
0.0
 71
     0
 42
0.2
  3
txt
  4

  0
STYLE
  5
2C
330
3
100
AcDbSymbolTableRecord
100
AcDbTextStyleTableRecord
  2
ASHADE
 70
     0
 40
0.2
 41
1.0
 50
0.0
 71
     0
 42
0.2
  3
simplex
  4

  0
ENDTAB
  0
TABLE
  2
VIEW
  5
6
330
0
100
AcDbSymbolTable
 70
     0
  0
ENDTAB
  0
TABLE
  2
UCS
  5
7
330
0
100
AcDbSymbolTable
 70
     0
  0
ENDTAB
  0
TABLE
  2
APPID
  5
9
330
0
100
AcDbSymbolTable
 70
     6
  0
APPID
  5
12
330
9
100
AcDbSymbolTableRecord
100
AcDbRegAppTableRecord
  2
ACAD
 70
     0
  0
APPID
  5
8F
330
9
100
AcDbSymbolTableRecord
100
AcDbRegAppTableRecord
  2
AVE_RENDER
 70
     0
  0
APPID
  5
90
330
9
100
AcDbSymbolTableRecord
100
AcDbRegAppTableRecord
  2
AVE_ENTITY_MATERIAL
 70
     0
  0
APPID
  5
9C
330
9
100
AcDbSymbolTableRecord
100
AcDbRegAppTableRecord
  2
AVE_FINISH
 70
     0
  0
APPID
  5
9D
330
9
100
AcDbSymbolTableRecord
100
AcDbRegAppTableRecord
  2
AVE_MATERIAL
 70
     0
  0
APPID
  5
9E
330
9
100
AcDbSymbolTableRecord
100
AcDbRegAppTableRecord
  2
AVE_GLOBAL
 70
     0
  0
ENDTAB
  0
TABLE
  2
DIMSTYLE
  5
A
330
0
100
AcDbSymbolTable
 70
     1
100
AcDbDimStyleTable
 71
     0
  0
DIMSTYLE
105
27
330
A
100
AcDbSymbolTableRecord
100
AcDbDimStyleTableRecord
  2
Standard
 70
     0
340
11
  0
ENDTAB
  0
TABLE
  2
BLOCK_RECORD
  5
1
330
0
100
AcDbSymbolTable
 70
     6
  0
BLOCK_RECORD
  5
1F
330
1
100
AcDbSymbolTableRecord
100
AcDbBlockTableRecord
  2
*Model_Space
340
22
 70
     0
280
     1
281
     0
  0
BLOCK_RECORD
  5
1B
330
1
100
AcDbSymbolTableRecord
100
AcDbBlockTableRecord
  2
*Paper_Space
340
1E
 70
     0
280
     1
281
     0
  0
BLOCK_RECORD
  5
23
330
1
100
AcDbSymbolTableRecord
100
AcDbBlockTableRecord
  2
*Paper_Space0
340
26
 70
     0
280
     1
281
     0
  0
BLOCK_RECORD
  5
2E
330
1
100
AcDbSymbolTableRecord
100
AcDbBlockTableRecord
  2
direct
340
0
 70
     0
280
     1
281
     0
  0
BLOCK_RECORD
  5
42
330
1
100
AcDbSymbolTableRecord
100
AcDbBlockTableRecord
  2
overhead
340
0
 70
     0
280
     1
281
     0
  0
BLOCK_RECORD
  5
5F
330
1
100
AcDbSymbolTableRecord
100
AcDbBlockTableRecord
  2
sh_spot
340
0
 70
     0
280
     1
281
     0
  0
BLOCK_RECORD
  5
91
330
1
100
AcDbSymbolTableRecord
100
AcDbBlockTableRecord
  2
AVE_RENDER
340
0
102
{BLKREFS
331
94
331
95
331
96
331
97
331
98
331
99
331
9A
331
9B
102
}
 70
     0
280
     1
281
     0
  0
BLOCK_RECORD
  5
9F
330
1
100
AcDbSymbolTableRecord
100
AcDbBlockTableRecord
  2
AVE_GLOBAL
340
0
102
{BLKREFS
331
A2
102
}
 70
     0
280
     1
281
     0
  0
ENDTAB
  0
ENDSEC
  0
SECTION
  2
BLOCKS
  0
BLOCK
  5
20
330
1F
100
AcDbEntity
  8
0
100
AcDbBlockBegin
  2
*Model_Space
 70
     0
 10
0.0
 20
0.0
 30
0.0
  3
*Model_Space
  1

  0
ENDBLK
  5
21
330
1F
100
AcDbEntity
  8
0
100
AcDbBlockEnd
  0
BLOCK
  5
1C
330
1B
100
AcDbEntity
 67
     1
  8
0
100
AcDbBlockBegin
  2
*Paper_Space
 70
     0
 10
0.0
 20
0.0
 30
0.0
  3
*Paper_Space
  1

  0
ENDBLK
  5
1D
330
1B
100
AcDbEntity
 67
     1
  8
0
100
AcDbBlockEnd
  0
BLOCK
  5
24
330
23
100
AcDbEntity
 67
     1
  8
0
100
AcDbBlockBegin
  2
*Paper_Space0
 70
     0
 10
0.0
 20
0.0
 30
0.0
  3
*Paper_Space0
  1

  0
ENDBLK
  5
25
330
23
100
AcDbEntity
 67
     1
  8
0
100
AcDbBlockEnd
  0
BLOCK
  5
40
330
2E
100
AcDbEntity
  8
0
100
AcDbBlockBegin
  2
direct
 70
     2
 10
0.0
 20
0.0
 30
0.0
  3
direct
  1

  0
ATTDEF
  5
2F
330
2E
100
AcDbEntity
  8
ASHADE
  6
Continuous
 62
     1
100
AcDbText
 10
0.0
 20
-0.1
 30
0.0
 40
0.2
  1

  7
ASHADE
 72
     1
 11
0.0
 21
-0.1
 31
0.0
100
AcDbAttributeDefinition
280
     0
  3
Light Name
  2
SNAME
 70
     0
280
     0
  0
ARC
  5
30
330
2E
100
AcDbEntity
  8
ASHADE
  6
Continuous
 62
     7
100
AcDbCircle
 10
0.0
 20
0.0
 30
0.0
 40
0.3
100
AcDbArc
 50
205.6792886194569
 51
334.3207113805431
  0
ARC
  5
31
330
2E
100
AcDbEntity
  8
ASHADE
  6
Continuous
 62
     7
100
AcDbCircle
 10
0.0
 20
0.0
 30
0.0
 40
0.3
100
AcDbArc
 50
25.67928861945685
 51
154.3207113805431
  0
LINE
  5
32
330
2E
100
AcDbEntity
  8
ASHADE
  6
Continuous
 62
     7
100
AcDbLine
 10
-0.21
 20
0.2142428528562855
 30
0.0
 11
-0.21
 21
0.5
 31
0.0
  0
LINE
  5
33
330
2E
100
AcDbEntity
  8
ASHADE
  6
Continuous
 62
     7
100
AcDbLine
 10
-0.11
 20
0.2791057147390572
 30
0.0
 11
-0.11
 21
0.5
 31
0.0
  0
LINE
  5
34
330
2E
100
AcDbEntity
  8
ASHADE
  6
Continuous
 62
     7
100
AcDbLine
 10
0.21
 20
0.2142428528562855
 30
0.0
 11
0.21
 21
0.5
 31
0.0
  0
ATTDEF
  5
35
330
2E
100
AcDbEntity
  8
ASHADE
  6
Continuous
 62
     7
100
AcDbText
 10
0.0
 20
0.25
 30
0.0
 40
0.01
  1

100
AcDbAttributeDefinition
280
     0
  3
Look-at Y
  2
LAY
 70
     1
280
     0
  0
ATTDEF
  5
36
330
2E
100
AcDbEntity
  8
ASHADE
  6
Continuous
 62
     7
100
AcDbText
 10
0.0
 20
0.22
 30
0.0
 40
0.01
  1
1
100
AcDbAttributeDefinition
280
     0
  3
Light Intensity
  2
INTENSITY
 70
     1
280
     0
  0
ATTDEF
  5
37
330
2E
100
AcDbEntity
  8
ASHADE
  6
Continuous
 62
     7
100
AcDbText
 10
0.0
 20
0.16
 30
0.0
 40
0.01
  1
-1
100
AcDbAttributeDefinition
280
     0
  3
*not used*
  2
BEAMD
 70
     1
280
     0
  0
ATTDEF
  5
38
330
2E
100
AcDbEntity
  8
ASHADE
  6
Continuous
 62
     7
100
AcDbText
 10
0.0
 20
0.175
 30
0.0
 40
0.01
  1
-1
100
AcDbAttributeDefinition
280
     0
  3
*not used*
  2
CONED
 70
     1
280
     0
  0
ATTDEF
  5
39
330
2E
100
AcDbEntity
  8
ASHADE
  6
Continuous
 62
     7
100
AcDbText
 10
0.0
 20
0.19
 30
0.0
 40
0.01
  1
0
100
AcDbAttributeDefinition
280
     0
  3
Depth Map Size
  2
CONEA
 70
     1
280
     0
  0
ATTDEF
  5
3A
330
2E
100
AcDbEntity
  8
ASHADE
  6
Continuous
 62
     7
100
AcDbText
 10
0.0
 20
0.2050000000000001
 30
0.0
 40
0.01
  1
1,1,1
100
AcDbAttributeDefinition
280
     0
  3
Light Color (RGB)
  2
COLOR
 70
     1
280
     0
  0
ATTDEF
  5
3B
330
2E
100
AcDbEntity
  8
ASHADE
  6
Continuous
 62
     7
100
AcDbText
 10
0.0
 20
0.235
 30
0.0
 40
0.01
  1

100
AcDbAttributeDefinition
280
     0
  3
Look-at Z
  2
LAZ
 70
     1
280
     0
  0
LINE
  5
3C
330
2E
100
AcDbEntity
  8
ASHADE
  6
Continuous
 62
     7
100
AcDbLine
 10
0.0
 20
0.3
 30
0.0
 11
0.0
 21
0.5
 31
0.0
  0
LINE
  5
3D
330
2E
100
AcDbEntity
  8
ASHADE
  6
Continuous
 62
     7
100
AcDbLine
 10
0.11
 20
0.2791057147390572
 30
0.0
 11
0.11
 21
0.5
 31
0.0
  0
ATTDEF
  5
3E
330
2E
100
AcDbEntity
  8
ASHADE
  6
Continuous
 62
     7
100
AcDbText
 10
0.0
 20
0.265
 30
0.0
 40
0.01
  1

100
AcDbAttributeDefinition
280
     0
  3
Look-at X
  2
LAX
 70
     1
280
     0
  0
ATTDEF
  5
3F
330
2E
100
AcDbEntity
  8
ASHADE
  6
Continuous
 62
     7
100
AcDbText
 10
0.0
 20
0.28
 30
0.0
 40
0.01
  1

100
AcDbAttributeDefinition
280
     0
  3

  2
GNAME
 70
     1
280
     0
  0
ENDBLK
  5
41
330
2E
100
AcDbEntity
  8
0
100
AcDbBlockEnd
  0
BLOCK
  5
5D
330
42
100
AcDbEntity
  8
0
100
AcDbBlockBegin
  2
overhead
 70
     2
 10
0.0
 20
0.0
 30
0.0
  3
overhead
  1

  0
ATTDEF
  5
43
330
42
100
AcDbEntity
  8
ASHADE
  6
Continuous
 62
     1
100
AcDbText
 10
0.0
 20
-0.1
 30
0.0
 40
0.2
  1

  7
ASHADE
 72
     1
 11
0.0
 21
-0.1
 31
0.0
100
AcDbAttributeDefinition
280
     0
  3
Light Name
  2
SNAME
 70
     0
280
     0
  0
ARC
  5
44
330
42
100
AcDbEntity
  8
ASHADE
  6
Continuous
 62
     7
100
AcDbCircle
 10
0.0
 20
0.0
 30
0.0
 40
0.3
100
AcDbArc
 50
205.6792886194569
 51
334.3207113805431
  0
LINE
  5
45
330
42
100
AcDbEntity
  8
ASHADE
  6
Continuous
 62
     7
100
AcDbLine
 10
-0.2041413561583015
 20
-0.2198324514393848
 30
0.0
 11
-0.2721884748777353
 21
-0.2931099352525131
 31
0.0
  0
LINE
  5
46
330
42
100
AcDbEntity
  8
ASHADE
  6
Continuous
 62
     7
100
AcDbLine
 10
-0.1096591641591904
 20
-0.2792398032442862
 30
0.0
 11
-0.1279356915190555
 21
-0.3257797704516673
 31
0.0
  0
LINE
  5
47
330
42
100
AcDbEntity
  8
ASHADE
  6
Continuous
 62
     7
100
AcDbLine
 10
0.0
 20
-0.2999999999999999
 30
0.0
 11
0.0
 21
-0.4
 31
0.0
  0
LINE
  5
48
330
42
100
AcDbEntity
  8
ASHADE
  6
Continuous
 62
     7
100
AcDbLine
 10
0.1096591641591904
 20
-0.2792398032442862
 30
0.0
 11
0.1279356915190555
 21
-0.3257797704516673
 31
0.0
  0
LINE
  5
49
330
42
100
AcDbEntity
  8
ASHADE
  6
Continuous
 62
     7
100
AcDbLine
 10
0.2041413561583015
 20
-0.2198324514393848
 30
0.0
 11
0.2721884748777353
 21
-0.2931099352525131
 31
0.0
  0
ARC
  5
4A
330
42
100
AcDbEntity
  8
ASHADE
  6
Continuous
 62
     7
100
AcDbCircle
 10
0.0
 20
0.0
 30
0.0
 40
0.3
100
AcDbArc
 50
25.67928861945685
 51
154.3207113805431
  0
LINE
  5
4B
330
42
100
AcDbEntity
  8
ASHADE
  6
Continuous
 62
     7
100
AcDbLine
 10
-0.2703701166919155
 20
0.13
 30
0.0
 11
-0.3154318028072347
 21
0.1516666666666666
 31
0.0
  0
LINE
  5
4C
330
42
100
AcDbEntity
  8
ASHADE
  6
Continuous
 62
     7
100
AcDbLine
 10
-0.2703701166919155
 20
-0.13
 30
0.0
 11
-0.3154318028072347
 21
-0.1516666666666666
 31
0.0
  0
LINE
  5
4D
330
42
100
AcDbEntity
  8
ASHADE
  6
Continuous
 62
     7
100
AcDbLine
 10
-0.2041413561583015
 20
0.2198324514393849
 30
0.0
 11
-0.2721884748777353
 21
0.2931099352525131
 31
0.0
  0
LINE
  5
4E
330
42
100
AcDbEntity
  8
ASHADE
  6
Continuous
 62
     7
100
AcDbLine
 10
-0.1096591641591904
 20
0.2792398032442862
 30
0.0
 11
-0.1279356915190555
 21
0.3257797704516674
 31
0.0
  0
LINE
  5
4F
330
42
100
AcDbEntity
  8
ASHADE
  6
Continuous
 62
     7
100
AcDbLine
 10
0.2703701166919155
 20
-0.13
 30
0.0
 11
0.3154318028072347
 21
-0.1516666666666666
 31
0.0
  0
LINE
  5
50
330
42
100
AcDbEntity
  8
ASHADE
  6
Continuous
 62
     7
100
AcDbLine
 10
0.2703701166919155
 20
0.13
 30
0.0
 11
0.3154318028072347
 21
0.1516666666666666
 31
0.0
  0
LINE
  5
51
330
42
100
AcDbEntity
  8
ASHADE
  6
Continuous
 62
     7
100
AcDbLine
 10
0.0
 20
0.3
 30
0.0
 11
0.0
 21
0.4
 31
0.0
  0
ATTDEF
  5
52
330
42
100
AcDbEntity
  8
ASHADE
  6
Continuous
 62
     7
100
AcDbText
 10
0.0
 20
0.22
 30
0.0
 40
0.01
  1
1
100
AcDbAttributeDefinition
280
     0
  3
Light Intensity
  2
INTENSITY
 70
     1
280
     0
  0
ATTDEF
  5
53
330
42
100
AcDbEntity
  8
ASHADE
  6
Continuous
 62
     7
100
AcDbText
 10
0.0
 20
0.16
 30
0.0
 40
0.01
  1
-1
100
AcDbAttributeDefinition
280
     0
  3
*not used*
  2
BEAMD
 70
     1
280
     0
  0
ATTDEF
  5
54
330
42
100
AcDbEntity
  8
ASHADE
  6
Continuous
 62
     7
100
AcDbText
 10
0.0
 20
0.175
 30
0.0
 40
0.01
  1
-1
100
AcDbAttributeDefinition
280
     0
  3
*not used*
  2
CONED
 70
     1
280
     0
  0
ATTDEF
  5
55
330
42
100
AcDbEntity
  8
ASHADE
  6
Continuous
 62
     7
100
AcDbText
 10
0.0
 20
0.19
 30
0.0
 40
0.01
  1
0
100
AcDbAttributeDefinition
280
     0
  3
Depth Map Size
  2
CONEA
 70
     1
280
     0
  0
ATTDEF
  5
56
330
42
100
AcDbEntity
  8
ASHADE
  6
Continuous
 62
     7
100
AcDbText
 10
0.0
 20
0.2050000000000001
 30
0.0
 40
0.01
  1
1,1,1
100
AcDbAttributeDefinition
280
     0
  3
Light Color (RGB)
  2
COLOR
 70
     1
280
     0
  0
ATTDEF
  5
57
330
42
100
AcDbEntity
  8
ASHADE
  6
Continuous
 62
     7
100
AcDbText
 10
0.0
 20
0.235
 30
0.0
 40
0.01
  1

100
AcDbAttributeDefinition
280
     0
  3
Look-at Z
  2
LAZ
 70
     1
280
     0
  0
ATTDEF
  5
58
330
42
100
AcDbEntity
  8
ASHADE
  6
Continuous
 62
     7
100
AcDbText
 10
0.0
 20
0.25
 30
0.0
 40
0.01
  1

100
AcDbAttributeDefinition
280
     0
  3
Look-at Y
  2
LAY
 70
     1
280
     0
  0
ATTDEF
  5
59
330
42
100
AcDbEntity
  8
ASHADE
  6
Continuous
 62
     7
100
AcDbText
 10
0.0
 20
0.265
 30
0.0
 40
0.01
  1

100
AcDbAttributeDefinition
280
     0
  3
Look-at X
  2
LAX
 70
     1
280
     0
  0
ATTDEF
  5
5A
330
42
100
AcDbEntity
  8
ASHADE
  6
Continuous
 62
     7
100
AcDbText
 10
0.0
 20
0.28
 30
0.0
 40
0.01
  1

100
AcDbAttributeDefinition
280
     0
  3

  2
GNAME
 70
     1
280
     0
  0
LINE
  5
5B
330
42
100
AcDbEntity
  8
ASHADE
  6
Continuous
 62
     7
100
AcDbLine
 10
0.1096591641591904
 20
0.2792398032442862
 30
0.0
 11
0.1279356915190555
 21
0.3257797704516674
 31
0.0
  0
LINE
  5
5C
330
42
100
AcDbEntity
  8
ASHADE
  6
Continuous
 62
     7
100
AcDbLine
 10
0.2041413561583015
 20
0.2198324514393849
 30
0.0
 11
0.2721884748777353
 21
0.2931099352525131
 31
0.0
  0
ENDBLK
  5
5E
330
42
100
AcDbEntity
  8
0
100
AcDbBlockEnd
  0
BLOCK
  5
85
330
5F
100
AcDbEntity
  8
0
100
AcDbBlockBegin
  2
sh_spot
 70
     2
 10
0.0
 20
0.0
 30
0.0
  3
sh_spot
  1

  0
LINE
  5
60
330
5F
100
AcDbEntity
  8
ASHADE
  6
Continuous
 62
     7
100
AcDbLine
 10
0.25
 20
0.26
 30
0.0
 11
-0.25
 21
0.26
 31
0.0
  0
LINE
  5
61
330
5F
100
AcDbEntity
  8
ASHADE
  6
Continuous
 62
     7
100
AcDbLine
 10
-0.25
 20
-0.3399999999999999
 30
0.0
 11
0.25
 21
-0.3399999999999999
 31
0.0
  0
ATTDEF
  5
62
330
5F
100
AcDbEntity
  8
ASHADE
  6
Continuous
 62
     1
100
AcDbText
 10
0.0
 20
-0.1
 30
0.0
 40
0.2
  1

  7
ASHADE
 72
     1
 11
0.0
 21
-0.1
 31
0.0
100
AcDbAttributeDefinition
280
     0
  3
Light Name
  2
SNAME
 70
     0
280
     0
  0
LINE
  5
63
330
5F
100
AcDbEntity
  8
ASHADE
  6
Continuous
 62
     7
100
AcDbLine
 10
-0.25
 20
-0.13
 30
0.0
 11
-0.25
 21
-0.3399999999999999
 31
0.0
  0
LINE
  5
64
330
5F
100
AcDbEntity
  8
ASHADE
  6
Continuous
 62
     7
100
AcDbLine
 10
-0.25
 20
-0.18
 30
0.0
 11
-0.29
 21
-0.18
 31
0.0
  0
LINE
  5
65
330
5F
100
AcDbEntity
  8
ASHADE
  6
Continuous
 62
     7
100
AcDbLine
 10
-0.29
 20
-0.22
 30
0.0
 11
-0.25
 21
-0.22
 31
0.0
  0
LINE
  5
66
330
5F
100
AcDbEntity
  8
ASHADE
  6
Continuous
 62
     7
100
AcDbLine
 10
-0.29
 20
-0.18
 30
0.0
 11
-0.29
 21
-0.22
 31
0.0
  0
LINE
  5
67
330
5F
100
AcDbEntity
  8
ASHADE
  6
Continuous
 62
     7
100
AcDbLine
 10
-0.1045454545454545
 20
0.26
 30
0.0
 11
-0.15
 21
0.46
 31
0.0
  0
LINE
  5
68
330
5F
100
AcDbEntity
  8
ASHADE
  6
Continuous
 62
     7
100
AcDbLine
 10
-0.21
 20
0.26
 30
0.0
 11
-0.301304347826087
 21
0.46
 31
0.0
  0
LINE
  5
69
330
5F
100
AcDbEntity
  8
ASHADE
  6
Continuous
 62
     7
100
AcDbLine
 10
-0.25
 20
0.26
 30
0.0
 11
-0.25
 21
0.13
 31
0.0
  0
LINE
  5
6A
330
5F
100
AcDbEntity
  8
ASHADE
  6
Continuous
 62
     7
100
AcDbLine
 10
-0.25
 20
0.22
 30
0.0
 11
-0.29
 21
0.22
 31
0.0
  0
LINE
  5
6B
330
5F
100
AcDbEntity
  8
ASHADE
  6
Continuous
 62
     7
100
AcDbLine
 10
-0.29
 20
0.1799999999999999
 30
0.0
 11
-0.25
 21
0.1799999999999999
 31
0.0
  0
LINE
  5
6C
330
5F
100
AcDbEntity
  8
ASHADE
  6
Continuous
 62
     7
100
AcDbLine
 10
-0.29
 20
0.22
 30
0.0
 11
-0.29
 21
0.1799999999999999
 31
0.0
  0
ATTDEF
  5
6D
330
5F
100
AcDbEntity
  8
ASHADE
  6
Continuous
 62
     7
100
AcDbText
 10
0.0
 20
-0.24
 30
0.0
 40
0.01
  1
0
100
AcDbAttributeDefinition
280
     0
  3
Depth Map Size
  2
ZSIZE
 70
     1
280
     0
  0
ATTDEF
  5
6E
330
5F
100
AcDbEntity
  8
ASHADE
  6
Continuous
 62
     7
100
AcDbText
 10
0.0
 20
-0.3300000000000001
 30
0.0
 40
0.01
  1
0,0,0
100
AcDbAttributeDefinition
280
     0
  3
Look-from XYZ
  2
LFXYZ
 70
     1
280
     0
  0
ATTDEF
  5
6F
330
5F
100
AcDbEntity
  8
ASHADE
  6
Continuous
 62
     7
100
AcDbText
 10
0.0
 20
-0.315
 30
0.0
 40
0.01
  1
0.0
100
AcDbAttributeDefinition
280
     0
  3
Beam Distribution
  2
BEAMDI
 70
     1
280
     0
  0
ATTDEF
  5
70
330
5F
100
AcDbEntity
  8
ASHADE
  6
Continuous
 62
     7
100
AcDbText
 10
0.0
 20
-0.3
 30
0.0
 40
0.01
  1
0.0
100
AcDbAttributeDefinition
280
     0
  3
Cone Delta
  2
CONEDE
 70
     1
280
     0
  0
ATTDEF
  5
71
330
5F
100
AcDbEntity
  8
ASHADE
  6
Continuous
 62
     7
100
AcDbText
 10
0.0
 20
-0.2850000000000001
 30
0.0
 40
0.01
  1
10.0
100
AcDbAttributeDefinition
280
     0
  3
Cone Angle
  2
CONEAN
 70
     1
280
     0
  0
ATTDEF
  5
72
330
5F
100
AcDbEntity
  8
ASHADE
  6
Continuous
 62
     7
100
AcDbText
 10
0.0
 20
-0.27
 30
0.0
 40
0.01
  1
-1
100
AcDbAttributeDefinition
280
     0
  3
*not used*
  2
BIASMAX
 70
     1
280
     0
  0
ATTDEF
  5
73
330
5F
100
AcDbEntity
  8
ASHADE
  6
Continuous
 62
     7
100
AcDbText
 10
0.0
 20
-0.255
 30
0.0
 40
0.01
  1
-1
100
AcDbAttributeDefinition
280
     0
  3
*not used*
  2
BIASMIN
 70
     1
280
     0
  0
ATTDEF
  5
74
330
5F
100
AcDbEntity
  8
ASHADE
  6
Continuous
 62
     7
100
AcDbText
 10
0.0
 20
-0.225
 30
0.0
 40
0.01
  1
1,1,1
100
AcDbAttributeDefinition
280
     0
  3
Light Color (RGB)
  2
COLOR
 70
     1
280
     0
  0
ATTDEF
  5
75
330
5F
100
AcDbEntity
  8
ASHADE
  6
Continuous
 62
     7
100
AcDbText
 10
0.0
 20
-0.21
 30
0.0
 40
0.01
  1
1
100
AcDbAttributeDefinition
280
     0
  3
Light Intensity
  2
INTENSITY
 70
     1
280
     0
  0
ATTDEF
  5
76
330
5F
100
AcDbEntity
  8
ASHADE
  6
Continuous
 62
     7
100
AcDbText
 10
0.0
 20
-0.15
 30
0.0
 40
0.01
  1

100
AcDbAttributeDefinition
280
     0
  3

  2
GNAME
 70
     1
280
     0
  0
ATTDEF
  5
77
330
5F
100
AcDbEntity
  8
ASHADE
  6
Continuous
 62
     7
100
AcDbText
 10
0.0
 20
-0.195
 30
0.0
 40
0.01
  1

100
AcDbAttributeDefinition
280
     0
  3
Look-at Z
  2
LAZ
 70
     1
280
     0
  0
ATTDEF
  5
78
330
5F
100
AcDbEntity
  8
ASHADE
  6
Continuous
 62
     7
100
AcDbText
 10
0.0
 20
-0.18
 30
0.0
 40
0.01
  1

100
AcDbAttributeDefinition
280
     0
  3
Look-at Y
  2
LAY
 70
     1
280
     0
  0
ATTDEF
  5
79
330
5F
100
AcDbEntity
  8
ASHADE
  6
Continuous
 62
     7
100
AcDbText
 10
0.0
 20
-0.165
 30
0.0
 40
0.01
  1

100
AcDbAttributeDefinition
280
     0
  3
Look-at X
  2
LAX
 70
     1
280
     0
  0
LINE
  5
7A
330
5F
100
AcDbEntity
  8
ASHADE
  6
Continuous
 62
     7
100
AcDbLine
 10
0.25
 20
-0.3399999999999999
 30
0.0
 11
0.25
 21
-0.13
 31
0.0
  0
LINE
  5
7B
330
5F
100
AcDbEntity
  8
ASHADE
  6
Continuous
 62
     7
100
AcDbLine
 10
0.25
 20
-0.18
 30
0.0
 11
0.29
 21
-0.18
 31
0.0
  0
LINE
  5
7C
330
5F
100
AcDbEntity
  8
ASHADE
  6
Continuous
 62
     7
100
AcDbLine
 10
0.29
 20
-0.22
 30
0.0
 11
0.25
 21
-0.22
 31
0.0
  0
LINE
  5
7D
330
5F
100
AcDbEntity
  8
ASHADE
  6
Continuous
 62
     7
100
AcDbLine
 10
0.29
 20
-0.18
 30
0.0
 11
0.29
 21
-0.22
 31
0.0
  0
LINE
  5
7E
330
5F
100
AcDbEntity
  8
ASHADE
  6
Continuous
 62
     7
100
AcDbLine
 10
0.21
 20
0.26
 30
0.0
 11
0.301304347826087
 21
0.46
 31
0.0
  0
LINE
  5
7F
330
5F
100
AcDbEntity
  8
ASHADE
  6
Continuous
 62
     7
100
AcDbLine
 10
0.1045454545454545
 20
0.26
 30
0.0
 11
0.15
 21
0.46
 31
0.0
  0
LINE
  5
80
330
5F
100
AcDbEntity
  8
ASHADE
  6
Continuous
 62
     7
100
AcDbLine
 10
0.0
 20
0.26
 30
0.0
 11
0.0
 21
0.46
 31
0.0
  0
LINE
  5
81
330
5F
100
AcDbEntity
  8
ASHADE
  6
Continuous
 62
     7
100
AcDbLine
 10
0.25
 20
0.13
 30
0.0
 11
0.25
 21
0.26
 31
0.0
  0
LINE
  5
82
330
5F
100
AcDbEntity
  8
ASHADE
  6
Continuous
 62
     7
100
AcDbLine
 10
0.25
 20
0.22
 30
0.0
 11
0.29
 21
0.22
 31
0.0
  0
LINE
  5
83
330
5F
100
AcDbEntity
  8
ASHADE
  6
Continuous
 62
     7
100
AcDbLine
 10
0.29
 20
0.1799999999999999
 30
0.0
 11
0.25
 21
0.1799999999999999
 31
0.0
  0
LINE
  5
84
330
5F
100
AcDbEntity
  8
ASHADE
  6
Continuous
 62
     7
100
AcDbLine
 10
0.29
 20
0.22
 30
0.0
 11
0.29
 21
0.1799999999999999
 31
0.0
  0
ENDBLK
  5
86
330
5F
100
AcDbEntity
  8
0
100
AcDbBlockEnd
  0
BLOCK
  5
92
330
91
100
AcDbEntity
  8
ASHADE
100
AcDbBlockBegin
  2
AVE_RENDER
 70
     0
 10
0.0
 20
0.0
 30
0.0
  3
AVE_RENDER
  1
AVE_RENDER
  0
ENDBLK
  5
93
330
91
100
AcDbEntity
  8
0
100
AcDbBlockEnd
  0
BLOCK
  5
A0
330
9F
100
AcDbEntity
  8
ASHADE
100
AcDbBlockBegin
  2
AVE_GLOBAL
 70
     0
 10
0.0
 20
0.0
 30
0.0
  3
AVE_GLOBAL
  1
AVE_GLOBAL
  0
ENDBLK
  5
A1
330
9F
100
AcDbEntity
  8
0
100
AcDbBlockEnd
  0
ENDSEC
  0
SECTION
  2
ENTITIES
  0
INSERT
  5
94
330
1F
100
AcDbEntity
  8
ASHADE
 62
     1
100
AcDbBlockReference
  2
AVE_RENDER
 10
0.0
 20
0.0
 30
0.0
1001
AVE_RENDER
1002
{
1070
     7
1000
Pref
1070
    30
1070
    20
1070
     1
1070
     0
1000

1070
    10
1070
     1
1070
    10
1040
1.0
1070
     1
1040
0.3
1040
0.7
1040
0.0
1040
10.0
1010
-1.0
1020
-1.0
1030
-1.0
1040
0.3
1070
    49
1070
     0
1070
     0
1010
1.0
1020
1.0
1030
1.0
1040
45.0
1070
     1
1070
     0
1000
WCS
1040
0.0
1070
     0
1040
10.0
1002
}
  0
INSERT
  5
95
330
1F
100
AcDbEntity
  8
ASHADE
 62
     3
100
AcDbBlockReference
  2
AVE_RENDER
 10
0.0
 20
0.0
 30
0.0
1001
AVE_RENDER
1002
{
1070
     0
1000
Full Opt
1070
     0
1070
     1
1070
     1
1070
     1
1070
     0
1070
     0
1070
     0
1070
     1
1070
     1
1040
0.0001
1040
0.0001
1002
}
  0
INSERT
  5
96
330
1F
100
AcDbEntity
  8
ASHADE
 62
     4
100
AcDbBlockReference
  2
AVE_RENDER
 10
0.0
 20
0.0
 30
0.0
1001
AVE_RENDER
1002
{
1070
     0
1000
Quick Opt
1070
     0
1070
     1
1070
     1
1070
     1
1070
     0
1070
     0
1070
     1
1002
}
  0
INSERT
  5
97
330
1F
100
AcDbEntity
  8
ASHADE
 62
     5
100
AcDbBlockReference
  2
AVE_RENDER
 10
0.0
 20
0.0
 30
0.0
1001
AVE_RENDER
1002
{
1070
     1
1000
Scanl Opt
1070
     2
1070
     0
1070
     2
1040
2.0
1040
4.0
1070
     0
1070
     1
1070
     0
1040
0.03
1002
}
  0
INSERT
  5
98
330
1F
100
AcDbEntity
  8
ASHADE
 62
     6
100
AcDbBlockReference
  2
AVE_RENDER
 10
0.0
 20
0.0
 30
0.0
1001
AVE_RENDER
1002
{
1070
     2
1000
Raytr Opt
1070
     2
1070
     0
1070
     2
1040
2.0
1040
4.0
1070
     0
1070
     1
1070
     1
1040
0.03
1070
     3
1040
0.03
1002
}
  0
INSERT
  5
99
330
1F
100
AcDbEntity
  8
ASHADE
 62
     7
100
AcDbBlockReference
  2
AVE_RENDER
 10
0.0
 20
0.0
 30
0.0
1001
AVE_RENDER
1002
{
1070
     0
1000
RFile Opt
1070
     1
1070
   640
1070
   480
1070
 10000
1070
     1
1070
     8
1070
     8
1070
     0
1070
     0
1070
     0
1070
     0
1070
     0
1070
     0
1070
     0
1002
}
  0
INSERT
  5
9A
330
1F
100
AcDbEntity
  8
ASHADE
 62
     8
100
AcDbBlockReference
  2
AVE_RENDER
 10
0.0
 20
0.0
 30
0.0
1001
AVE_RENDER
1002
{
1070
     0
1000
Fog Opt
1070
     0
1070
     0
1040
0.0
1040
1.0
1040
0.0
1040
1.0
1010
0.5
1020
0.5
1030
0.5
1002
}
  0
INSERT
  5
9B
330
1F
100
AcDbEntity
  8
ASHADE
 62
     9
100
AcDbBlockReference
  2
AVE_RENDER
 10
0.0
 20
0.0
 30
0.0
1001
AVE_RENDER
1002
{
1070
     0
1000
BG Opt
1070
     0
1070
     1
1010
0.0
1020
0.0
1030
0.0
1010
1.0
1020
0.0
1030
0.0
1010
0.0
1020
1.0
1030
0.0
1010
0.0
1020
0.0
1030
1.0
1040
0.5
1040
0.33
1040
0.0
1000

1070
     1
1000

1070
     1
1070
     1
1040
1.0
1040
1.0
1040
0.0
1040
0.0
1070
     0
1002
}
  0
INSERT
  5
A2
330
1F
100
AcDbEntity
  8
ASHADE
 62
     1
100
AcDbBlockReference
  2
AVE_GLOBAL
 10
0.0
 20
0.0
 30
0.0
1001
AVE_MATERIAL
1002
{
1000
*GLOBAL*
1000
2
1000
Global finish.
1002
{
1002
}
1002
{
1070
    63
1002
{
1002
{
1010
-1.0
1020
-1.0
1030
-1.0
1002
}
1040
0.1000000014901161
1000

1040
0.0
1002
{
1002
}
1040
0.0
1002
{
1002
}
1040
0.0
1002
}
1002
{
1002
{
1010
-1.0
1020
-1.0
1030
-1.0
1002
}
1040
0.6999999880790711
1000

1040
0.0
1002
{
1002
}
1040
0.0
1002
{
1002
}
1040
0.0
1002
}
1002
{
1002
{
1010
-1.0
1020
-1.0
1030
-1.0
1002
}
1040
0.2000000029802322
1000

1040
0.0
1002
{
1002
}
1040
0.0
1002
{
1002
}
1040
0.0
1002
}
1002
{
1070
     0
1002
{
1070
     1
1002
{
1040
1.0
1040
1.0
1000

1040
0.0
1002
{
1002
}
1040
0.0
1002
{
1002
}
1040
0.0
1002
}
1002
}
1040
1.0
1040
0.0
1040
0.0
1002
}
1002
{
1040
1.0
1040
1.0
1000

1040
0.0
1002
{
1002
}
1040
0.0
1002
{
1002
}
1040
0.0
1002
}
1002
{
1040
0.5
1040
1.0
1000

1040
0.0
1002
{
1002
}
1040
0.0
1002
{
1002
}
1040
0.0
1002
}
1002
{
1070
     0
1040
0.0
1002
{
1002
}
1040
1.0
1002
{
1002
}
1040
0.0
1002
}
1002
{
1040
0.0
1002
{
1002
{
1010
0.0
1020
0.0
1030
0.0
1002
}
1040
1.0
1000

1040
0.0
1002
{
1002
}
1040
0.0
1002
{
1002
}
1040
0.0
1002
}
1002
}
1002
{
1002
{
1070
     1
1002
{
1040
0.0
1040
1.0
1000

1040
0.0
1002
{
1002
}
1040
0.0
1002
{
1002
}
1040
0.0
1002
}
1002
}
1040
0.0
1002
{
1002
}
1010
1.0
1020
0.0
1030
0.0
1010
0.0
1020
1.0
1030
0.0
1010
0.0
1020
0.0
1030
1.0
1070
     0
1002
}
1002
{
1002
{
1040
1.0
1040
1.0
1002
{
1070
     1
1002
{
1040
1.0
1040
1.0
1000

1040
0.0
1002
{
1002
}
1040
0.0
1002
{
1002
}
1040
0.0
1002
}
1002
}
1002
}
1070
     0
1040
0.0
1002
{
1002
}
1002
}
1002
{
1002
}
1002
}
1002
{
1071
        3
1070
     3
1070
     0
1002
{
1070
     2
1070
     0
1070
     0
1040
0.0
1002
}
1070
     0
1070
     2
1002
{
1002
}
1002
}
1002
{
1040
8030.0
1040
190.3000030517578
1040
0.3050000071525574
1040
228.0
1040
545.0
1040
14.0
1040
17.39999961853027
1040
0.4560000002384186
1002
}
1002
}
  0
MESH
  5
F9
330
1F
100
AcDbEntity
  8
OracDecor_cornice_mouldings
 62
   116
420
   427834
160
             24200
310
885E0000A00200000C00000013000000020000003C00000006000000020000000000000000408F40000000C0F3FF11C000000000000044C00000000000408F40000000000000093F00000000000044C00C000000130000000A0000003C00000006000000020000000000000000408F40000000C0F3FF11C000000000000044
310
C0000000C0FF3F8FC000000000DDFF11C000000000000044C00C00000013000000120000003C0000000600000002000000000000C0FF3F8FC00000000000C0213F00000000000044C0000000C0FF3F8FC000000000DDFF11C000000000000044C00C000000130000001A0000003C0000000600000002000000000000000040
310
8F40000000000000093F00000000000044C0000000C0FF3F8FC00000000000C0213F00000000000044C00C00000013000000220000003C00000006000000020000000000000000408F4000000040F3FF12C0000000006DF743C00000000000408F40000000C0F3FF11C000000000000044C00C000000130000002A0000003C
310
00000006000000020000000000000000408F4000000040F3FF12C0000000006DF743C0000000C0FF3F8FC000000080DCFF12C0000000006DF743C00C00000013000000320000003C0000000600000002000000000000C0FF3F8FC000000000DDFF11C000000000000044C0000000C0FF3F8FC000000080DCFF12C000000000
310
6DF743C00C000000130000003A0000003C00000006000000020000000000000000408F40000000405CBB13C0000000E0FFDF43C00000000000408F4000000040F3FF12C0000000006DF743C00C00000013000000420000003C00000006000000020000000000000000408F40000000405CBB13C0000000E0FFDF43C0000000
310
C0FF3F8FC00000008045BB13C0000000E0FFDF43C00C000000130000004A0000003C0000000600000002000000000000C0FF3F8FC00000008045BB13C0000000E0FFDF43C0000000C0FF3F8FC000000080DCFF12C0000000006DF743C00C00000013000000520000003C00000006000000020000000000000000408F400000
310
00C0F3FF13C00000000000C043C00000000000408F40000000405CBB13C0000000E0FFDF43C00C000000130000005A0000003C00000006000000020000000000000000408F40000000C0F3FF13C00000000000C043C0000000C0FF3F8FC000000000DDFF13C00000000000C043C00C00000013000000620000003C00000006
310
00000002000000000000C0FF3F8FC000000000DDFF13C00000000000C043C0000000C0FF3F8FC00000008045BB13C0000000E0FFDF43C00C000000130000006A0000003C00000006000000020000000000000000408F40000000C0F3FF13C000000080512D43C00000000000408F40000000C0F3FF13C00000000000C043C0
310
0C00000013000000720000003C00000006000000020000000000000000408F40000000C0F3FF13C000000080512D43C0000000C0FF3F8FC000000000DDFF13C000000080512D43C00C000000130000007A0000003C0000000600000002000000000000C0FF3F8FC000000000DDFF13C000000080512D43C0000000C0FF3F8F
310
C000000000DDFF13C00000000000C043C00C00000013000000820000003C00000006000000020000000000000000408F4000000040089E14C0000000E0B1CA42C00000000000408F40000000C0F3FF13C000000080512D43C00C000000130000008A0000003C00000006000000020000000000000000408F4000000040089E
310
14C0000000E0B1CA42C0000000C0FF3F8FC000000080F19D14C0000000E0B1CA42C00C00000013000000920000003C0000000600000002000000000000C0FF3F8FC000000000DDFF13C000000080512D43C0000000C0FF3F8FC000000080F19D14C0000000E0B1CA42C00C000000130000009A0000003C0000000600000002
310
0000000000000000408F4000000040D25F16C0000000404D7742C00000000000408F4000000040089E14C0000000E0B1CA42C00C00000013000000A20000003C00000006000000020000000000000000408F4000000040D25F16C0000000404D7742C0000000C0FF3F8FC000000080BB5F16C0000000404D7742C00C000000
310
13000000AA0000003C0000000600000002000000000000C0FF3F8FC000000080BB5F16C0000000404D7742C0000000C0FF3F8FC000000080F19D14C0000000E0B1CA42C00C00000013000000B20000003C00000006000000020000000000000000408F40000000C0F3FF18C000000000004042C00000000000408F40000000
310
40D25F16C0000000404D7742C00C00000013000000BA0000003C00000006000000020000000000000000408F40000000C0F3FF18C000000000004042C0000000C0FF3F8FC000000000DDFF18C000000000004042C00C00000013000000C20000003C0000000600000002000000000000C0FF3F8FC000000000DDFF18C00000
310
0000004042C0000000C0FF3F8FC000000080BB5F16C0000000404D7742C00C00000013000000CA0000003C00000006000000020000000000000000408F40000000C015A01BC0000000C0B20842C00000000000408F40000000C0F3FF18C000000000004042C00C00000013000000D20000003C000000060000000200000000
310
00000000408F40000000C015A01BC0000000C0B20842C0000000C0FF3F8FC000000000FF9F1BC0000000C0B20842C00C00000013000000DA0000003C0000000600000002000000000000C0FF3F8FC000000000DDFF18C000000000004042C0000000C0FF3F8FC000000000FF9F1BC0000000C0B20842C00C00000013000000
310
E20000003C00000006000000020000000000000000408F4000000000E0611DC0000000004EB541C00000000000408F40000000C015A01BC0000000C0B20842C00C00000013000000EA0000003C00000006000000020000000000000000408F4000000000E0611DC0000000004EB541C0000000C0FF3F8FC000000000C9611D
310
C0000000004EB541C00C00000013000000F20000003C0000000600000002000000000000C0FF3F8FC000000000C9611DC0000000004EB541C0000000C0FF3F8FC000000000FF9F1BC0000000C0B20842C00C00000013000000FA0000003C00000006000000020000000000000000408F4000000040F4FF1DC000000080AE52
310
41C00000000000408F4000000000E0611DC0000000004EB541C00C00000013000000020100003C00000006000000020000000000000000408F4000000040F4FF1DC000000080AE5241C0000000C0FF3F8FC000000080DDFF1DC000000080AE5241C00C000000130000000A0100003C0000000600000002000000000000C0FF
310
3F8FC000000080DDFF1DC000000080AE5241C0000000C0FF3F8FC000000000C9611DC0000000004EB541C00C00000013000000120100003C00000006000000020000000000000000408F4000000000F4FF1DC000000000008040C00000000000408F4000000040F4FF1DC000000080AE5241C00C000000130000001A010000
310
3C00000006000000020000000000000000408F4000000000F4FF1DC000000000008040C0000000C0FF3F8FC000000040DDFF1DC000000000008040C00C00000013000000220100003C0000000600000002000000000000C0FF3F8FC000000080DDFF1DC000000080AE5241C0000000C0FF3F8FC000000040DDFF1DC0000000
310
00008040C00C000000130000002A0100003C00000006000000020000000000000000408F4000000040B30223C000000000008040C00000000000408F4000000000F4FF1DC000000000008040C00C00000013000000320100003C00000006000000020000000000000000408F4000000040B30223C000000000008040C00000
310
00C0FF3F8FC0000000C0A70223C000000000008040C00C000000130000003A0100003C0000000600000002000000000000C0FF3F8FC000000040DDFF1DC000000000008040C0000000C0FF3F8FC0000000C0A70223C000000000008040C00C00000013000000420100003C00000006000000020000000000000000408F4000
310
000040208123C0000000A0A67740C00000000000408F4000000040B30223C000000000008040C00C000000130000004A0100003C00000006000000020000000000000000408F4000000040208123C0000000A0A67740C0000000C0FF3F8FC0000000E0148123C0000000A0A67740C00C00000013000000520100003C000000
310
0600000002000000000000C0FF3F8FC0000000C0A70223C000000000008040C0000000C0FF3F8FC0000000E0148123C0000000A0A67740C00C000000130000005A0100003C00000006000000020000000000000000408F400000004090DE23C0000000A0C86040C00000000000408F4000000040208123C0000000A0A67740
310
C00C00000013000000620100003C00000006000000020000000000000000408F400000004090DE23C0000000A0C86040C0000000C0FF3F8FC0000000E084DE23C0000000A0C86040C00C000000130000006A0100003C0000000600000002000000000000C0FF3F8FC0000000E084DE23C0000000A0C86040C0000000C0FF3F
310
8FC0000000E0148123C0000000A0A67740C00C00000013000000720100003C00000006000000020000000000000000408F4000000080A40224C0000000A05C4140C00000000000408F400000004090DE23C0000000A0C86040C00C000000130000007A0100003C00000006000000020000000000000000408F4000000080A4
310
0224C0000000A05C4140C0000000C0FF3F8FC000000000990224C0000000A05C4140C00C00000013000000820100003C0000000600000002000000000000C0FF3F8FC000000000990224C0000000A05C4140C0000000C0FF3F8FC0000000E084DE23C0000000A0C86040C00C000000130000008A0100003C00000006000000
310
020000000000000000408F4000000080A40224C0000000A05C4140C00000000000408F4000000040BBFA24C00000004022D13CC00C00000013000000920100003C0000000600000002000000000000C0FF3F8FC0000000E0AFFA24C00000004022D13CC00000000000408F4000000040BBFA24C00000004022D13CC00C0000
310
00130000009A0100003C0000000600000002000000000000C0FF3F8FC0000000E0AFFA24C00000004022D13CC0000000C0FF3F8FC000000000990224C0000000A05C4140C00C00000013000000A20100003C00000006000000020000000000000000408F4000000080613126C00000002050553AC00000000000408F400000
310
00C02FDC27C0000000006E0A38C00C00000013000000AA0100003C0000000600000002000000000000C0FF3F8FC00000006024DC27C0000000006E0A38C00000000000408F40000000C02FDC27C0000000006E0A38C00C00000013000000B20100003C0000000600000002000000000000C0FF3F8FC00000006024DC27C000
310
0000006E0A38C0000000C0FF3F8FC000000020563126C00000002050553AC00C00000013000000BA0100003C00000006000000020000000000000000408F4000000080613126C00000002050553AC0000000C0FF3F8FC000000020563126C00000002050553AC00C00000013000000C20100003C0000000600000002000000
310
0000000000408F4000000000E31E2AC0000000E057BF35C00000000000408F4000000040CBBD2CC0000000409BB033C00C00000013000000CA0100003C0000000600000002000000000000C0FF3F8FC0000000E0BFBD2CC0000000409BB033C00000000000408F4000000040CBBD2CC0000000409BB033C00C000000130000
310
00D20100003C0000000600000002000000000000C0FF3F8FC0000000E0BFBD2CC0000000409BB033C0000000C0FF3F8FC000000080D71E2AC0000000E057BF35C00C00000013000000DA0100003C00000006000000020000000000000000408F4000000000E31E2AC0000000E057BF35C0000000C0FF3F8FC000000080D71E
310
2AC0000000E057BF35C00C00000013000000E20100003C00000006000000020000000000000000408F400000004012F12FC00000006020B231C00000000000408F40000000401DB231C00000008018F12FC00C00000013000000EA0100003C0000000600000002000000000000C0FF3F8FC00000008017B231C00000008018
310
F12FC00000000000408F40000000401DB231C00000008018F12FC00C00000013000000F20100003C0000000600000002000000000000C0FF3F8FC00000008017B231C00000008018F12FC0000000C0FF3F8FC0000000E006F12FC00000006020B231C00C00000013000000FA0100003C000000060000000200000000000000
310
00408F400000004012F12FC00000006020B231C0000000C0FF3F8FC0000000E006F12FC00000006020B231C00C00000013000000020200003C00000006000000020000000000000000408F400000002098B033C000000080D1BD2CC00000000000408F40000000C054BF35C000000020E91E2AC00C000000130000000A0200
310
003C0000000600000002000000000000C0FF3F8FC0000000004FBF35C000000020E91E2AC00000000000408F40000000C054BF35C000000020E91E2AC00C00000013000000120200003C0000000600000002000000000000C0FF3F8FC0000000004FBF35C000000020E91E2AC0000000C0FF3F8FC00000006092B033C00000
310
0080D1BD2CC00C000000130000001A0200003C00000006000000020000000000000000408F400000002098B033C000000080D1BD2CC0000000C0FF3F8FC00000006092B033C000000080D1BD2CC00C00000013000000220200003C00000006000000020000000000000000408F40000000E06A0A38C00000002036DC27C000
310
00000000408F40000000804D553AC0000000E0673126C00C000000130000002A0200003C0000000600000002000000000000C0FF3F8FC0000000C047553AC0000000E0673126C00000000000408F40000000804D553AC0000000E0673126C00C00000013000000320200003C0000000600000002000000000000C0FF3F8FC0
310
000000C047553AC0000000E0673126C0000000C0FF3F8FC000000020650A38C00000002036DC27C00C000000130000003A0200003C00000006000000020000000000000000408F40000000E06A0A38C00000002036DC27C0000000C0FF3F8FC000000020650A38C00000002036DC27C00C00000013000000420200003C0000
310
0006000000020000000000000000408F40000000405B4140C0000000E0AA0224C00000000000408F40000000A01FD13CC0000000C0C1FA24C00C000000130000004A0200003C00000006000000020000000000000000408F40000000405B4140C0000000E0AA0224C0000000C0FF3F8FC000000080584140C0000000E0AA02
310
24C00C00000013000000520200003C0000000600000002000000000000C0FF3F8FC000000080584140C0000000E0AA0224C0000000C0FF3F8FC0000000E019D13CC0000000C0C1FA24C00C000000130000005A0200003C00000006000000020000000000000000408F40000000A01FD13CC0000000C0C1FA24C0000000C0FF
310
3F8FC0000000E019D13CC0000000C0C1FA24C00C00000013000000620200003C00000006000000020000000000000000408F4000000040C76040C0000000C096DE23C00000000000408F40000000405B4140C0000000E0AA0224C00C000000130000006A0200003C00000006000000020000000000000000408F4000000040
310
C76040C0000000C096DE23C0000000C0FF3F8FC000000080C46040C0000000C096DE23C00C00000013000000720200003C0000000600000002000000000000C0FF3F8FC000000080584140C0000000E0AA0224C0000000C0FF3F8FC000000080C46040C0000000C096DE23C00C000000130000007A0200003C000000060000
310
00020000000000000000408F4000000040A57740C0000000C0268123C00000000000408F4000000040C76040C0000000C096DE23C00C00000013000000820200003C00000006000000020000000000000000408F4000000040A57740C0000000C0268123C0000000C0FF3F8FC000000080A27740C0000000C0268123C00C00
310
0000130000008A0200003C0000000600000002000000000000C0FF3F8FC000000080A27740C0000000C0268123C0000000C0FF3F8FC000000080C46040C0000000C096DE23C00C00000013000000920200003C00000006000000020000000000000000408F4000000080FE7F40C0000000A0B90223C00000000000408F4000
310
000040A57740C0000000C0268123C00C000000130000009A0200003C00000006000000020000000000000000408F4000000080FE7F40C0000000A0B90223C0000000C0FF3F8FC0000000C0FB7F40C0000000A0B90223C00C00000013000000A20200003C0000000600000002000000000000C0FF3F8FC0000000C0FB7F40C0
310
000000A0B90223C0000000C0FF3F8FC000000080A27740C0000000C0268123C00C00000013000000AA0200003C00000006000000020000000000000000408F4000000080FE7F40C0000000C000001EC00000000000408F4000000080FE7F40C0000000A0B90223C00C00000013000000B20200003C00000006000000020000
310
000000000000408F4000000080FE7F40C0000000C000001EC0000000C0FF3F8FC0000000C0FB7F40C0000000C000001EC00C00000013000000BA0200003C0000000600000002000000000000C0FF3F8FC0000000C0FB7F40C0000000C000001EC0000000C0FF3F8FC0000000C0FB7F40C0000000A0B90223C00C0000001300
310
0000C20200003C00000006000000020000000000000000408F4000000000AD5241C00000008000001EC00000000000408F4000000080FE7F40C0000000C000001EC00C00000013000000CA0200003C00000006000000020000000000000000408F4000000000AD5241C00000008000001EC0000000C0FF3F8FC000000040AA
310
5241C00000008000001EC00C00000013000000D20200003C0000000600000002000000000000C0FF3F8FC0000000C0FB7F40C0000000C000001EC0000000C0FF3F8FC000000040AA5241C00000008000001EC00C00000013000000DA0200003C00000006000000020000000000000000408F40000000C04CB541C000000040
310
EC611DC00000000000408F4000000000AD5241C00000008000001EC00C00000013000000E20200003C00000006000000020000000000000000408F40000000C04CB541C000000040EC611DC0000000C0FF3F8FC0000000004AB541C000000040EC611DC00C00000013000000EA0200003C0000000600000002000000000000
310
C0FF3F8FC000000040AA5241C00000008000001EC0000000C0FF3F8FC0000000004AB541C000000040EC611DC00C00000013000000F20200003C00000006000000020000000000000000408F4000000040B10842C00000008022A01BC00000000000408F40000000C04CB541C000000040EC611DC00C00000013000000FA02
310
00003C00000006000000020000000000000000408F4000000040B10842C00000008022A01BC0000000C0FF3F8FC000000080AE0842C00000008022A01BC00C00000013000000020300003C0000000600000002000000000000C0FF3F8FC000000080AE0842C00000008022A01BC0000000C0FF3F8FC0000000004AB541C000
310
000040EC611DC00C000000130000000A0300003C00000006000000020000000000000000408F4000000080FE3F42C000000000010019C00000000000408F4000000040B10842C00000008022A01BC00C00000013000000120300003C00000006000000020000000000000000408F4000000080FE3F42C000000000010019C0
310
000000C0FF3F8FC0000000C0FB3F42C000000000010019C00C000000130000001A0300003C0000000600000002000000000000C0FF3F8FC0000000C0FB3F42C000000000010019C0000000C0FF3F8FC000000080AE0842C00000008022A01BC00C00000013000000220300003C00000006000000020000000000000000408F
310
40000000C04B7742C000000000DF5F16C00000000000408F4000000080FE3F42C000000000010019C00C000000130000002A0300003C00000006000000020000000000000000408F40000000C04B7742C000000000DF5F16C0000000C0FF3F8FC000000000497742C000000000DF5F16C00C00000013000000320300003C00
310
00000600000002000000000000C0FF3F8FC0000000C0FB3F42C000000000010019C0000000C0FF3F8FC000000000497742C000000000DF5F16C00C000000130000003A0300003C00000006000000020000000000000000408F4000000080B0CA42C000000000159E14C00000000000408F40000000C04B7742C000000000DF
310
5F16C00C00000013000000420300003C00000006000000020000000000000000408F4000000080B0CA42C000000000159E14C0000000C0FF3F8FC0000000A0ADCA42C000000000159E14C00C000000130000004A0300003C0000000600000002000000000000C0FF3F8FC0000000A0ADCA42C000000000159E14C0000000C0
310
FF3F8FC000000000497742C000000000DF5F16C00C00000013000000520300003C00000006000000020000000000000000408F4000000000502D43C000000000010014C00000000000408F4000000080B0CA42C000000000159E14C00C000000130000005A0300003C00000006000000020000000000000000408F40000000
310
00502D43C000000000010014C0000000C0FF3F8FC0000000404D2D43C000000000010014C00C00000013000000620300003C0000000600000002000000000000C0FF3F8FC0000000404D2D43C000000000010014C0000000C0FF3F8FC0000000A0ADCA42C000000000159E14C00C000000130000006A0300003C0000000600
310
0000020000000000000000408F4000000080FEBF43C000000000010014C00000000000408F4000000000502D43C000000000010014C00C00000013000000720300003C00000006000000020000000000000000408F4000000080FEBF43C000000000010014C0000000C0FF3F8FC0000000C0FBBF43C000000000010014C00C
310
000000130000007A0300003C0000000600000002000000000000C0FF3F8FC0000000404D2D43C000000000010014C0000000C0FF3F8FC0000000C0FBBF43C000000000010014C00C00000013000000820300003C00000006000000020000000000000000408F4000000080FEDF43C00000000069BB13C00000000000408F40
310
00000080FEBF43C000000000010014C00C000000130000008A0300003C00000006000000020000000000000000408F4000000080FEDF43C00000000069BB13C0000000C0FF3F8FC0000000A0FBDF43C00000000069BB13C00C00000013000000920300003C0000000600000002000000000000C0FF3F8FC0000000C0FBBF43
310
C000000000010014C0000000C0FF3F8FC0000000A0FBDF43C00000000069BB13C00C000000130000009A0300003C00000006000000020000000000000000408F40000000806BF743C000000000000013C00000000000408F4000000080FEDF43C00000000069BB13C00C00000013000000A20300003C000000060000000200
310
00000000000000408F40000000806BF743C000000000000013C0000000C0FF3F8FC0000000C068F743C000000000000013C00C00000013000000AA0300003C0000000600000002000000000000C0FF3F8FC0000000C068F743C000000000000013C0000000C0FF3F8FC0000000A0FBDF43C00000000069BB13C00C00000013
310
000000B20300003C00000006000000020000000000000000408F4000000080FEFF43C000000000010012C00000000000408F40000000806BF743C000000000000013C00C00000013000000BA0300003C00000006000000020000000000000000408F4000000080FEFF43C000000000010012C0000000C0FF3F8FC0000000C0
310
FBFF43C000000000010012C00C00000013000000C20300003C0000000600000002000000000000C0FF3F8FC0000000C0FBFF43C000000000010012C0000000C0FF3F8FC0000000C068F743C000000000000013C00C00000013000000CA0300003C00000006000000020000000000000000408F4000000080FEFF43C0000000
310
000000D0BE0000000000408F4000000080FEFF43C000000000010012C00C00000013000000D20300003C00000006000000020000000000000000408F4000000080FEFF43C0000000000000D0BE000000C0FF3F8FC0000000C0FBFF43C0000000000000D0BE0C00000013000000DA0300003C00000006000000020000000000
310
00C0FF3F8FC0000000C0FBFF43C0000000000000D0BE000000C0FF3F8FC0000000C0FBFF43C000000000010012C00C00000013000000E20300003C00000006000000020000000000000000408F40000000C04AA241C0000000000000D0BE0000000000408F4000000080FEFF43C0000000000000D0BE0C00000013000000EA
310
0300003C00000006000000020000000000000000408F40000000C04AA241C0000000000000D0BE000000C0FF3F8FC0000000E047A241C0000000000000D0BE0C00000013000000F20300003C0000000600000002000000000000C0FF3F8FC0000000C0FBFF43C0000000000000D0BE000000C0FF3F8FC0000000E047A241C0
310
000000000000D0BE0C00000013000000FA0300003C00000006000000020000000000000000408F40000000C0298141C000000000C072A1BF0000000000408F40000000C04AA241C0000000000000D0BE0C00000013000000020400003C00000006000000020000000000000000408F40000000C0298141C000000000C072A1
310
BF000000C0FF3F8FC0000000E0268141C000000000C072A1BF0C000000130000000A0400003C0000000600000002000000000000C0FF3F8FC0000000E047A241C0000000000000D0BE000000C0FF3F8FC0000000E0268141C000000000C072A1BF0C00000013000000120400003C0000000600000002000000000000000040
310
8F40000000C04A6241C0000000003026C1BF0000000000408F40000000C0298141C000000000C072A1BF0C000000130000001A0400003C00000006000000020000000000000000408F40000000C04A6241C0000000003026C1BF000000C0FF3F8FC0000000E0476241C0000000003026C1BF0C00000013000000220400003C
310
0000000600000002000000000000C0FF3F8FC0000000E0476241C0000000003026C1BF000000C0FF3F8FC0000000E0268141C000000000C072A1BF0C000000130000002A0400003C00000006000000020000000000000000408F40000000C0707340C0000000009A61F3BF0000000000408F40000000C04A6241C000000000
310
3026C1BF0C00000013000000320400003C00000006000000020000000000000000408F40000000C0707340C0000000009A61F3BF000000C0FF3F8FC0000000006E7340C0000000009A61F3BF0C000000130000003A0400003C0000000600000002000000000000C0FF3F8FC0000000006E7340C0000000009A61F3BF000000
310
C0FF3F8FC0000000E0476241C0000000003026C1BF0C00000013000000420400003C00000006000000020000000000000000408F40000000C0703340C0000000005A86F5BF0000000000408F40000000C0707340C0000000009A61F3BF0C000000130000004A0400003C00000006000000020000000000000000408F400000
310
00C0703340C0000000005A86F5BF000000C0FF3F8FC0000000006E3340C0000000005A86F5BF0C00000013000000520400003C0000000600000002000000000000C0FF3F8FC0000000006E7340C0000000009A61F3BF000000C0FF3F8FC0000000006E3340C0000000005A86F5BF0C000000130000005A0400003C00000006
310
000000020000000000000000408F40000000C0E1E63FC0000000009861F3BF0000000000408F40000000C0703340C0000000005A86F5BF0C00000013000000620400003C00000006000000020000000000000000408F40000000C0E1E63FC0000000009861F3BF000000C0FF3F8FC000000000DCE63FC0000000009861F3BF
310
0C000000130000006A0400003C0000000600000002000000000000C0FF3F8FC000000000DCE63FC0000000009861F3BF000000C0FF3F8FC0000000006E3340C0000000005A86F5BF0C00000013000000720400003C00000006000000020000000000000000408F40000000C02D093EC0000000002026C1BF0000000000408F
310
40000000C0E1E63FC0000000009861F3BF0C000000130000007A0400003C00000006000000020000000000000000408F40000000C02D093EC0000000002026C1BF000000C0FF3F8FC00000000028093EC0000000002026C1BF0C00000013000000820400003C0000000600000002000000000000C0FF3F8FC0000000002809
310
3EC0000000002026C1BF000000C0FF3F8FC000000000DCE63FC0000000009861F3BF0C000000130000008A0400003C00000006000000020000000000000000408F40000000C06FCB3DC0000000004072A1BF0000000000408F40000000C02D093EC0000000002026C1BF0C00000013000000920400003C0000000600000002
310
0000000000000000408F40000000C06FCB3DC0000000004072A1BF000000C0FF3F8FC0000000006ACB3DC0000000004072A1BF0C000000130000009A0400003C0000000600000002000000000000C0FF3F8FC00000000028093EC0000000002026C1BF000000C0FF3F8FC0000000006ACB3DC0000000004072A1BF0C000000
310
13000000A20400003C00000006000000020000000000000000408F40000000C02D893DC000000000000000000000000000408F40000000C06FCB3DC0000000004072A1BF0C00000013000000AA0400003C00000006000000020000000000000000408F40000000C02D893DC00000000000000000000000C0FF3F8FC0000000
310
0028893DC000000000000000000C00000013000000B20400003C0000000600000002000000000000C0FF3F8FC00000000028893DC00000000000000000000000C0FF3F8FC0000000006ACB3DC0000000004072A1BF0C00000013000000BA0400003C00000006000000020000000000000000408F40000000408D5239C00000
310
00000000C0BE0000000000408F40000000C02D893DC000000000000000000C00000013000000C20400003C00000006000000020000000000000000408F40000000408D5239C0000000000000C0BE000000C0FF3F8FC000000080875239C0000000000000C0BE0C00000013000000CA0400003C000000060000000200000000
310
0000C0FF3F8FC000000080875239C0000000000000C0BE000000C0FF3F8FC00000000028893DC000000000000000000C00000013000000D20400003C00000006000000020000000000000000408F40000000007DE138C0000000002090B5BF0000000000408F40000000408D5239C0000000000000C0BE0C00000013000000
310
DA0400003C00000006000000020000000000000000408F40000000007DE138C0000000002090B5BF000000C0FF3F8FC00000004077E138C0000000002090B5BF0C00000013000000E20400003C0000000600000002000000000000C0FF3F8FC000000080875239C0000000000000C0BE000000C0FF3F8FC00000004077E138
310
C0000000002090B5BF0C00000013000000EA0400003C00000006000000020000000000000000408F40000000C04B8038C00000000080CED4BF0000000000408F40000000007DE138C0000000002090B5BF0C00000013000000F20400003C00000006000000020000000000000000408F40000000C04B8038C00000000080CE
310
D4BF000000C0FF3F8FC000000000468038C00000000080CED4BF0C00000013000000FA0400003C0000000600000002000000000000C0FF3F8FC000000000468038C00000000080CED4BF000000C0FF3F8FC00000004077E138C0000000002090B5BF0C00000013000000020500003C00000006000000020000000000000000
310
408F40000000409F3C38C000000000940AE6BF0000000000408F40000000C04B8038C00000000080CED4BF0C000000130000000A0500003C00000006000000020000000000000000408F40000000409F3C38C000000000940AE6BF000000C0FF3F8FC000000080993C38C000000000940AE6BF0C0000001300000012050000
310
3C0000000600000002000000000000C0FF3F8FC000000080993C38C000000000940AE6BF000000C0FF3F8FC000000000468038C00000000080CED4BF0C000000130000001A0500003C00000006000000020000000000000000408F4000000040F3A137C00000000068ECF7BF0000000000408F40000000409F3C38C0000000
310
00940AE6BF0C00000013000000220500003C00000006000000020000000000000000408F4000000040F3A137C00000000068ECF7BF000000C0FF3F8FC000000080EDA137C00000000068ECF7BF0C000000130000002A0500003C0000000600000002000000000000C0FF3F8FC000000080993C38C000000000940AE6BF0000
310
00C0FF3F8FC000000080EDA137C00000000068ECF7BF0C00000013000000320500003C00000006000000020000000000000000408F400000004057C236C00000000038F6FFBF0000000000408F4000000040F3A137C00000000068ECF7BF0C000000130000003A0500003C00000006000000020000000000000000408F4000
310
00004057C236C00000000038F6FFBF000000C0FF3F8FC00000008051C236C00000000038F6FFBF0C00000013000000420500003C0000000600000002000000000000C0FF3F8FC00000008051C236C00000000038F6FFBF000000C0FF3F8FC000000080EDA137C00000000068ECF7BF0C000000130000004A0500003C000000
310
06000000020000000000000000408F4000000020DF2F31C00000008032BD11C00000000000408F400000004057C236C00000000038F6FFBF0C00000013000000520500003C00000006000000020000000000000000408F4000000020DF2F31C00000008032BD11C0000000C0FF3F8FC000000060D92F31C00000008032BD11
310
C00C000000130000005A0500003C0000000600000002000000000000C0FF3F8FC000000060D92F31C00000008032BD11C0000000C0FF3F8FC00000008051C236C00000000038F6FFBF0C00000013000000620500003C00000006000000020000000000000000408F4000000000BB5328C000000000C4731FC0000000000040
310
8F4000000020DF2F31C00000008032BD11C00C000000130000006A0500003C00000006000000020000000000000000408F4000000000BB5328C000000000C4731FC0000000C0FF3F8FC0000000A0AF5328C000000000C4731FC00C00000013000000720500003C0000000600000002000000000000C0FF3F8FC0000000A0AF
310
5328C000000000C4731FC0000000C0FF3F8FC000000060D92F31C00000008032BD11C00C000000130000007A0500003C00000006000000020000000000000000408F4000000040B8731FC000000020C15328C00000000000408F4000000000BB5328C000000000C4731FC00C00000013000000820500003C00000006000000
310
020000000000000000408F4000000040B8731FC000000020C15328C0000000C0FF3F8FC000000080A1731FC000000020C15328C00C000000130000008A0500003C0000000600000002000000000000C0FF3F8FC000000080A1731FC000000020C15328C0000000C0FF3F8FC0000000A0AF5328C000000000C4731FC00C0000
310
0013000000920500003C00000006000000020000000000000000408F40000000C026BD11C0000000E0E12F31C00000000000408F4000000040B8731FC000000020C15328C00C000000130000009A0500003C00000006000000020000000000000000408F40000000C026BD11C0000000E0E12F31C0000000C0FF3F8FC00000
310
000010BD11C0000000E0E12F31C00C00000013000000A20500003C0000000600000002000000000000C0FF3F8FC00000000010BD11C0000000E0E12F31C0000000C0FF3F8FC000000080A1731FC000000020C15328C00C00000013000000AA0500003C00000006000000020000000000000000408F400000000006F6FFBF00
310
0000005AC236C00000000000408F40000000C026BD11C0000000E0E12F31C00C00000013000000B20500003C00000006000000020000000000000000408F400000000006F6FFBF000000005AC236C0000000C0FF3F8FC000000000ABF5FFBF000000005AC236C00C00000013000000BA0500003C0000000600000002000000
310
000000C0FF3F8FC000000000ABF5FFBF000000005AC236C0000000C0FF3F8FC00000000010BD11C0000000E0E12F31C00C00000013000000C20500003C00000006000000020000000000000000408F400000000036ECF7BF00000020F6A137C00000000000408F400000000006F6FFBF000000005AC236C00C000000130000
310
00CA0500003C00000006000000020000000000000000408F400000000036ECF7BF00000020F6A137C0000000C0FF3F8FC000000000DAEBF7BF00000020F6A137C00C00000013000000D20500003C0000000600000002000000000000C0FF3F8FC000000000ABF5FFBF000000005AC236C0000000C0FF3F8FC000000000DAEB
310
F7BF00000020F6A137C00C00000013000000DA0500003C00000006000000020000000000000000408F4000000000300AE6BF00000000A23C38C00000000000408F400000000036ECF7BF00000020F6A137C00C00000013000000E20500003C00000006000000020000000000000000408F4000000000300AE6BF00000000A2
310
3C38C0000000C0FF3F8FC0000000007809E6BF00000000A23C38C00C00000013000000EA0500003C0000000600000002000000000000C0FF3F8FC0000000007809E6BF00000000A23C38C0000000C0FF3F8FC000000000DAEBF7BF00000020F6A137C00C00000013000000F20500003C000000060000000200000000000000
310
00408F4000000000B0CDD4BF000000804E8038C00000000000408F4000000000300AE6BF00000000A23C38C00C00000013000000FA0500003C00000006000000020000000000000000408F4000000000B0CDD4BF000000804E8038C0000000C0FF3F8FC00000000048CCD4BF000000804E8038C00C00000013000000020600
310
003C0000000600000002000000000000C0FF3F8FC0000000007809E6BF00000000A23C38C0000000C0FF3F8FC00000000048CCD4BF000000804E8038C00C000000130000000A0600003C00000006000000020000000000000000408F4000000000008DB5BF000000E07FE138C00000000000408F4000000000B0CDD4BF0000
310
00804E8038C00C00000013000000120600003C00000006000000020000000000000000408F4000000000008DB5BF000000E07FE138C0000000C0FF3F8FC0000000004087B5BF000000E07FE138C00C000000130000001A0600003C0000000600000002000000000000C0FF3F8FC0000000004087B5BF000000E07FE138C000
310
0000C0FF3F8FC00000000048CCD4BF000000804E8038C00C00000013000000220600003C00000006000000020000000000000000408F40000000000000083F00000000905239C00000000000408F4000000000008DB5BF000000E07FE138C00C000000130000002A0600003C00000006000000020000000000000000408F40
310
000000000000083F00000000905239C0000000C0FF3F8FC0000000000080213F00000000905239C00C00000013000000320600003C0000000600000002000000000000C0FF3F8FC0000000000080213F00000000905239C0000000C0FF3F8FC0000000004087B5BF000000E07FE138C00C000000130000003A0600003C0000
310
0006000000020000000000000000408F40000000000000073F000000A030893DC00000000000408F40000000000000083F00000000905239C00C00000013000000420600003C00000006000000020000000000000000408F40000000000000073F000000A030893DC0000000C0FF3F8FC0000000000040213F000000A03089
310
3DC00C000000130000004A0600003C0000000600000002000000000000C0FF3F8FC0000000000040213F000000A030893DC0000000C0FF3F8FC0000000000080213F00000000905239C00C00000013000000520600003C00000006000000020000000000000000408F40000000000000073F000000A030893DC00000000000
310
408F4000000000806CA1BF000000A072CB3DC00C000000130000005A0600003C00000006000000020000000000000000408F4000000000806CA1BF000000A072CB3DC0000000C0FF3F8FC0000000000061A1BF000000A072CB3DC00C00000013000000620600003C0000000600000002000000000000C0FF3F8FC000000000
310
0040213F000000A030893DC0000000C0FF3F8FC0000000000061A1BF000000A072CB3DC00C000000130000006A0600003C00000006000000020000000000000000408F4000000000A024C1BF000000A030093EC00000000000408F4000000000806CA1BF000000A072CB3DC00C00000013000000720600003C000000060000
310
00020000000000000000408F4000000000A024C1BF000000A030093EC0000000C0FF3F8FC000000000C021C1BF000000A030093EC00C000000130000007A0600003C0000000600000002000000000000C0FF3F8FC000000000C021C1BF000000A030093EC0000000C0FF3F8FC0000000000061A1BF000000A072CB3DC00C00
310
000013000000820600003C00000006000000020000000000000000408F40000000006661F3BF00000080E4E63FC00000000000408F4000000000A024C1BF000000A030093EC00C000000130000008A0600003C00000006000000020000000000000000408F40000000006661F3BF00000080E4E63FC0000000C0FF3F8FC000
310
0000000A61F3BF00000080E4E63FC00C00000013000000920600003C0000000600000002000000000000C0FF3F8FC0000000000A61F3BF00000080E4E63FC0000000C0FF3F8FC000000000C021C1BF000000A030093EC00C000000130000009A0600003C00000006000000020000000000000000408F40000000002886F5BF
310
00000040723340C00000000000408F40000000006661F3BF00000080E4E63FC00C00000013000000A20600003C00000006000000020000000000000000408F40000000002886F5BF00000040723340C0000000C0FF3F8FC000000000CC85F5BF00000040723340C00C00000013000000AA0600003C00000006000000020000
310
00000000C0FF3F8FC0000000000A61F3BF00000080E4E63FC0000000C0FF3F8FC000000000CC85F5BF00000040723340C00C00000013000000B20600003C00000006000000020000000000000000408F40000000006661F3BF00000040727340C00000000000408F40000000002886F5BF00000040723340C00C0000001300
310
0000BA0600003C00000006000000020000000000000000408F40000000006661F3BF00000040727340C0000000C0FF3F8FC0000000000A61F3BF00000040727340C00C00000013000000C20600003C0000000600000002000000000000C0FF3F8FC0000000000A61F3BF00000040727340C0000000C0FF3F8FC000000000CC
310
85F5BF00000040723340C00C00000013000000CA0600003C00000006000000020000000000000000408F40000000009024C1BF000000204C6241C00000000000408F40000000006661F3BF00000040727340C00C00000013000000D20600003C00000006000000020000000000000000408F40000000009024C1BF00000020
310
4C6241C0000000C0FF3F8FC000000000B021C1BF000000204C6241C00C00000013000000DA0600003C0000000600000002000000000000C0FF3F8FC000000000B021C1BF000000204C6241C0000000C0FF3F8FC0000000000A61F3BF00000040727340C00C00000013000000E20600003C0000000600000002000000000000
310
0000408F4000000000406CA1BF000000202B8141C00000000000408F40000000009024C1BF000000204C6241C00C00000013000000EA0600003C00000006000000020000000000000000408F4000000000406CA1BF000000202B8141C0000000C0FF3F8FC000000000C060A1BF000000202B8141C00C00000013000000F206
310
00003C0000000600000002000000000000C0FF3F8FC000000000B021C1BF000000204C6241C0000000C0FF3F8FC000000000C060A1BF000000202B8141C00C00000013000000FA0600003C00000006000000020000000000000000408F40000000000000093F000000204CA241C00000000000408F4000000000406CA1BF00
310
0000202B8141C00C00000013000000020700003C00000006000000020000000000000000408F40000000000000093F000000204CA241C0000000C0FF3F8FC0000000000080213F000000204CA241C00C000000130000000A0700003C0000000600000002000000000000C0FF3F8FC0000000000080213F000000204CA241C0
310
000000C0FF3F8FC000000000C060A1BF000000202B8141C00C00000013000000120700003C00000006000000020000000000000000408F40000000000000093F00000000000044C00000000000408F40000000000000093F000000204CA241C00C000000130000001A0700003C0000000600000002000000000000C0FF3F8F
310
C00000000000C0213F00000000000044C0000000C0FF3F8FC0000000000080213F000000204CA241C00C00000013000000220700003C00000006000000020000000000000000408F4000000080613126C00000002050553AC00000000000408F4000000040BBFA24C00000004022D13CC00C000000130000002A0700003C00
310
00000600000002000000000000C0FF3F8FC0000000E0AFFA24C00000004022D13CC0000000C0FF3F8FC000000020563126C00000002050553AC00C00000013000000320700003C00000006000000020000000000000000408F4000000000E31E2AC0000000E057BF35C00000000000408F40000000C02FDC27C0000000006E
310
0A38C00C000000130000003A0700003C0000000600000002000000000000C0FF3F8FC00000006024DC27C0000000006E0A38C0000000C0FF3F8FC000000080D71E2AC0000000E057BF35C00C00000013000000420700003C00000006000000020000000000000000408F400000004012F12FC00000006020B231C000000000
310
00408F4000000040CBBD2CC0000000409BB033C00C000000130000004A0700003C0000000600000002000000000000C0FF3F8FC0000000E0BFBD2CC0000000409BB033C0000000C0FF3F8FC0000000E006F12FC00000006020B231C00C00000013000000520700003C00000006000000020000000000000000408F40000000
310
2098B033C000000080D1BD2CC00000000000408F40000000401DB231C00000008018F12FC00C000000130000005A0700003C0000000600000002000000000000C0FF3F8FC00000008017B231C00000008018F12FC0000000C0FF3F8FC00000006092B033C000000080D1BD2CC00C00000013000000620700003C0000000600
310
0000020000000000000000408F40000000E06A0A38C00000002036DC27C00000000000408F40000000C054BF35C000000020E91E2AC00C000000130000006A0700003C0000000600000002000000000000C0FF3F8FC0000000004FBF35C000000020E91E2AC0000000C0FF3F8FC000000020650A38C00000002036DC27C00C
310
00000013000000720700003C00000006000000020000000000000000408F40000000A01FD13CC0000000C0C1FA24C00000000000408F40000000804D553AC0000000E0673126C00C000000130000007A0700003C0000000600000002000000000000C0FF3F8FC0000000C047553AC0000000E0673126C0000000C0FF3F8FC0
310
000000E019D13CC0000000C0C1FA24C00C00000013000000820700003C0000000600000002000000000000C0FF3F8FC000000080584140C0000000E0AA0224C0000000C0FF3F8FC000000080993C38C000000000940AE6BF0C000000130000008A0700003C0000000600000002000000000000C0FF3F8FC000000080EDA137
310
C00000000068ECF7BF000000C0FF3F8FC0000000E019D13CC0000000C0C1FA24C00C00000013000000920700003C0000000600000002000000000000C0FF3F8FC0000000C0FBFF43C000000000010012C0000000C0FF3F8FC0000000E047A241C0000000000000D0BE0C000000130000009A0700003C000000060000000200
310
0000000000C0FF3F8FC0000000E047A241C0000000000000D0BE000000C0FF3F8FC0000000C068F743C000000000000013C00C00000013000000A20700003C0000000600000002000000000000C0FF3F8FC0000000E047A241C0000000000000D0BE000000C0FF3F8FC0000000A0FBDF43C00000000069BB13C00C00000013
310
000000AA0700003C0000000600000002000000000000C0FF3F8FC0000000C0FBBF43C000000000010014C0000000C0FF3F8FC0000000E047A241C0000000000000D0BE0C00000013000000B20700003C0000000600000002000000000000C0FF3F8FC0000000404D2D43C000000000010014C0000000C0FF3F8FC0000000E0
310
268141C000000000C072A1BF0C00000013000000BA0700003C0000000600000002000000000000C0FF3F8FC0000000A0ADCA42C000000000159E14C0000000C0FF3F8FC0000000E0476241C0000000003026C1BF0C00000013000000C20700003C0000000600000002000000000000C0FF3F8FC000000000497742C0000000
310
00DF5F16C0000000C0FF3F8FC0000000006E7340C0000000009A61F3BF0C00000013000000CA0700003C0000000600000002000000000000C0FF3F8FC0000000004AB541C000000040EC611DC0000000C0FF3F8FC000000000DCE63FC0000000009861F3BF0C00000013000000D20700003C00000006000000020000000000
310
00C0FF3F8FC000000040AA5241C00000008000001EC0000000C0FF3F8FC000000000DCE63FC0000000009861F3BF0C00000013000000DA0700003C0000000600000002000000000000C0FF3F8FC000000080AE0842C00000008022A01BC0000000C0FF3F8FC0000000006E3340C0000000005A86F5BF0C00000013000000E2
310
0700003C0000000600000002000000000000C0FF3F8FC0000000C0FB3F42C000000000010019C0000000C0FF3F8FC0000000006E7340C0000000009A61F3BF0C00000013000000EA0700003C0000000600000002000000000000C0FF3F8FC0000000C0FB7F40C0000000C000001EC0000000C0FF3F8FC00000000028093EC0
310
000000002026C1BF0C00000013000000F20700003C0000000600000002000000000000C0FF3F8FC0000000C0FB7F40C0000000C000001EC0000000C0FF3F8FC0000000006ACB3DC0000000004072A1BF0C00000013000000FA0700003C0000000600000002000000000000C0FF3F8FC0000000C0FB7F40C0000000C000001E
310
C0000000C0FF3F8FC00000000028893DC000000000000000000C00000013000000020800003C0000000600000002000000000000C0FF3F8FC0000000C0FB7F40C0000000A0B90223C0000000C0FF3F8FC000000080875239C0000000000000C0BE0C000000130000000A0800003C0000000600000002000000000000C0FF3F
310
8FC000000080A27740C0000000C0268123C0000000C0FF3F8FC00000004077E138C0000000002090B5BF0C00000013000000120800003C0000000600000002000000000000C0FF3F8FC000000080C46040C0000000C096DE23C0000000C0FF3F8FC000000000468038C00000000080CED4BF0C000000130000001A0800003C
310
0000000600000002000000000000C0FF3F8FC0000000C047553AC0000000E0673126C0000000C0FF3F8FC00000008051C236C00000000038F6FFBF0C00000013000000220800003C0000000600000002000000000000C0FF3F8FC000000060D92F31C00000008032BD11C0000000C0FF3F8FC000000020650A38C000000020
310
36DC27C00C000000130000002A0800003C0000000600000002000000000000C0FF3F8FC0000000A0AF5328C000000000C4731FC0000000C0FF3F8FC00000006092B033C000000080D1BD2CC00C00000013000000320800003C0000000600000002000000000000C0FF3F8FC0000000004FBF35C000000020E91E2AC0000000
310
C0FF3F8FC000000060D92F31C00000008032BD11C00C000000130000003A0800003C0000000600000002000000000000C0FF3F8FC000000080A1731FC000000020C15328C0000000C0FF3F8FC0000000E006F12FC00000006020B231C00C00000013000000420800003C0000000600000002000000000000C0FF3F8FC00000
310
008017B231C00000008018F12FC0000000C0FF3F8FC0000000A0AF5328C000000000C4731FC00C000000130000004A0800003C0000000600000002000000000000C0FF3F8FC00000000010BD11C0000000E0E12F31C0000000C0FF3F8FC000000080D71E2AC0000000E057BF35C00C00000013000000520800003C00000006
310
00000002000000000000C0FF3F8FC0000000E0BFBD2CC0000000409BB033C0000000C0FF3F8FC000000080A1731FC000000020C15328C00C000000130000005A0800003C0000000600000002000000000000C0FF3F8FC000000000ABF5FFBF000000005AC236C0000000C0FF3F8FC000000020563126C00000002050553AC0
310
0C00000013000000620800003C0000000600000002000000000000C0FF3F8FC00000006024DC27C0000000006E0A38C0000000C0FF3F8FC00000000010BD11C0000000E0E12F31C00C000000130000006A0800003C0000000600000002000000000000C0FF3F8FC0000000E0AFFA24C00000004022D13CC0000000C0FF3F8F
310
C000000000DAEBF7BF00000020F6A137C00C00000013000000720800003C0000000600000002000000000000C0FF3F8FC000000000990224C0000000A05C4140C0000000C0FF3F8FC0000000007809E6BF00000000A23C38C00C000000130000007A0800003C0000000600000002000000000000C0FF3F8FC0000000E084DE
310
23C0000000A0C86040C0000000C0FF3F8FC00000000048CCD4BF000000804E8038C00C00000013000000820800003C0000000600000002000000000000C0FF3F8FC0000000E0148123C0000000A0A67740C0000000C0FF3F8FC0000000004087B5BF000000E07FE138C00C000000130000008A0800003C0000000600000002
310
000000000000C0FF3F8FC0000000000080213F00000000905239C0000000C0FF3F8FC0000000C0A70223C000000000008040C00C00000013000000920800003C0000000600000002000000000000C0FF3F8FC0000000000040213F000000A030893DC0000000C0FF3F8FC000000040DDFF1DC000000000008040C00C000000
310
130000009A0800003C0000000600000002000000000000C0FF3F8FC000000040DDFF1DC000000000008040C0000000C0FF3F8FC000000000C021C1BF000000A030093EC00C00000013000000A20800003C0000000600000002000000000000C0FF3F8FC000000040DDFF1DC000000000008040C0000000C0FF3F8FC0000000
310
000061A1BF000000A072CB3DC00C00000013000000AA0800003C0000000600000002000000000000C0FF3F8FC000000080DDFF1DC000000080AE5241C0000000C0FF3F8FC0000000000A61F3BF00000080E4E63FC00C00000013000000B20800003C0000000600000002000000000000C0FF3F8FC000000000C9611DC00000
310
00004EB541C0000000C0FF3F8FC000000000CC85F5BF00000040723340C00C00000013000000BA0800003C0000000600000002000000000000C0FF3F8FC000000000FF9F1BC0000000C0B20842C0000000C0FF3F8FC0000000000A61F3BF00000040727340C00C00000013000000C20800003C000000060000000200000000
310
0000C0FF3F8FC000000000DDFF18C000000000004042C0000000C0FF3F8FC0000000000A61F3BF00000040727340C00C00000013000000CA0800003C0000000600000002000000000000C0FF3F8FC000000080BB5F16C0000000404D7742C0000000C0FF3F8FC000000000B021C1BF000000204C6241C00C00000013000000
310
D20800003C0000000600000002000000000000C0FF3F8FC000000080F19D14C0000000E0B1CA42C0000000C0FF3F8FC000000000C060A1BF000000202B8141C00C00000013000000DA0800003C0000000600000002000000000000C0FF3F8FC0000000000080213F000000204CA241C0000000C0FF3F8FC000000000DDFF13
310
C000000080512D43C00C00000013000000E20800003C0000000600000002000000000000C0FF3F8FC0000000000080213F000000204CA241C0000000C0FF3F8FC000000000DDFF13C00000000000C043C00C00000013000000EA0800003C0000000600000002000000000000C0FF3F8FC0000000000080213F000000204CA2
310
41C0000000C0FF3F8FC000000080DCFF12C0000000006DF743C00C00000013000000F20800003C0000000600000002000000000000C0FF3F8FC0000000000080213F000000204CA241C0000000C0FF3F8FC00000008045BB13C0000000E0FFDF43C00C00000013000000FA0800003C0000000600000002000000000000C0FF
310
3F8FC0000000000080213F000000204CA241C0000000C0FF3F8FC000000000DDFF11C000000000000044C00C00000013000000020900003C00000006000000020000000000000000408F4000000040F3A137C00000000068ECF7BF0000000000408F40000000A01FD13CC0000000C0C1FA24C00C000000130000000A090000
310
3C00000006000000020000000000000000408F40000000409F3C38C000000000940AE6BF0000000000408F40000000405B4140C0000000E0AA0224C00C00000013000000120900003C00000006000000020000000000000000408F40000000C04AA241C0000000000000D0BE0000000000408F4000000080FEFF43C0000000
310
00010012C00C000000130000001A0900003C00000006000000020000000000000000408F40000000C04AA241C0000000000000D0BE0000000000408F40000000806BF743C000000000000013C00C00000013000000220900003C00000006000000020000000000000000408F40000000C04AA241C0000000000000D0BE0000
310
000000408F4000000080FEDF43C00000000069BB13C00C000000130000002A0900003C00000006000000020000000000000000408F40000000C04AA241C0000000000000D0BE0000000000408F4000000080FEBF43C000000000010014C00C00000013000000320900003C00000006000000020000000000000000408F4000
310
0000C0298141C000000000C072A1BF0000000000408F4000000000502D43C000000000010014C00C000000130000003A0900003C00000006000000020000000000000000408F40000000C04A6241C0000000003026C1BF0000000000408F4000000080B0CA42C000000000159E14C00C00000013000000420900003C000000
310
06000000020000000000000000408F40000000C0707340C0000000009A61F3BF0000000000408F40000000C04B7742C000000000DF5F16C00C000000130000004A0900003C00000006000000020000000000000000408F40000000C0E1E63FC0000000009861F3BF0000000000408F4000000000AD5241C00000008000001E
310
C00C00000013000000520900003C00000006000000020000000000000000408F40000000C0E1E63FC0000000009861F3BF0000000000408F40000000C04CB541C000000040EC611DC00C000000130000005A0900003C00000006000000020000000000000000408F40000000C0703340C0000000005A86F5BF000000000040
310
8F4000000040B10842C00000008022A01BC00C00000013000000620900003C00000006000000020000000000000000408F40000000C0707340C0000000009A61F3BF0000000000408F4000000080FE3F42C000000000010019C00C000000130000006A0900003C00000006000000020000000000000000408F40000000C02D
310
093EC0000000002026C1BF0000000000408F4000000080FE7F40C0000000C000001EC00C00000013000000720900003C00000006000000020000000000000000408F40000000C06FCB3DC0000000004072A1BF0000000000408F4000000080FE7F40C0000000C000001EC00C000000130000007A0900003C00000006000000
310
020000000000000000408F40000000C02D893DC000000000000000000000000000408F4000000080FE7F40C0000000C000001EC00C00000013000000820900003C00000006000000020000000000000000408F40000000408D5239C0000000000000C0BE0000000000408F4000000080FE7F40C0000000A0B90223C00C0000
310
00130000008A0900003C00000006000000020000000000000000408F40000000007DE138C0000000002090B5BF0000000000408F4000000040A57740C0000000C0268123C00C00000013000000920900003C00000006000000020000000000000000408F40000000C04B8038C00000000080CED4BF0000000000408F400000
310
0040C76040C0000000C096DE23C00C000000130000009A0900003C00000006000000020000000000000000408F400000004057C236C00000000038F6FFBF0000000000408F40000000804D553AC0000000E0673126C00C00000013000000A20900003C00000006000000020000000000000000408F4000000020DF2F31C000
310
00008032BD11C00000000000408F40000000E06A0A38C00000002036DC27C00C00000013000000AA0900003C00000006000000020000000000000000408F4000000020DF2F31C00000008032BD11C00000000000408F40000000C054BF35C000000020E91E2AC00C00000013000000B20900003C0000000600000002000000
310
0000000000408F4000000000BB5328C000000000C4731FC00000000000408F400000002098B033C000000080D1BD2CC00C00000013000000BA0900003C00000006000000020000000000000000408F4000000000BB5328C000000000C4731FC00000000000408F40000000401DB231C00000008018F12FC00C000000130000
310
00C20900003C00000006000000020000000000000000408F4000000040B8731FC000000020C15328C00000000000408F400000004012F12FC00000006020B231C00C00000013000000CA0900003C00000006000000020000000000000000408F4000000040B8731FC000000020C15328C00000000000408F4000000040CBBD
310
2CC0000000409BB033C00C00000013000000D20900003C00000006000000020000000000000000408F40000000C026BD11C0000000E0E12F31C00000000000408F4000000000E31E2AC0000000E057BF35C00C00000013000000DA0900003C00000006000000020000000000000000408F40000000C026BD11C0000000E0E1
310
2F31C00000000000408F40000000C02FDC27C0000000006E0A38C00C00000013000000E20900003C00000006000000020000000000000000408F400000000006F6FFBF000000005AC236C00000000000408F4000000080613126C00000002050553AC00C00000013000000EA0900003C000000060000000200000000000000
310
00408F400000000036ECF7BF00000020F6A137C00000000000408F4000000040BBFA24C00000004022D13CC00C00000013000000F20900003C00000006000000020000000000000000408F4000000000300AE6BF00000000A23C38C00000000000408F4000000080A40224C0000000A05C4140C00C00000013000000FA0900
310
003C00000006000000020000000000000000408F4000000000B0CDD4BF000000804E8038C00000000000408F400000004090DE23C0000000A0C86040C00C00000013000000020A00003C00000006000000020000000000000000408F4000000000008DB5BF000000E07FE138C00000000000408F4000000040208123C00000
310
00A0A67740C00C000000130000000A0A00003C00000006000000020000000000000000408F40000000000000083F00000000905239C00000000000408F4000000040B30223C000000000008040C00C00000013000000120A00003C00000006000000020000000000000000408F40000000000000073F000000A030893DC000
310
00000000408F4000000000F4FF1DC000000000008040C00C000000130000001A0A00003C00000006000000020000000000000000408F4000000000F4FF1DC000000000008040C00000000000408F4000000000806CA1BF000000A072CB3DC00C00000013000000220A00003C00000006000000020000000000000000408F40
310
00000000F4FF1DC000000000008040C00000000000408F4000000000A024C1BF000000A030093EC00C000000130000002A0A00003C00000006000000020000000000000000408F4000000040F4FF1DC000000080AE5241C00000000000408F40000000006661F3BF00000080E4E63FC00C00000013000000320A00003C0000
310
0006000000020000000000000000408F4000000000E0611DC0000000004EB541C00000000000408F40000000002886F5BF00000040723340C00C000000130000003A0A00003C00000006000000020000000000000000408F40000000C015A01BC0000000C0B20842C00000000000408F40000000006661F3BF000000407273
310
40C00C00000013000000420A00003C00000006000000020000000000000000408F40000000C0F3FF18C000000000004042C00000000000408F40000000006661F3BF00000040727340C00C000000130000004A0A00003C00000006000000020000000000000000408F4000000040D25F16C0000000404D7742C00000000000
310
408F40000000009024C1BF000000204C6241C00C00000013000000520A00003C00000006000000020000000000000000408F4000000040089E14C0000000E0B1CA42C00000000000408F4000000000406CA1BF000000202B8141C00C000000130000005A0A00003C00000006000000020000000000000000408F40000000C0
310
F3FF13C000000080512D43C00000000000408F40000000000000093F000000204CA241C00C00000013000000620A00003C00000006000000020000000000000000408F40000000C0F3FF13C00000000000C043C00000000000408F40000000000000093F000000204CA241C00C000000130000006A0A00003C000000060000
310
00020000000000000000408F40000000405CBB13C0000000E0FFDF43C00000000000408F40000000000000093F000000204CA241C00C00000013000000720A00003C00000006000000020000000000000000408F4000000040F3FF12C0000000006DF743C00000000000408F40000000000000093F000000204CA241C00C00
310
0000130000007A0A00003C00000006000000020000000000000000408F40000000C0F3FF11C000000000000044C00000000000408F40000000000000093F000000204CA241C0
100
AcDbSubDMesh
 71
     2
 72
     0
 91
        0
 92
      160
 10
1000.0
 20
0.0000438690185547
 30
-29.53589820861817
 10
1000.0
 20
0.0000457763671875
 30
-25.322509765625
 10
1000.0
 20
-0.0841827392578125
 30
-24.88085746765137
 10
1000.0
 20
-0.3250541687011719
 30
-24.50119781494141
 10
1000.0
 20
-0.6887435913085938
 30
-24.23684692382813
 10
1000.0
 20
-1.495168685913085
 30
-23.63266181945801
 10
1000.0
 20
-1.997564315795898
 30
-22.75918579101563
 10
1000.0
 20
-4.434718132019042
 30
-17.18704032897949
 10
1000.0
 20
-7.863007545471191
 30
-12.16358280181885
 10
1000.0
 20
-12.16353607177734
 30
-7.863052368164062
 10
1000.0
 20
-17.18699836730957
 30
-4.434762954711914
 10
1000.0
 20
-22.7591438293457
 30
-1.997611999511718
 10
1000.0
 20
-23.63261795043945
 30
-1.495216369628906
 10
1000.0
 20
-24.2368049621582
 30
-0.6887912750244141
 10
1000.0
 20
-24.50115585327149
 30
-0.325103759765625
 10
1000.0
 20
-24.88081359863282
 30
-0.0842304229736328
 10
1000.0
 20
-25.32246780395508
 30
-0.0000019073486328
 10
1000.0
 20
-29.53585433959961
 30
0.0
 10
1000.0
 20
-29.79467391967773
 30
-0.0340747833251953
 10
1000.0
 20
-30.03585433959961
 30
-0.1339759826660156
 10
1000.0
 20
-31.90188217163086
 30
-1.211326599121093
 10
1000.0
 20
-32.40187835693359
 30
-1.345300674438476
 10
1000.0
 20
-32.90187835693359
 30
-1.211328506469726
 10
1000.0
 20
-34.76790618896484
 30
-0.1339778900146484
 10
1000.0
 20
-35.00908660888672
 30
-0.0340785980224609
 10
1000.0
 20
-35.26790618896484
 30
-0.0000038146972656
 10
1000.0
 20
-39.99995422363281
 30
-0.0000038146972656
 10
1000.0
 20
-39.99995422363281
 30
-4.500003814697265
 10
1000.0
 20
-39.93296813964844
 30
-4.75
 10
1000.0
 20
-39.74995422363281
 30
-4.93301773071289
 10
1000.0
 20
-39.49995422363281
 30
-5.000003814697265
 10
1000.0
 20
-38.35400390625
 30
-5.000003814697265
 10
1000.0
 20
-37.58351135253906
 30
-5.154376983642578
 10
1000.0
 20
-36.93199920654297
 30
-5.593624114990234
 10
1000.0
 20
-36.49995422363281
 30
-6.250003814697265
 10
1000.0
 20
-36.06790924072266
 30
-6.906381607055664
 10
1000.0
 20
-35.41640472412109
 30
-7.345627784729003
 10
1000.0
 20
-34.64590454101563
 30
-7.500001907348632
 10
1000.0
 20
-32.99995422363281
 30
-7.500002861022949
 10
1000.0
 20
-32.99995422363281
 30
-9.505322456359863
 10
1000.0
 20
-32.93473052978516
 30
-9.752248764038085
 10
1000.0
 20
-32.75608062744141
 30
-9.934743881225585
 10
1000.0
 20
-32.51059722900391
 30
-10.00520992279053
 10
1000.0
 20
-28.8168888092041
 30
-10.48975944519043
 10
1000.0
 20
-24.04069328308106
 30
-11.930100440979
 10
1000.0
 20
-19.68982124328613
 30
-14.3707389831543
 10
1000.0
 20
-15.97084236145019
 30
-17.6958065032959
 10
1000.0
 20
-13.06032562255859
 30
-21.74743461608887
 10
1000.0
 20
-11.09644699096679
 30
-26.33325386047363
 10
1000.0
 20
-10.00516128540039
 30
-32.51063919067383
 10
1000.0
 20
-9.934694290161132
 30
-32.75612258911133
 10
1000.0
 20
-9.752199172973632
 30
-32.93477249145508
 10
1000.0
 20
-9.505273818969726
 30
-33.0
 10
1000.0
 20
-7.499954223632812
 30
-33.0
 10
1000.0
 20
-7.499955177307128
 30
-34.64595031738281
 10
1000.0
 20
-7.3455810546875
 30
-35.41644287109375
 10
1000.0
 20
-6.906332969665527
 30
-36.06795501708984
 10
1000.0
 20
-6.249953269958496
 30
-36.5
 10
1000.0
 20
-5.593575477600097
 30
-36.93204498291016
 10
1000.0
 20
-5.154328346252441
 30
-37.58355331420899
 10
1000.0
 20
-4.999953269958496
 30
-38.35404968261719
 10
1000.0
 20
-4.999953269958496
 30
-39.5
 10
1000.0
 20
-4.932969093322753
 30
-39.74999618530274
 10
1000.0
 20
-4.749951362609863
 30
-39.93301391601562
 10
1000.0
 20
-4.499953269958496
 30
-40.0
 10
1000.0
 20
0.0000476837158203
 30
-40.0
 10
1000.0
 20
0.0000476837158203
 30
-35.26794815063477
 10
1000.0
 20
-0.0340290069580078
 30
-35.00912857055664
 10
1000.0
 20
-0.1339282989501953
 30
-34.76794815063477
 10
1000.0
 20
-1.211278915405273
 30
-32.90192413330078
 10
1000.0
 20
-1.345252990722656
 30
-32.40192413330078
 10
1000.0
 20
-1.211278915405273
 30
-31.90192413330078
 10
1000.0
 20
-0.1339302062988281
 30
-30.03589820861817
 10
1000.0
 20
-0.0340309143066406
 30
-29.79471778869629
 10
-999.9998779296875
 20
-32.51051330566407
 30
-10.00520992279053
 10
-999.9998779296875
 20
-26.33312606811524
 30
-11.09649562835693
 10
-999.9998779296875
 20
-21.74729919433594
 30
-13.0603723526001
 10
-999.9998779296875
 20
-17.69567108154297
 30
-15.97089004516601
 10
-999.9998779296875
 20
-14.37060451507568
 30
-19.68986892700195
 10
-999.9998779296875
 20
-11.92996501922607
 30
-24.04074096679688
 10
-999.9998779296875
 20
-10.48962306976318
 30
-28.81692886352539
 10
-999.9998779296875
 20
-10.00507354736328
 30
-32.51063919067383
 10
-999.9998779296875
 20
-32.99987030029297
 30
-7.500002861022949
 10
-999.9998779296875
 20
-32.99987030029297
 30
-9.505322456359863
 10
-999.9998779296875
 20
-34.64582061767578
 30
-7.500001907348632
 10
-999.9998779296875
 20
-36.49987030029297
 30
-6.250003814697265
 10
-999.9998779296875
 20
-36.06782531738281
 30
-6.906381607055664
 10
-999.9998779296875
 20
-35.41632080078125
 30
-7.345627784729003
 10
-999.9998779296875
 20
-38.35391998291015
 30
-5.000003814697265
 10
-999.9998779296875
 20
-37.58342361450195
 30
-5.154376983642578
 10
-999.9998779296875
 20
-36.93191528320312
 30
-5.593624114990234
 10
-999.9998779296875
 20
-39.49987030029297
 30
-5.000003814697265
 10
-999.9998779296875
 20
-39.99987030029297
 30
-0.0000038146972656
 10
-999.9998779296875
 20
-39.99987030029297
 30
-4.500003814697265
 10
-999.9998779296875
 20
-35.26781845092774
 30
-0.0000038146972656
 10
-999.9998779296875
 20
-25.32238006591797
 30
-0.0000019073486328
 10
-999.9998779296875
 20
-29.5357666015625
 30
0.0
 10
-999.9998779296875
 20
-30.0357666015625
 30
-0.1339759826660156
 10
-999.9998779296875
 20
-31.90179443359375
 30
-1.211326599121093
 10
-999.9998779296875
 20
-32.90179443359375
 30
-1.211328506469726
 10
-999.9998779296875
 20
-34.76781845092773
 30
-0.1339778900146484
 10
-999.9998779296875
 20
-32.40179443359375
 30
-1.345300674438476
 10
-999.9998779296875
 20
-35.00899887084961
 30
-0.0340785980224609
 10
-999.9998779296875
 20
-29.79458618164063
 30
-0.0340747833251953
 10
-999.9998779296875
 20
-39.9328842163086
 30
-4.75
 10
-999.9998779296875
 20
-39.7498664855957
 30
-4.93301773071289
 10
-999.9998779296875
 20
-32.93464660644531
 30
-9.752248764038085
 10
-999.9998779296875
 20
-32.75599670410156
 30
-9.934743881225585
 10
-999.9998779296875
 20
-1.997477531433105
 30
-22.75918579101563
 10
-999.9998779296875
 20
-4.43463134765625
 30
-17.18704032897949
 10
-999.9998779296875
 20
-7.862920761108398
 30
-12.16358280181885
 10
-999.9998779296875
 20
-12.16344928741455
 30
-7.863052368164062
 10
-999.9998779296875
 20
-17.18691062927246
 30
-4.434762954711914
 10
-999.9998779296875
 20
-22.75905609130859
 30
-1.997611999511718
 10
-999.9998779296875
 20
-24.23671722412109
 30
-0.6887912750244141
 10
-999.9998779296875
 20
-24.50106811523438
 30
-0.325103759765625
 10
-999.9998779296875
 20
-24.8807258605957
 30
-0.0842304229736328
 10
-999.9998779296875
 20
-23.63253021240234
 30
-1.495216369628906
 10
-999.9998779296875
 20
0.0001354217529297
 30
-40.0
 10
-999.9998779296875
 20
0.0001335144042969
 30
-35.26794815063477
 10
-999.9998779296875
 20
0.0001316070556641
 30
-29.53589820861817
 10
-999.9998779296875
 20
0.0001335144042969
 30
-25.322509765625
 10
-999.9998779296875
 20
-4.499866485595703
 30
-40.0
 10
-999.9998779296875
 20
-4.999866485595703
 30
-38.35404968261719
 10
-999.9998779296875
 20
-4.999866485595703
 30
-39.5
 10
-999.9998779296875
 20
-6.249866485595703
 30
-36.5
 10
-999.9998779296875
 20
-5.593488693237304
 30
-36.93204498291016
 10
-999.9998779296875
 20
-5.154241561889648
 30
-37.58355331420899
 10
-999.9998779296875
 20
-7.499868392944335
 30
-34.64595031738281
 10
-999.9998779296875
 20
-7.34549331665039
 30
-35.41644287109375
 10
-999.9998779296875
 20
-6.906246185302734
 30
-36.06795501708984
 10
-999.9998779296875
 20
-7.499867439270019
 30
-33.0
 10
-999.9998779296875
 20
-9.505186080932617
 30
-33.0
 10
-999.9998779296875
 20
-0.1338405609130859
 30
-34.76794815063477
 10
-999.9998779296875
 20
-1.211191177368164
 30
-32.90192413330078
 10
-999.9998779296875
 20
-1.211191177368164
 30
-31.90192413330078
 10
-999.9998779296875
 20
-0.1338424682617187
 30
-30.03589820861817
 10
-999.9998779296875
 20
-9.934607505798339
 30
-32.75612258911133
 10
-999.9998779296875
 20
-9.752112388610839
 30
-32.93477249145508
 10
-999.9998779296875
 20
-4.93288230895996
 30
-39.74999618530274
 10
-999.9998779296875
 20
-4.74986457824707
 30
-39.93301391601562
 10
-999.9998779296875
 20
-0.0339431762695313
 30
-29.79471778869629
 10
-999.9998779296875
 20
-1.345165252685546
 30
-32.40192413330078
 10
-999.9998779296875
 20
-0.0339412689208984
 30
-35.00912857055664
 10
-999.9998779296875
 20
-0.6886558532714844
 30
-24.23684692382813
 10
-999.9998779296875
 20
-1.495080947875976
 30
-23.63266181945801
 10
-999.9998779296875
 20
-0.0840950012207031
 30
-24.88085746765137
 10
-999.9998779296875
 20
-0.3249683380126953
 30
-24.50119781494141
 10
1000.0
 20
-26.33321380615234
 30
-11.09649562835693
 10
1000.0
 20
-21.74738693237305
 30
-13.0603723526001
 10
1000.0
 20
-17.69575881958008
 30
-15.97089004516601
 10
1000.0
 20
-14.37069129943848
 30
-19.68986892700195
 10
1000.0
 20
-11.93005180358887
 30
-24.04074096679688
 10
1000.0
 20
-10.48970985412597
 30
-28.81692886352539
 10
-999.9998779296875
 20
-28.81680107116699
 30
-10.48975944519043
 10
-999.9998779296875
 20
-24.04060554504395
 30
-11.930100440979
 10
-999.9998779296875
 20
-19.68973350524902
 30
-14.3707389831543
 10
-999.9998779296875
 20
-15.9707555770874
 30
-17.6958065032959
 10
-999.9998779296875
 20
-13.06023788452148
 30
-21.74743461608887
 10
-999.9998779296875
 20
-11.096360206604
 30
-26.33325386047363
 93
      850
 90
        4
 90
       65
 90
       64
 90
      122
 90
      118
 90
        4
 90
       64
 90
       63
 90
      140
 90
      122
 90
        4
 90
       63
 90
       62
 90
      139
 90
      140
 90
        4
 90
       62
 90
       61
 90
      124
 90
      139
 90
        4
 90
       61
 90
       60
 90
      123
 90
      124
 90
        4
 90
       60
 90
       59
 90
      127
 90
      123
 90
        4
 90
       59
 90
       58
 90
      126
 90
      127
 90
        4
 90
       58
 90
       57
 90
      125
 90
      126
 90
        4
 90
       57
 90
       56
 90
      130
 90
      125
 90
        4
 90
       56
 90
       55
 90
      129
 90
      130
 90
        4
 90
       55
 90
       54
 90
      128
 90
      129
 90
        4
 90
       54
 90
       53
 90
      131
 90
      128
 90
        4
 90
       53
 90
       52
 90
      132
 90
      131
 90
        4
 90
       52
 90
       51
 90
      138
 90
      132
 90
        4
 90
       51
 90
       50
 90
      137
 90
      138
 90
        4
 90
       50
 90
       49
 90
       81
 90
      137
 90
        4
 90
       49
 90
      153
 90
       80
 90
       81
 90
        4
 90
       48
 90
      152
 90
       79
 90
      159
 90
        4
 90
       47
 90
      151
 90
       78
 90
      158
 90
        4
 90
       46
 90
      150
 90
       77
 90
      157
 90
        4
 90
       45
 90
      149
 90
       76
 90
      156
 90
        4
 90
       44
 90
      148
 90
       75
 90
      155
 90
        4
 90
       43
 90
       42
 90
       74
 90
      154
 90
        4
 90
       42
 90
       41
 90
      107
 90
       74
 90
        4
 90
       41
 90
       40
 90
      106
 90
      107
 90
        4
 90
       40
 90
       39
 90
       83
 90
      106
 90
        4
 90
       39
 90
       38
 90
       82
 90
       83
 90
        4
 90
       38
 90
       37
 90
       84
 90
       82
 90
        4
 90
       37
 90
       36
 90
       87
 90
       84
 90
        4
 90
       36
 90
       35
 90
       86
 90
       87
 90
        4
 90
       35
 90
       34
 90
       85
 90
       86
 90
        4
 90
       34
 90
       33
 90
       90
 90
       85
 90
        4
 90
       33
 90
       32
 90
       89
 90
       90
 90
        4
 90
       32
 90
       31
 90
       88
 90
       89
 90
        4
 90
       31
 90
       30
 90
       91
 90
       88
 90
        4
 90
       30
 90
       29
 90
      105
 90
       91
 90
        4
 90
       29
 90
       28
 90
      104
 90
      105
 90
        4
 90
       28
 90
       27
 90
       93
 90
      104
 90
        4
 90
       27
 90
       26
 90
       92
 90
       93
 90
        4
 90
       26
 90
       25
 90
       94
 90
       92
 90
        4
 90
       25
 90
       24
 90
      102
 90
       94
 90
        4
 90
       24
 90
       23
 90
      100
 90
      102
 90
        4
 90
       23
 90
       22
 90
       99
 90
      100
 90
        4
 90
       22
 90
       21
 90
      101
 90
       99
 90
        4
 90
       21
 90
       20
 90
       98
 90
      101
 90
        4
 90
       20
 90
       19
 90
       97
 90
       98
 90
        4
 90
       19
 90
       18
 90
      103
 90
       97
 90
        4
 90
       18
 90
       17
 90
       96
 90
      103
 90
        4
 90
       17
 90
       16
 90
       95
 90
       96
 90
        4
 90
       16
 90
       15
 90
      116
 90
       95
 90
        4
 90
       15
 90
       14
 90
      115
 90
      116
 90
        4
 90
       14
 90
       13
 90
      114
 90
      115
 90
        4
 90
       13
 90
       12
 90
      117
 90
      114
 90
        4
 90
       12
 90
       11
 90
      113
 90
      117
 90
        4
 90
       11
 90
       10
 90
      112
 90
      113
 90
        4
 90
       10
 90
        9
 90
      111
 90
      112
 90
        4
 90
        9
 90
        8
 90
      110
 90
      111
 90
        4
 90
        8
 90
        7
 90
      109
 90
      110
 90
        4
 90
        7
 90
        6
 90
      108
 90
      109
 90
        4
 90
        6
 90
        5
 90
      145
 90
      108
 90
        4
 90
        5
 90
        4
 90
      144
 90
      145
 90
        4
 90
        4
 90
        3
 90
      147
 90
      144
 90
        4
 90
        3
 90
        2
 90
      146
 90
      147
 90
        4
 90
        2
 90
        1
 90
      121
 90
      146
 90
        4
 90
        1
 90
        0
 90
      120
 90
      121
 90
        4
 90
        0
 90
       73
 90
      141
 90
      120
 90
        4
 90
       73
 90
       72
 90
      136
 90
      141
 90
        4
 90
       72
 90
       71
 90
      135
 90
      136
 90
        4
 90
       71
 90
       70
 90
      142
 90
      135
 90
        4
 90
       70
 90
       69
 90
      134
 90
      142
 90
        4
 90
       69
 90
       68
 90
      133
 90
      134
 90
        4
 90
       68
 90
       67
 90
      143
 90
      133
 90
        4
 90
       67
 90
       66
 90
      119
 90
      143
 90
        4
 90
       66
 90
       65
 90
      118
 90
      119
 90
        4
 90
      153
 90
       48
 90
      159
 90
       80
 90
        4
 90
      152
 90
       47
 90
      158
 90
       79
 90
        4
 90
      151
 90
       46
 90
      157
 90
       78
 90
        4
 90
      150
 90
       45
 90
      156
 90
       77
 90
        4
 90
      149
 90
       44
 90
      155
 90
       76
 90
        4
 90
      148
 90
       43
 90
      154
 90
       75
 90
        4
 90
       74
 90
      114
 90
      117
 90
      154
 90
        3
 90
       93
 90
       92
 90
       94
 90
        3
 90
      104
 90
       93
 90
       94
 90
        3
 90
      105
 90
      104
 90
       94
 90
        3
 90
       91
 90
      105
 90
       94
 90
        4
 90
       88
 90
       91
 90
       94
 90
      102
 90
        4
 90
       89
 90
       88
 90
      102
 90
      100
 90
        4
 90
       90
 90
       89
 90
      100
 90
       99
 90
        3
 90
       84
 90
       87
 90
       98
 90
        4
 90
       87
 90
       86
 90
      101
 90
       98
 90
        3
 90
       85
 90
       90
 90
       99
 90
        4
 90
       86
 90
       85
 90
       99
 90
      101
 90
        4
 90
       82
 90
       84
 90
       98
 90
       97
 90
        3
 90
       82
 90
       97
 90
      103
 90
        3
 90
       82
 90
      103
 90
       96
 90
        4
 90
       83
 90
       82
 90
       96
 90
       95
 90
        4
 90
      106
 90
       83
 90
       95
 90
      116
 90
        4
 90
      107
 90
      106
 90
      116
 90
      115
 90
        4
 90
       74
 90
      107
 90
      115
 90
      114
 90
        4
 90
      117
 90
      113
 90
       75
 90
      154
 90
        4
 90
      113
 90
      112
 90
      155
 90
       75
 90
        4
 90
      112
 90
      111
 90
      156
 90
       76
 90
        3
 90
      112
 90
       76
 90
      155
 90
        4
 90
      111
 90
      110
 90
      157
 90
       77
 90
        3
 90
      111
 90
       77
 90
      156
 90
        4
 90
      110
 90
      109
 90
      158
 90
       78
 90
        3
 90
      110
 90
       78
 90
      157
 90
        4
 90
      109
 90
      108
 90
      159
 90
       79
 90
        3
 90
      109
 90
       79
 90
      158
 90
        4
 90
      108
 90
      145
 90
       80
 90
      159
 90
        4
 90
      145
 90
      144
 90
       81
 90
       80
 90
        4
 90
      144
 90
      147
 90
      137
 90
       81
 90
        4
 90
      147
 90
      146
 90
      138
 90
      137
 90
        4
 90
      146
 90
      121
 90
      132
 90
      138
 90
        4
 90
      121
 90
      120
 90
      131
 90
      132
 90
        3
 90
      141
 90
      136
 90
      131
 90
        3
 90
      120
 90
      141
 90
      131
 90
        4
 90
      136
 90
      135
 90
      128
 90
      131
 90
        4
 90
      135
 90
      142
 90
      129
 90
      128
 90
        4
 90
      142
 90
      134
 90
      130
 90
      129
 90
        3
 90
      134
 90
      125
 90
      130
 90
        4
 90
      134
 90
      133
 90
      126
 90
      125
 90
        4
 90
      133
 90
      143
 90
      127
 90
      126
 90
        4
 90
      143
 90
      119
 90
      123
 90
      127
 90
        3
 90
      119
 90
      124
 90
      123
 90
        3
 90
      119
 90
      140
 90
      139
 90
        3
 90
      119
 90
      139
 90
      124
 90
        3
 90
      119
 90
      118
 90
      122
 90
        3
 90
      119
 90
      122
 90
      140
 90
        4
 90
       42
 90
       43
 90
       12
 90
       13
 90
        3
 90
       27
 90
       25
 90
       26
 90
        3
 90
       28
 90
       25
 90
       27
 90
        3
 90
       29
 90
       25
 90
       28
 90
        3
 90
       30
 90
       25
 90
       29
 90
        4
 90
       31
 90
       24
 90
       25
 90
       30
 90
        4
 90
       32
 90
       23
 90
       24
 90
       31
 90
        4
 90
       33
 90
       22
 90
       23
 90
       32
 90
        3
 90
       37
 90
       20
 90
       36
 90
        4
 90
       36
 90
       20
 90
       21
 90
       35
 90
        3
 90
       34
 90
       22
 90
       33
 90
        4
 90
       35
 90
       21
 90
       22
 90
       34
 90
        4
 90
       38
 90
       19
 90
       20
 90
       37
 90
        3
 90
       38
 90
       18
 90
       19
 90
        3
 90
       38
 90
       17
 90
       18
 90
        4
 90
       39
 90
       16
 90
       17
 90
       38
 90
        4
 90
       40
 90
       15
 90
       16
 90
       39
 90
        4
 90
       41
 90
       14
 90
       15
 90
       40
 90
        4
 90
       42
 90
       13
 90
       14
 90
       41
 90
        4
 90
       12
 90
       43
 90
      148
 90
       11
 90
        4
 90
       11
 90
      148
 90
       44
 90
       10
 90
        4
 90
       10
 90
      149
 90
       45
 90
        9
 90
        3
 90
       10
 90
       44
 90
      149
 90
        4
 90
        9
 90
      150
 90
       46
 90
        8
 90
        3
 90
        9
 90
       45
 90
      150
 90
        4
 90
        8
 90
      151
 90
       47
 90
        7
 90
        3
 90
        8
 90
       46
 90
      151
 90
        4
 90
        7
 90
      152
 90
       48
 90
        6
 90
        3
 90
        7
 90
       47
 90
      152
 90
        4
 90
        6
 90
       48
 90
      153
 90
        5
 90
        4
 90
        5
 90
      153
 90
       49
 90
        4
 90
        4
 90
        4
 90
       49
 90
       50
 90
        3
 90
        4
 90
        3
 90
       50
 90
       51
 90
        2
 90
        4
 90
        2
 90
       51
 90
       52
 90
        1
 90
        4
 90
        1
 90
       52
 90
       53
 90
        0
 90
        3
 90
       73
 90
       53
 90
       72
 90
        3
 90
        0
 90
       53
 90
       73
 90
        4
 90
       72
 90
       53
 90
       54
 90
       71
 90
        4
 90
       71
 90
       54
 90
       55
 90
       70
 90
        4
 90
       70
 90
       55
 90
       56
 90
       69
 90
        3
 90
       69
 90
       56
 90
       57
 90
        4
 90
       69
 90
       57
 90
       58
 90
       68
 90
        4
 90
       68
 90
       58
 90
       59
 90
       67
 90
        4
 90
       67
 90
       59
 90
       60
 90
       66
 90
        3
 90
       66
 90
       60
 90
       61
 90
        3
 90
       66
 90
       62
 90
       63
 90
        3
 90
       66
 90
       61
 90
       62
 90
        3
 90
       66
 90
       64
 90
       65
 90
        3
 90
       66
 90
       63
 90
       64
 94
      336
 90
       64
 90
       65
 90
       64
 90
      122
 90
      118
 90
      122
 90
       65
 90
      118
 90
       63
 90
       64
 90
       63
 90
      140
 90
      122
 90
      140
 90
       62
 90
       63
 90
       62
 90
      139
 90
      139
 90
      140
 90
       61
 90
       62
 90
       61
 90
      124
 90
      124
 90
      139
 90
       60
 90
       61
 90
       60
 90
      123
 90
      123
 90
      124
 90
       59
 90
       60
 90
       59
 90
      127
 90
      123
 90
      127
 90
       58
 90
       59
 90
       58
 90
      126
 90
      126
 90
      127
 90
       57
 90
       58
 90
       57
 90
      125
 90
      125
 90
      126
 90
       56
 90
       57
 90
       56
 90
      130
 90
      125
 90
      130
 90
       55
 90
       56
 90
       55
 90
      129
 90
      129
 90
      130
 90
       54
 90
       55
 90
       54
 90
      128
 90
      128
 90
      129
 90
       53
 90
       54
 90
       53
 90
      131
 90
      128
 90
      131
 90
       52
 90
       53
 90
       52
 90
      132
 90
      131
 90
      132
 90
       51
 90
       52
 90
       51
 90
      138
 90
      132
 90
      138
 90
       50
 90
       51
 90
       50
 90
      137
 90
      137
 90
      138
 90
       49
 90
       50
 90
       49
 90
       81
 90
       81
 90
      137
 90
       49
 90
      153
 90
       80
 90
      153
 90
       80
 90
       81
 90
       48
 90
      152
 90
       79
 90
      152
 90
       79
 90
      159
 90
       48
 90
      159
 90
       47
 90
      151
 90
       78
 90
      151
 90
       78
 90
      158
 90
       47
 90
      158
 90
       46
 90
      150
 90
       77
 90
      150
 90
       77
 90
      157
 90
       46
 90
      157
 90
       45
 90
      149
 90
       76
 90
      149
 90
       76
 90
      156
 90
       45
 90
      156
 90
       44
 90
      148
 90
       75
 90
      148
 90
       75
 90
      155
 90
       44
 90
      155
 90
       42
 90
       43
 90
       42
 90
       74
 90
       74
 90
      154
 90
       43
 90
      154
 90
       41
 90
       42
 90
       41
 90
      107
 90
       74
 90
      107
 90
       40
 90
       41
 90
       40
 90
      106
 90
      106
 90
      107
 90
       39
 90
       40
 90
       39
 90
       83
 90
       83
 90
      106
 90
       38
 90
       39
 90
       38
 90
       82
 90
       82
 90
       83
 90
       37
 90
       38
 90
       37
 90
       84
 90
       82
 90
       84
 90
       36
 90
       37
 90
       36
 90
       87
 90
       84
 90
       87
 90
       35
 90
       36
 90
       35
 90
       86
 90
       86
 90
       87
 90
       34
 90
       35
 90
       34
 90
       85
 90
       85
 90
       86
 90
       33
 90
       34
 90
       33
 90
       90
 90
       85
 90
       90
 90
       32
 90
       33
 90
       32
 90
       89
 90
       89
 90
       90
 90
       31
 90
       32
 90
       31
 90
       88
 90
       88
 90
       89
 90
       30
 90
       31
 90
       30
 90
       91
 90
       88
 90
       91
 90
       29
 90
       30
 90
       29
 90
      105
 90
       91
 90
      105
 90
       28
 90
       29
 90
       28
 90
      104
 90
      104
 90
      105
 90
       27
 90
       28
 90
       27
 90
       93
 90
       93
 90
      104
 90
       26
 90
       27
 90
       26
 90
       92
 90
       92
 90
       93
 90
       25
 90
       26
 90
       25
 90
       94
 90
       92
 90
       94
 90
       24
 90
       25
 90
       24
 90
      102
 90
       94
 90
      102
 90
       23
 90
       24
 90
       23
 90
      100
 90
      100
 90
      102
 90
       22
 90
       23
 90
       22
 90
       99
 90
       99
 90
      100
 90
       21
 90
       22
 90
       21
 90
      101
 90
       99
 90
      101
 90
       20
 90
       21
 90
       20
 90
       98
 90
       98
 90
      101
 90
       19
 90
       20
 90
       19
 90
       97
 90
       97
 90
       98
 90
       18
 90
       19
 90
       18
 90
      103
 90
       97
 90
      103
 90
       17
 90
       18
 90
       17
 90
       96
 90
       96
 90
      103
 90
       16
 90
       17
 90
       16
 90
       95
 90
       95
 90
       96
 90
       15
 90
       16
 90
       15
 90
      116
 90
       95
 90
      116
 90
       14
 90
       15
 90
       14
 90
      115
 90
      115
 90
      116
 90
       13
 90
       14
 90
       13
 90
      114
 90
      114
 90
      115
 90
       12
 90
       13
 90
       12
 90
      117
 90
      114
 90
      117
 90
       11
 90
       12
 90
       11
 90
      113
 90
      113
 90
      117
 90
       10
 90
       11
 90
       10
 90
      112
 90
      112
 90
      113
 90
        9
 90
       10
 90
        9
 90
      111
 90
      111
 90
      112
 90
        8
 90
        9
 90
        8
 90
      110
 90
      110
 90
      111
 90
        7
 90
        8
 90
        7
 90
      109
 90
      109
 90
      110
 90
        6
 90
        7
 90
        6
 90
      108
 90
      108
 90
      109
 90
        5
 90
        6
 90
        5
 90
      145
 90
      108
 90
      145
 90
        4
 90
        5
 90
        4
 90
      144
 90
      144
 90
      145
 90
        3
 90
        4
 90
        3
 90
      147
 90
      144
 90
      147
 90
        2
 90
        3
 90
        2
 90
      146
 90
      146
 90
      147
 90
        1
 90
        2
 90
        1
 90
      121
 90
      121
 90
      146
 90
        0
 90
        1
 90
        0
 90
      120
 90
      120
 90
      121
 90
        0
 90
       73
 90
       73
 90
      141
 90
      120
 90
      141
 90
       72
 90
       73
 90
       72
 90
      136
 90
      136
 90
      141
 90
       71
 90
       72
 90
       71
 90
      135
 90
      135
 90
      136
 90
       70
 90
       71
 90
       70
 90
      142
 90
      135
 90
      142
 90
       69
 90
       70
 90
       69
 90
      134
 90
      134
 90
      142
 90
       68
 90
       69
 90
       68
 90
      133
 90
      133
 90
      134
 90
       67
 90
       68
 90
       67
 90
      143
 90
      133
 90
      143
 90
       66
 90
       67
 90
       66
 90
      119
 90
      119
 90
      143
 90
       65
 90
       66
 90
      118
 90
      119
 90
       48
 90
      153
 90
       80
 90
      159
 90
       47
 90
      152
 90
       79
 90
      158
 90
       46
 90
      151
 90
       78
 90
      157
 90
       45
 90
      150
 90
       77
 90
      156
 90
       44
 90
      149
 90
       76
 90
      155
 90
       43
 90
      148
 90
       75
 90
      154
 90
       74
 90
      114
 90
      117
 90
      154
 90
       93
 90
       94
 90
       94
 90
      104
 90
       94
 90
      105
 90
       91
 90
       94
 90
       88
 90
      102
 90
       89
 90
      100
 90
       90
 90
       99
 90
       87
 90
       98
 90
       84
 90
       98
 90
       86
 90
      101
 90
       85
 90
       99
 90
       82
 90
       97
 90
       82
 90
      103
 90
       82
 90
       96
 90
       83
 90
       95
 90
      106
 90
      116
 90
      107
 90
      115
 90
       75
 90
      113
 90
      112
 90
      155
 90
      111
 90
      156
 90
       76
 90
      112
 90
      110
 90
      157
 90
       77
 90
      111
 90
      109
 90
      158
 90
       78
 90
      110
 90
      108
 90
      159
 90
       79
 90
      109
 90
       80
 90
      145
 90
       81
 90
      144
 90
      137
 90
      147
 90
      138
 90
      146
 90
      121
 90
      132
 90
      120
 90
      131
 90
      131
 90
      136
 90
      131
 90
      141
 90
      128
 90
      135
 90
      129
 90
      142
 90
      130
 90
      134
 90
      125
 90
      134
 90
      126
 90
      133
 90
      127
 90
      143
 90
      119
 90
      123
 90
      119
 90
      124
 90
      119
 90
      140
 90
      119
 90
      139
 90
      119
 90
      122
 90
       12
 90
       43
 90
       13
 90
       42
 90
       25
 90
       27
 90
       25
 90
       28
 90
       25
 90
       29
 90
       25
 90
       30
 90
       24
 90
       31
 90
       23
 90
       32
 90
       22
 90
       33
 90
       20
 90
       37
 90
       20
 90
       36
 90
       21
 90
       35
 90
       22
 90
       34
 90
       19
 90
       38
 90
       18
 90
       38
 90
       17
 90
       38
 90
       16
 90
       39
 90
       15
 90
       40
 90
       14
 90
       41
 90
       11
 90
      148
 90
       10
 90
       44
 90
       10
 90
      149
 90
        9
 90
       45
 90
        9
 90
      150
 90
        8
 90
       46
 90
        8
 90
      151
 90
        7
 90
       47
 90
        7
 90
      152
 90
        6
 90
       48
 90
        5
 90
      153
 90
        4
 90
       49
 90
        3
 90
       50
 90
        2
 90
       51
 90
        1
 90
       52
 90
        0
 90
       53
 90
       53
 90
       73
 90
       53
 90
       72
 90
       54
 90
       71
 90
       55
 90
       70
 90
       56
 90
       69
 90
       57
 90
       69
 90
       58
 90
       68
 90
       59
 90
       67
 90
       60
 90
       66
 90
       61
 90
       66
 90
       62
 90
       66
 90
       63
 90
       66
 90
       64
 90
       66
 95
      336
140
0.0
140
0.0
140
0.0
140
0.0
140
0.0
140
0.0
140
0.0
140
0.0
140
0.0
140
0.0
140
0.0
140
0.0
140
0.0
140
0.0
140
0.0
140
0.0
140
0.0
140
0.0
140
0.0
140
0.0
140
0.0
140
0.0
140
0.0
140
0.0
140
0.0
140
0.0
140
0.0
140
0.0
140
0.0
140
0.0
140
0.0
140
0.0
140
0.0
140
0.0
140
0.0
140
0.0
140
0.0
140
0.0
140
0.0
140
0.0
140
0.0
140
0.0
140
0.0
140
0.0
140
0.0
140
0.0
140
0.0
140
0.0
140
0.0
140
0.0
140
0.0
140
0.0
140
0.0
140
0.0
140
0.0
140
0.0
140
0.0
140
0.0
140
0.0
140
0.0
140
0.0
140
0.0
140
0.0
140
0.0
140
0.0
140
0.0
140
0.0
140
0.0
140
0.0
140
0.0
140
0.0
140
0.0
140
0.0
140
0.0
140
0.0
140
0.0
140
0.0
140
0.0
140
0.0
140
0.0
140
0.0
140
0.0
140
0.0
140
0.0
140
0.0
140
0.0
140
0.0
140
0.0
140
0.0
140
0.0
140
0.0
140
0.0
140
0.0
140
0.0
140
0.0
140
0.0
140
0.0
140
0.0
140
0.0
140
0.0
140
0.0
140
0.0
140
0.0
140
0.0
140
0.0
140
0.0
140
0.0
140
0.0
140
0.0
140
0.0
140
0.0
140
0.0
140
0.0
140
0.0
140
0.0
140
0.0
140
0.0
140
0.0
140
0.0
140
0.0
140
0.0
140
0.0
140
0.0
140
0.0
140
0.0
140
0.0
140
0.0
140
0.0
140
0.0
140
0.0
140
0.0
140
0.0
140
0.0
140
0.0
140
0.0
140
0.0
140
0.0
140
0.0
140
0.0
140
0.0
140
0.0
140
0.0
140
0.0
140
0.0
140
0.0
140
0.0
140
0.0
140
0.0
140
0.0
140
0.0
140
0.0
140
0.0
140
0.0
140
0.0
140
0.0
140
0.0
140
0.0
140
0.0
140
0.0
140
0.0
140
0.0
140
0.0
140
0.0
140
0.0
140
0.0
140
0.0
140
0.0
140
0.0
140
0.0
140
0.0
140
0.0
140
0.0
140
0.0
140
0.0
140
0.0
140
0.0
140
0.0
140
0.0
140
0.0
140
0.0
140
0.0
140
0.0
140
0.0
140
0.0
140
0.0
140
0.0
140
0.0
140
0.0
140
0.0
140
0.0
140
0.0
140
0.0
140
0.0
140
0.0
140
0.0
140
0.0
140
0.0
140
0.0
140
0.0
140
0.0
140
0.0
140
0.0
140
0.0
140
0.0
140
0.0
140
0.0
140
0.0
140
0.0
140
0.0
140
0.0
140
0.0
140
0.0
140
0.0
140
0.0
140
0.0
140
0.0
140
0.0
140
0.0
140
0.0
140
0.0
140
0.0
140
0.0
140
0.0
140
0.0
140
0.0
140
0.0
140
0.0
140
0.0
140
0.0
140
0.0
140
0.0
140
0.0
140
0.0
140
0.0
140
0.0
140
0.0
140
0.0
140
0.0
140
0.0
140
0.0
140
0.0
140
0.0
140
0.0
140
0.0
140
0.0
140
0.0
140
0.0
140
0.0
140
0.0
140
0.0
140
0.0
140
0.0
140
0.0
140
0.0
140
0.0
140
0.0
140
0.0
140
0.0
140
0.0
140
0.0
140
0.0
140
0.0
140
0.0
140
0.0
140
0.0
140
0.0
140
0.0
140
0.0
140
0.0
140
0.0
140
0.0
140
0.0
140
0.0
140
0.0
140
0.0
140
0.0
140
0.0
140
0.0
140
0.0
140
0.0
140
0.0
140
0.0
140
0.0
140
0.0
140
0.0
140
0.0
140
0.0
140
0.0
140
0.0
140
0.0
140
0.0
140
0.0
140
0.0
140
0.0
140
0.0
140
0.0
140
0.0
140
0.0
140
0.0
140
0.0
140
0.0
140
0.0
140
0.0
140
0.0
140
0.0
140
0.0
140
0.0
140
0.0
140
0.0
140
0.0
140
0.0
140
0.0
140
0.0
140
0.0
140
0.0
140
0.0
140
0.0
140
0.0
140
0.0
140
0.0
140
0.0
140
0.0
140
0.0
140
0.0
140
0.0
140
0.0
140
0.0
140
0.0
140
0.0
140
0.0
140
0.0
140
0.0
140
0.0
140
0.0
140
0.0
140
0.0
 90
        0
  0
POLYLINE
  5
FA
330
1F
100
AcDbEntity
  8
OracDecor_cornice_mouldings
 62
   183
420
  9197793
100
AcDb2dPolyline
 66
     1
 10
0.0
 20
0.0
 30
0.000002616225629
 70
     1
210
-0.9999999999999769
220
0.0000001788139343
230
-0.0000001192092896
  0
VERTEX
  5
FB
330
FA
100
AcDbEntity
  8
OracDecor_cornice_mouldings
 62
   183
420
  9197793
100
AcDbVertex
100
AcDb2dVertex
 10
-0.0000409140811826
 20
-25.322509765625
 30
0.000002616225629
  0
VERTEX
  5
FC
330
FA
100
AcDbEntity
  8
OracDecor_cornice_mouldings
 62
   183
420
  9197793
100
AcDbVertex
100
AcDb2dVertex
 10
-0.0000424530844612
 20
-29.53589820861817
 30
0.000002616225629
  0
VERTEX
  5
FD
330
FA
100
AcDbEntity
  8
OracDecor_cornice_mouldings
 62
   183
420
  9197793
100
AcDbVertex
100
AcDb2dVertex
 10
-0.0341172143816948
 20
-29.79471778869629
 30
0.000002616225629
  0
VERTEX
  5
FE
330
FA
100
AcDbEntity
  8
OracDecor_cornice_mouldings
 62
   183
420
  9197793
100
AcDbVertex
100
AcDb2dVertex
 10
-0.1340164840221405
 20
-30.03589820861817
 30
0.000002616225629
  0
VERTEX
  5
FF
330
FA
100
AcDbEntity
  8
OracDecor_cornice_mouldings
 62
   183
420
  9197793
100
AcDbVertex
100
AcDb2dVertex
 10
-1.211367011070251
 20
-31.90192413330078
 30
0.000002616225629
  0
VERTEX
  5
100
330
FA
100
AcDbEntity
  8
OracDecor_cornice_mouldings
 62
   183
420
  9197793
100
AcDbVertex
100
AcDb2dVertex
 10
-1.345340967178344
 20
-32.40192413330078
 30
0.000002616225629
  0
VERTEX
  5
101
330
FA
100
AcDbEntity
  8
OracDecor_cornice_mouldings
 62
   183
420
  9197793
100
AcDbVertex
100
AcDb2dVertex
 10
-1.211366891860961
 20
-32.90192413330078
 30
0.000002616225629
  0
VERTEX
  5
102
330
FA
100
AcDbEntity
  8
OracDecor_cornice_mouldings
 62
   183
420
  9197793
100
AcDbVertex
100
AcDb2dVertex
 10
-0.1340160667896271
 20
-34.76794815063477
 30
0.000002616225629
  0
VERTEX
  5
103
330
FA
100
AcDbEntity
  8
OracDecor_cornice_mouldings
 62
   183
420
  9197793
100
AcDbVertex
100
AcDb2dVertex
 10
-0.0341148488223553
 20
-35.00912857055664
 30
0.000002616225629
  0
VERTEX
  5
104
330
FA
100
AcDbEntity
  8
OracDecor_cornice_mouldings
 62
   183
420
  9197793
100
AcDbVertex
100
AcDb2dVertex
 10
-0.0000400446224376
 20
-35.26794815063477
 30
0.000002616225629
  0
VERTEX
  5
105
330
FA
100
AcDbEntity
  8
OracDecor_cornice_mouldings
 62
   183
420
  9197793
100
AcDbVertex
100
AcDb2dVertex
 10
-0.0000396309333155
 20
-40.0
 30
0.000002616225629
  0
VERTEX
  5
106
330
FA
100
AcDbEntity
  8
OracDecor_cornice_mouldings
 62
   183
420
  9197793
100
AcDbVertex
100
AcDb2dVertex
 10
-4.500040531158447
 20
-40.0
 30
0.000002616225629
  0
VERTEX
  5
107
330
FA
100
AcDbEntity
  8
OracDecor_cornice_mouldings
 62
   183
420
  9197793
100
AcDbVertex
100
AcDb2dVertex
 10
-4.750038623809814
 20
-39.93301391601562
 30
0.000002616225629
  0
VERTEX
  5
108
330
FA
100
AcDbEntity
  8
OracDecor_cornice_mouldings
 62
   183
420
  9197793
100
AcDbVertex
100
AcDb2dVertex
 10
-4.933056354522705
 20
-39.74999618530274
 30
0.000002616225629
  0
VERTEX
  5
109
330
FA
100
AcDbEntity
  8
OracDecor_cornice_mouldings
 62
   183
420
  9197793
100
AcDbVertex
100
AcDb2dVertex
 10
-5.000040531158447
 20
-39.5
 30
0.000002616225629
  0
VERTEX
  5
10A
330
FA
100
AcDbEntity
  8
OracDecor_cornice_mouldings
 62
   183
420
  9197793
100
AcDbVertex
100
AcDb2dVertex
 10
-5.000040531158447
 20
-38.35404968261719
 30
0.000002616225629
  0
VERTEX
  5
10B
330
FA
100
AcDbEntity
  8
OracDecor_cornice_mouldings
 62
   183
420
  9197793
100
AcDbVertex
100
AcDb2dVertex
 10
-5.154415607452392
 20
-37.58355331420899
 30
0.000002616225629
  0
VERTEX
  5
10C
330
FA
100
AcDbEntity
  8
OracDecor_cornice_mouldings
 62
   183
420
  9197793
100
AcDbVertex
100
AcDb2dVertex
 10
-5.593661785125732
 20
-36.93204498291016
 30
0.000002616225629
  0
VERTEX
  5
10D
330
FA
100
AcDbEntity
  8
OracDecor_cornice_mouldings
 62
   183
420
  9197793
100
AcDbVertex
100
AcDb2dVertex
 10
-6.250040531158447
 20
-36.5
 30
0.000002616225629
  0
VERTEX
  5
10E
330
FA
100
AcDbEntity
  8
OracDecor_cornice_mouldings
 62
   183
420
  9197793
100
AcDbVertex
100
AcDb2dVertex
 10
-6.906420230865478
 20
-36.06795501708984
 30
0.000002616225629
  0
VERTEX
  5
10F
330
FA
100
AcDbEntity
  8
OracDecor_cornice_mouldings
 62
   183
420
  9197793
100
AcDbVertex
100
AcDb2dVertex
 10
-7.345667839050292
 20
-35.41644287109375
 30
0.000002616225629
  0
VERTEX
  5
110
330
FA
100
AcDbEntity
  8
OracDecor_cornice_mouldings
 62
   183
420
  9197793
100
AcDbVertex
100
AcDb2dVertex
 10
-7.500041961669921
 20
-34.64595031738281
 30
0.000002616225629
  0
VERTEX
  5
111
330
FA
100
AcDbEntity
  8
OracDecor_cornice_mouldings
 62
   183
420
  9197793
100
AcDbVertex
100
AcDb2dVertex
 10
-7.500041007995605
 20
-33.0
 30
0.000002616225629
  0
VERTEX
  5
112
330
FA
100
AcDbEntity
  8
OracDecor_cornice_mouldings
 62
   183
420
  9197793
100
AcDbVertex
100
AcDb2dVertex
 10
-9.505360603332519
 20
-33.0
 30
0.000002616225629
  0
VERTEX
  5
113
330
FA
100
AcDbEntity
  8
OracDecor_cornice_mouldings
 62
   183
420
  9197793
100
AcDbVertex
100
AcDb2dVertex
 10
-9.752286911010742
 20
-32.93477249145508
 30
0.000002616225629
  0
VERTEX
  5
114
330
FA
100
AcDbEntity
  8
OracDecor_cornice_mouldings
 62
   183
420
  9197793
100
AcDbVertex
100
AcDb2dVertex
 10
-9.934782028198242
 20
-32.75612258911133
 30
0.000002616225629
  0
VERTEX
  5
115
330
FA
100
AcDbEntity
  8
OracDecor_cornice_mouldings
 62
   183
420
  9197793
100
AcDbVertex
100
AcDb2dVertex
 10
-10.00524806976318
 20
-32.51063919067383
 30
0.000002616225629
  0
VERTEX
  5
116
330
FA
100
AcDbEntity
  8
OracDecor_cornice_mouldings
 62
   183
420
  9197793
100
AcDbVertex
100
AcDb2dVertex
 10
-10.48979759216308
 20
-28.81692886352539
 30
0.000002616225629
  0
VERTEX
  5
117
330
FA
100
AcDbEntity
  8
OracDecor_cornice_mouldings
 62
   183
420
  9197793
100
AcDbVertex
100
AcDb2dVertex
 10
-11.0965347290039
 20
-26.33325386047363
 30
0.000002616225629
  0
VERTEX
  5
118
330
FA
100
AcDbEntity
  8
OracDecor_cornice_mouldings
 62
   183
420
  9197793
100
AcDbVertex
100
AcDb2dVertex
 10
-11.93013954162597
 20
-24.04074096679688
 30
0.000002616225629
  0
VERTEX
  5
119
330
FA
100
AcDbEntity
  8
OracDecor_cornice_mouldings
 62
   183
420
  9197793
100
AcDbVertex
100
AcDb2dVertex
 10
-13.06041240692138
 20
-21.74743461608887
 30
0.000002616225629
  0
VERTEX
  5
11A
330
FA
100
AcDbEntity
  8
OracDecor_cornice_mouldings
 62
   183
420
  9197793
100
AcDbVertex
100
AcDb2dVertex
 10
-14.37077903747558
 20
-19.68986892700195
 30
0.000002616225629
  0
VERTEX
  5
11B
330
FA
100
AcDbEntity
  8
OracDecor_cornice_mouldings
 62
   183
420
  9197793
100
AcDbVertex
100
AcDb2dVertex
 10
-15.9709300994873
 20
-17.6958065032959
 30
0.000002616225629
  0
VERTEX
  5
11C
330
FA
100
AcDbEntity
  8
OracDecor_cornice_mouldings
 62
   183
420
  9197793
100
AcDbVertex
100
AcDb2dVertex
 10
-17.69584655761718
 20
-15.97089099884033
 30
0.000002616225629
  0
VERTEX
  5
11D
330
FA
100
AcDbEntity
  8
OracDecor_cornice_mouldings
 62
   183
420
  9197793
100
AcDbVertex
100
AcDb2dVertex
 10
-19.68990898132324
 20
-14.37073993682861
 30
0.000002616225629
  0
VERTEX
  5
11E
330
FA
100
AcDbEntity
  8
OracDecor_cornice_mouldings
 62
   183
420
  9197793
100
AcDbVertex
100
AcDb2dVertex
 10
-21.74747467041016
 20
-13.06037330627441
 30
0.000002616225629
  0
VERTEX
  5
11F
330
FA
100
AcDbEntity
  8
OracDecor_cornice_mouldings
 62
   183
420
  9197793
100
AcDbVertex
100
AcDb2dVertex
 10
-24.04078102111816
 20
-11.93010234832764
 30
0.000002616225629
  0
VERTEX
  5
120
330
FA
100
AcDbEntity
  8
OracDecor_cornice_mouldings
 62
   183
420
  9197793
100
AcDbVertex
100
AcDb2dVertex
 10
-26.33330154418946
 20
-11.09649753570556
 30
0.000002616225629
  0
VERTEX
  5
121
330
FA
100
AcDbEntity
  8
OracDecor_cornice_mouldings
 62
   183
420
  9197793
100
AcDbVertex
100
AcDb2dVertex
 10
-28.81697654724121
 20
-10.48976135253906
 30
0.000002616225629
  0
VERTEX
  5
122
330
FA
100
AcDbEntity
  8
OracDecor_cornice_mouldings
 62
   183
420
  9197793
100
AcDbVertex
100
AcDb2dVertex
 10
-32.51068496704102
 20
-10.00521183013916
 30
0.000002616225629
  0
VERTEX
  5
123
330
FA
100
AcDbEntity
  8
OracDecor_cornice_mouldings
 62
   183
420
  9197793
100
AcDbVertex
100
AcDb2dVertex
 10
-32.75616836547852
 20
-9.934745788574218
 30
0.000002616225629
  0
VERTEX
  5
124
330
FA
100
AcDbEntity
  8
OracDecor_cornice_mouldings
 62
   183
420
  9197793
100
AcDbVertex
100
AcDb2dVertex
 10
-32.93481826782227
 20
-9.752250671386718
 30
0.000002616225629
  0
VERTEX
  5
125
330
FA
100
AcDbEntity
  8
OracDecor_cornice_mouldings
 62
   183
420
  9197793
100
AcDbVertex
100
AcDb2dVertex
 10
-33.00004196166992
 20
-9.505324363708496
 30
0.000002616225629
  0
VERTEX
  5
126
330
FA
100
AcDbEntity
  8
OracDecor_cornice_mouldings
 62
   183
420
  9197793
100
AcDbVertex
100
AcDb2dVertex
 10
-33.00004196166992
 20
-7.500004768371582
 30
0.000002616225629
  0
VERTEX
  5
127
330
FA
100
AcDbEntity
  8
OracDecor_cornice_mouldings
 62
   183
420
  9197793
100
AcDbVertex
100
AcDb2dVertex
 10
-34.64599227905273
 20
-7.500003814697265
 30
0.000002616225629
  0
VERTEX
  5
128
330
FA
100
AcDbEntity
  8
OracDecor_cornice_mouldings
 62
   183
420
  9197793
100
AcDbVertex
100
AcDb2dVertex
 10
-35.41649246215821
 20
-7.345629692077636
 30
0.000002616225629
  0
VERTEX
  5
129
330
FA
100
AcDbEntity
  8
OracDecor_cornice_mouldings
 62
   183
420
  9197793
100
AcDbVertex
100
AcDb2dVertex
 10
-36.06799697875977
 20
-6.906384468078613
 30
0.000002616225629
  0
VERTEX
  5
12A
330
FA
100
AcDbEntity
  8
OracDecor_cornice_mouldings
 62
   183
420
  9197793
100
AcDbVertex
100
AcDb2dVertex
 10
-36.50004196166992
 20
-6.250005722045898
 30
0.000002616225629
  0
VERTEX
  5
12B
330
FA
100
AcDbEntity
  8
OracDecor_cornice_mouldings
 62
   183
420
  9197793
100
AcDbVertex
100
AcDb2dVertex
 10
-36.93208694458008
 20
-5.593626022338867
 30
0.000002616225629
  0
VERTEX
  5
12C
330
FA
100
AcDbEntity
  8
OracDecor_cornice_mouldings
 62
   183
420
  9197793
100
AcDbVertex
100
AcDb2dVertex
 10
-37.58359527587891
 20
-5.15437889099121
 30
0.000002616225629
  0
VERTEX
  5
12D
330
FA
100
AcDbEntity
  8
OracDecor_cornice_mouldings
 62
   183
420
  9197793
100
AcDbVertex
100
AcDb2dVertex
 10
-38.35409164428711
 20
-5.000005722045898
 30
0.000002616225629
  0
VERTEX
  5
12E
330
FA
100
AcDbEntity
  8
OracDecor_cornice_mouldings
 62
   183
420
  9197793
100
AcDbVertex
100
AcDb2dVertex
 10
-39.50004196166992
 20
-5.000005722045898
 30
0.000002616225629
  0
VERTEX
  5
12F
330
FA
100
AcDbEntity
  8
OracDecor_cornice_mouldings
 62
   183
420
  9197793
100
AcDbVertex
100
AcDb2dVertex
 10
-39.75003814697266
 20
-4.933019638061523
 30
0.000002616225629
  0
VERTEX
  5
130
330
FA
100
AcDbEntity
  8
OracDecor_cornice_mouldings
 62
   183
420
  9197793
100
AcDbVertex
100
AcDb2dVertex
 10
-39.93305587768555
 20
-4.750001907348632
 30
0.000002616225629
  0
VERTEX
  5
131
330
FA
100
AcDbEntity
  8
OracDecor_cornice_mouldings
 62
   183
420
  9197793
100
AcDbVertex
100
AcDb2dVertex
 10
-40.00004196166992
 20
-4.500005722045898
 30
0.000002616225629
  0
VERTEX
  5
132
330
FA
100
AcDbEntity
  8
OracDecor_cornice_mouldings
 62
   183
420
  9197793
100
AcDbVertex
100
AcDb2dVertex
 10
-40.00004196166992
 20
-0.0000058811024246
 30
0.000002616225629
  0
VERTEX
  5
133
330
FA
100
AcDbEntity
  8
OracDecor_cornice_mouldings
 62
   183
420
  9197793
100
AcDbVertex
100
AcDb2dVertex
 10
-35.26799011230469
 20
-0.0000051853612604
 30
0.000002616225629
  0
VERTEX
  5
134
330
FA
100
AcDbEntity
  8
OracDecor_cornice_mouldings
 62
   183
420
  9197793
100
AcDbVertex
100
AcDb2dVertex
 10
-35.00917053222656
 20
-0.0340799316763878
 30
0.000002616225629
  0
VERTEX
  5
135
330
FA
100
AcDbEntity
  8
OracDecor_cornice_mouldings
 62
   183
420
  9197793
100
AcDbVertex
100
AcDb2dVertex
 10
-34.76799011230469
 20
-0.1339791864156723
 30
0.000002616225629
  0
VERTEX
  5
136
330
FA
100
AcDbEntity
  8
OracDecor_cornice_mouldings
 62
   183
420
  9197793
100
AcDbVertex
100
AcDb2dVertex
 10
-32.9019660949707
 20
-1.211329460144042
 30
0.000002616225629
  0
VERTEX
  5
137
330
FA
100
AcDbEntity
  8
OracDecor_cornice_mouldings
 62
   183
420
  9197793
100
AcDbVertex
100
AcDb2dVertex
 10
-32.40196609497071
 20
-1.345303535461425
 30
0.000002616225629
  0
VERTEX
  5
138
330
FA
100
AcDbEntity
  8
OracDecor_cornice_mouldings
 62
   183
420
  9197793
100
AcDbVertex
100
AcDb2dVertex
 10
-31.90196990966797
 20
-1.211329340934753
 30
0.000002616225629
  0
VERTEX
  5
139
330
FA
100
AcDbEntity
  8
OracDecor_cornice_mouldings
 62
   183
420
  9197793
100
AcDbVertex
100
AcDb2dVertex
 10
-30.03594207763672
 20
-0.1339784860610962
 30
0.000002616225629
  0
VERTEX
  5
13A
330
FA
100
AcDbEntity
  8
OracDecor_cornice_mouldings
 62
   183
420
  9197793
100
AcDbVertex
100
AcDb2dVertex
 10
-29.79476165771485
 20
-0.0340772569179535
 30
0.000002616225629
  0
VERTEX
  5
13B
330
FA
100
AcDbEntity
  8
OracDecor_cornice_mouldings
 62
   183
420
  9197793
100
AcDbVertex
100
AcDb2dVertex
 10
-29.53594207763672
 20
-0.0000024352441415
 30
0.000002616225629
  0
VERTEX
  5
13C
330
FA
100
AcDbEntity
  8
OracDecor_cornice_mouldings
 62
   183
420
  9197793
100
AcDbVertex
100
AcDb2dVertex
 10
-25.32255554199219
 20
-0.0000037231095575
 30
0.000002616225629
  0
VERTEX
  5
13D
330
FA
100
AcDbEntity
  8
OracDecor_cornice_mouldings
 62
   183
420
  9197793
100
AcDbVertex
100
AcDb2dVertex
 10
-24.88090133666992
 20
-0.0842321738600731
 30
0.000002616225629
  0
VERTEX
  5
13E
330
FA
100
AcDbEntity
  8
OracDecor_cornice_mouldings
 62
   183
420
  9197793
100
AcDbVertex
100
AcDb2dVertex
 10
-24.50124359130859
 20
-0.3251054584980011
 30
0.000002616225629
  0
VERTEX
  5
13F
330
FA
100
AcDbEntity
  8
OracDecor_cornice_mouldings
 62
   183
420
  9197793
100
AcDbVertex
100
AcDb2dVertex
 10
-24.23689270019532
 20
-0.6887929439544678
 30
0.000002616225629
  0
VERTEX
  5
140
330
FA
100
AcDbEntity
  8
OracDecor_cornice_mouldings
 62
   183
420
  9197793
100
AcDbVertex
100
AcDb2dVertex
 10
-23.63270568847656
 20
-1.49521791934967
 30
0.000002616225629
  0
VERTEX
  5
141
330
FA
100
AcDbEntity
  8
OracDecor_cornice_mouldings
 62
   183
420
  9197793
100
AcDbVertex
100
AcDb2dVertex
 10
-22.75923156738281
 20
-1.997613430023193
 30
0.000002616225629
  0
VERTEX
  5
142
330
FA
100
AcDbEntity
  8
OracDecor_cornice_mouldings
 62
   183
420
  9197793
100
AcDbVertex
100
AcDb2dVertex
 10
-17.18708610534668
 20
-4.434763431549072
 30
0.000002616225629
  0
VERTEX
  5
143
330
FA
100
AcDbEntity
  8
OracDecor_cornice_mouldings
 62
   183
420
  9197793
100
AcDbVertex
100
AcDb2dVertex
 10
-12.16362380981445
 20
-7.863053321838378
 30
0.000002616225629
  0
VERTEX
  5
144
330
FA
100
AcDbEntity
  8
OracDecor_cornice_mouldings
 62
   183
420
  9197793
100
AcDbVertex
100
AcDb2dVertex
 10
-7.863094329833984
 20
-12.16358280181885
 30
0.000002616225629
  0
VERTEX
  5
145
330
FA
100
AcDbEntity
  8
OracDecor_cornice_mouldings
 62
   183
420
  9197793
100
AcDbVertex
100
AcDb2dVertex
 10
-4.434805393218994
 20
-17.18704032897949
 30
0.000002616225629
  0
VERTEX
  5
146
330
FA
100
AcDbEntity
  8
OracDecor_cornice_mouldings
 62
   183
420
  9197793
100
AcDbVertex
100
AcDb2dVertex
 10
-1.997652173042297
 20
-22.75918579101563
 30
0.000002616225629
  0
VERTEX
  5
147
330
FA
100
AcDbEntity
  8
OracDecor_cornice_mouldings
 62
   183
420
  9197793
100
AcDbVertex
100
AcDb2dVertex
 10
-1.495255589485168
 20
-23.63266181945801
 30
0.000002616225629
  0
VERTEX
  5
148
330
FA
100
AcDbEntity
  8
OracDecor_cornice_mouldings
 62
   183
420
  9197793
100
AcDbVertex
100
AcDb2dVertex
 10
-0.6888303756713868
 20
-24.23684692382813
 30
0.000002616225629
  0
VERTEX
  5
149
330
FA
100
AcDbEntity
  8
OracDecor_cornice_mouldings
 62
   183
420
  9197793
100
AcDbVertex
100
AcDb2dVertex
 10
-0.3251409232616425
 20
-24.50119781494141
 30
0.000002616225629
  0
VERTEX
  5
14A
330
FA
100
AcDbEntity
  8
OracDecor_cornice_mouldings
 62
   183
420
  9197793
100
AcDbVertex
100
AcDb2dVertex
 10
-0.0842694714665413
 20
-24.88085746765137
 30
0.000002616225629
  0
SEQEND
  5
14B
330
FA
100
AcDbEntity
  8
OracDecor_cornice_mouldings
 62
   183
420
  9197793
  0
ENDSEC
  0
SECTION
  2
OBJECTS
  0
DICTIONARY
  5
C
330
0
100
AcDbDictionary
281
     1
  3
ACAD_COLOR
350
DC
  3
ACAD_DETAILVIEWSTYLE
350
F5
  3
ACAD_GROUP
350
D
  3
ACAD_LAYOUT
350
1A
  3
ACAD_MATERIAL
350
AA
  3
ACAD_MLEADERSTYLE
350
F1
  3
ACAD_MLINESTYLE
350
17
  3
ACAD_PLOTSETTINGS
350
19
  3
ACAD_PLOTSTYLENAME
350
E
  3
ACAD_SCALELIST
350
DF
  3
ACAD_SECTIONVIEWSTYLE
350
F3
  3
ACAD_TABLESTYLE
350
DD
  3
ACAD_VISUALSTYLE
350
C3
  3
ACDB_RECOMPOSE_DATA
350
158
  3
AcDbVariableDictionary
350
14C
  0
DICTIONARY
  5
DC
102
{ACAD_REACTORS
330
C
102
}
330
C
100
AcDbDictionary
281
     1
  0
DICTIONARY
  5
F5
102
{ACAD_REACTORS
330
C
102
}
330
C
100
AcDbDictionary
281
     1
  3
Imperial24
350
F6
  0
DICTIONARY
  5
D
102
{ACAD_REACTORS
330
C
102
}
330
C
100
AcDbDictionary
281
     1
  0
DICTIONARY
  5
1A
102
{ACAD_REACTORS
330
C
102
}
330
C
100
AcDbDictionary
281
     1
  3
Layout1
350
1E
  3
Layout2
350
26
  3
Model
350
22
  0
DICTIONARY
  5
AA
102
{ACAD_REACTORS
330
C
102
}
330
C
100
AcDbDictionary
281
     1
  3
ByBlock
350
B3
  3
ByLayer
350
AB
  3
Global
350
BB
  0
DICTIONARY
  5
F1
102
{ACAD_REACTORS
330
C
102
}
330
C
100
AcDbDictionary
281
     1
  3
Standard
350
F2
  0
DICTIONARY
  5
17
102
{ACAD_REACTORS
330
C
102
}
330
C
100
AcDbDictionary
281
     1
  3
Standard
350
18
  0
DICTIONARY
  5
19
102
{ACAD_REACTORS
330
C
102
}
330
C
100
AcDbDictionary
281
     1
  0
ACDBDICTIONARYWDFLT
  5
E
102
{ACAD_REACTORS
330
C
102
}
330
C
100
AcDbDictionary
281
     1
  3
ByLayer
350
2D
  3
Normal
350
F
100
AcDbDictionaryWithDefault
340
F
  0
DICTIONARY
  5
DF
102
{ACAD_REACTORS
330
C
102
}
330
C
100
AcDbDictionary
281
     1
  3
A0
350
E0
  3
A1
350
E1
  3
A2
350
E2
  3
A3
350
E3
  3
A4
350
E4
  3
A5
350
E5
  3
A6
350
E6
  3
A7
350
E7
  3
A8
350
E8
  3
A9
350
E9
  3
B0
350
EA
  3
B1
350
EB
  3
B2
350
EC
  3
B3
350
ED
  3
B4
350
EE
  3
B5
350
EF
  3
B6
350
F0
  0
DICTIONARY
  5
F3
102
{ACAD_REACTORS
330
C
102
}
330
C
100
AcDbDictionary
281
     1
  3
Imperial24
350
F4
  0
DICTIONARY
  5
DD
102
{ACAD_REACTORS
330
C
102
}
330
C
100
AcDbDictionary
281
     1
  3
Standard
350
DE
  0
DICTIONARY
  5
C3
102
{ACAD_REACTORS
330
C
102
}
330
C
100
AcDbDictionary
281
     1
  3
2dWireframe
350
C9
  3
Basic
350
C8
  3
Brighten
350
CF
  3
ColorChange
350
D3
  3
Conceptual
350
CC
  3
Dim
350
CE
  3
EdgeColorOff
350
DB
  3
Facepattern
350
D2
  3
Flat
350
C4
  3
FlatWithEdges
350
C5
  3
Gouraud
350
C6
  3
GouraudWithEdges
350
C7
  3
Hidden
350
CB
  3
JitterOff
350
D9
  3
Linepattern
350
D1
  3
OverhangOff
350
DA
  3
Realistic
350
CD
  3
Shaded
350
D8
  3
Shaded with edges
350
D7
  3
Shades of Gray
350
D4
  3
Sketchy
350
D5
  3
Thicken
350
D0
  3
Wireframe
350
CA
  3
X-Ray
350
D6
  0
XRECORD
  5
158
102
{ACAD_REACTORS
330
C
102
}
330
C
100
AcDbXrecord
280
     1
 90
        1
330
DE
  0
DICTIONARY
  5
14C
102
{ACAD_REACTORS
330
C
102
}
330
C
100
AcDbDictionary
281
     1
  3
CANNOSCALE
350
152
  3
CMLEADERSTYLE
350
14E
  3
CTABLESTYLE
350
14D
  3
CVIEWDETAILSTYLE
350
14F
  3
CVIEWSECTIONSTYLE
350
150
  3
LAYEREVAL
350
154
  3
LAYERNOTIFY
350
155
  3
LIGHTINGUNITS
350
153
  3
MSLTSCALE
350
151
  0
ACDBDETAILVIEWSTYLE
  5
F6
102
{ACAD_XDICTIONARY
360
18D
102
}
102
{ACAD_REACTORS
330
F5
102
}
330
F5
100
AcDbModelDocViewStyle
 70
     0
  3
Imperial24
290
     0
100
AcDbDetailViewStyle
 70
     0
 71
     0
 90
        3
 71
     1
340
11
 62
   256
 40
0.24
340
0
 62
   256
 40
0.24
300

 40
0.36
280
     3
 71
     2
340
16
 90
       25
 62
   256
 71
     3
340
11
 62
   256
 40
0.24
 90
        1
 40
0.75
 90
        1
300
%<\AcVar ViewType \f "%tc1">% %<\AcVar ViewDetailId>%\PSCALE %<\AcVar ViewScale \f "%sn">%
 71
     4
340
16
 90
       25
 62
   256
340
16
 90
       25
 62
   256
280
     0
  0
LAYOUT
  5
1E
102
{ACAD_REACTORS
330
1A
102
}
330
1A
100
AcDbPlotSettings
  1

  2
\\KTXNTBDC\CASF2PN1
  4

  6

 40
0.0
 41
0.0
 42
0.0
 43
0.0
 44
0.0
 45
0.0
 46
0.0
 47
0.0
 48
0.0
 49
0.0
140
0.0
141
0.0
142
1.0
143
1.0
 70
   688
 72
     0
 73
     0
 74
     5
  7

 75
    16
147
1.0
 76
     0
 77
     2
 78
   300
148
0.0
149
0.0
100
AcDbLayout
  1
Layout1
 70
     1
 71
     1
 10
0.0
 20
0.0
 11
12.0
 21
9.0
 12
0.0
 22
0.0
 32
0.0
 14
1.000000000000000E+20
 24
1.000000000000000E+20
 34
1.000000000000000E+20
 15
-1.000000000000000E+20
 25
-1.000000000000000E+20
 35
-1.000000000000000E+20
146
0.0
 13
0.0
 23
0.0
 33
0.0
 16
1.0
 26
0.0
 36
0.0
 17
0.0
 27
1.0
 37
0.0
 76
     0
330
1B
  0
LAYOUT
  5
26
102
{ACAD_REACTORS
330
1A
102
}
330
1A
100
AcDbPlotSettings
  1

  2
\\KTXNTBDC\CASF2PN1
  4

  6

 40
0.0
 41
0.0
 42
0.0
 43
0.0
 44
0.0
 45
0.0
 46
0.0
 47
0.0
 48
0.0
 49
0.0
140
0.0
141
0.0
142
1.0
143
1.0
 70
   688
 72
     0
 73
     0
 74
     5
  7

 75
    16
147
1.0
 76
     0
 77
     2
 78
   300
148
0.0
149
0.0
100
AcDbLayout
  1
Layout2
 70
     1
 71
     2
 10
0.0
 20
0.0
 11
12.0
 21
9.0
 12
0.0
 22
0.0
 32
0.0
 14
0.0
 24
0.0
 34
0.0
 15
0.0
 25
0.0
 35
0.0
146
0.0
 13
0.0
 23
0.0
 33
0.0
 16
1.0
 26
0.0
 36
0.0
 17
0.0
 27
1.0
 37
0.0
 76
     0
330
23
  0
LAYOUT
  5
22
102
{ACAD_REACTORS
330
1A
102
}
330
1A
100
AcDbPlotSettings
  1

  2
\\KTXNTBDC\CASF2PN1
  4

  6

 40
0.0
 41
0.0
 42
0.0
 43
0.0
 44
0.0
 45
0.0
 46
0.0
 47
0.0
 48
0.0
 49
0.0
140
0.0
141
0.0
142
1.0
143
1.0
 70
  1712
 72
     0
 73
     0
 74
     0
  7

 75
     0
147
1.0
 76
     0
 77
     2
 78
   300
148
0.0
149
0.0
100
AcDbLayout
  1
Model
 70
     1
 71
     0
 10
0.0
 20
0.0
 11
12.0
 21
9.0
 12
0.0
 22
0.0
 32
0.0
 14
0.0
 24
0.0
 34
0.0
 15
0.0
 25
0.0
 35
0.0
146
0.0
 13
0.0
 23
0.0
 33
0.0
 16
1.0
 26
0.0
 36
0.0
 17
0.0
 27
1.0
 37
0.0
 76
     0
330
1F
  0
MATERIAL
  5
B3
102
{ACAD_XDICTIONARY
360
B4
102
}
102
{ACAD_REACTORS
330
AA
102
}
330
AA
100
AcDbMaterial
  1
ByBlock
 72
     0
 43
0.0208333333333333
 43
0.0
 43
0.0
 43
0.0
 43
0.0
 43
0.0208333333333333
 43
0.0
 43
0.0
 43
0.0
 43
0.0
 43
1.0
 43
0.0
 43
0.0
 43
0.0
 43
0.0
 43
1.0
 77
     0
 47
0.0208333333333333
 47
0.0
 47
0.0
 47
0.0
 47
0.0
 47
0.0208333333333333
 47
0.0
 47
0.0
 47
0.0
 47
0.0
 47
1.0
 47
0.0
 47
0.0
 47
0.0
 47
0.0
 47
1.0
171
     0
 49
0.0208333333333333
 49
0.0
 49
0.0
 49
0.0
 49
0.0
 49
0.0208333333333333
 49
0.0
 49
0.0
 49
0.0
 49
0.0
 49
1.0
 49
0.0
 49
0.0
 49
0.0
 49
0.0
 49
1.0
175
     0
142
0.0208333333333333
142
0.0
142
0.0
142
0.0
142
0.0
142
0.0208333333333333
142
0.0
142
0.0
142
0.0
142
0.0
142
1.0
142
0.0
142
0.0
142
0.0
142
0.0
142
1.0
179
     0
144
0.0208333333333333
144
0.0
144
0.0
144
0.0
144
0.0
144
0.0208333333333333
144
0.0
144
0.0
144
0.0
144
0.0
144
1.0
144
0.0
144
0.0
144
0.0
144
0.0
144
1.0
147
0.0208333333333333
147
0.0
147
0.0
147
0.0
147
0.0
147
0.0208333333333333
147
0.0
147
0.0
147
0.0
147
0.0
147
1.0
147
0.0
147
0.0
147
0.0
147
0.0
147
1.0
  0
MATERIAL
  5
AB
102
{ACAD_XDICTIONARY
360
AC
102
}
102
{ACAD_REACTORS
330
AA
102
}
330
AA
100
AcDbMaterial
  1
ByLayer
 72
     0
 43
0.0208333333333333
 43
0.0
 43
0.0
 43
0.0
 43
0.0
 43
0.0208333333333333
 43
0.0
 43
0.0
 43
0.0
 43
0.0
 43
1.0
 43
0.0
 43
0.0
 43
0.0
 43
0.0
 43
1.0
 77
     0
 47
0.0208333333333333
 47
0.0
 47
0.0
 47
0.0
 47
0.0
 47
0.0208333333333333
 47
0.0
 47
0.0
 47
0.0
 47
0.0
 47
1.0
 47
0.0
 47
0.0
 47
0.0
 47
0.0
 47
1.0
171
     0
 49
0.0208333333333333
 49
0.0
 49
0.0
 49
0.0
 49
0.0
 49
0.0208333333333333
 49
0.0
 49
0.0
 49
0.0
 49
0.0
 49
1.0
 49
0.0
 49
0.0
 49
0.0
 49
0.0
 49
1.0
175
     0
142
0.0208333333333333
142
0.0
142
0.0
142
0.0
142
0.0
142
0.0208333333333333
142
0.0
142
0.0
142
0.0
142
0.0
142
1.0
142
0.0
142
0.0
142
0.0
142
0.0
142
1.0
179
     0
144
0.0208333333333333
144
0.0
144
0.0
144
0.0
144
0.0
144
0.0208333333333333
144
0.0
144
0.0
144
0.0
144
0.0
144
1.0
144
0.0
144
0.0
144
0.0
144
0.0
144
1.0
147
0.0208333333333333
147
0.0
147
0.0
147
0.0
147
0.0
147
0.0208333333333333
147
0.0
147
0.0
147
0.0
147
0.0
147
1.0
147
0.0
147
0.0
147
0.0
147
0.0
147
1.0
  0
MATERIAL
  5
BB
102
{ACAD_XDICTIONARY
360
BC
102
}
102
{ACAD_REACTORS
330
AA
102
}
330
AA
100
AcDbMaterial
  1
Global
 72
     0
 43
0.0208333333333333
 43
0.0
 43
0.0
 43
0.0
 43
0.0
 43
0.0208333333333333
 43
0.0
 43
0.0
 43
0.0
 43
0.0
 43
1.0
 43
0.0
 43
0.0
 43
0.0
 43
0.0
 43
1.0
 77
     0
 47
0.0208333333333333
 47
0.0
 47
0.0
 47
0.0
 47
0.0
 47
0.0208333333333333
 47
0.0
 47
0.0
 47
0.0
 47
0.0
 47
1.0
 47
0.0
 47
0.0
 47
0.0
 47
0.0
 47
1.0
171
     0
 49
0.0208333333333333
 49
0.0
 49
0.0
 49
0.0
 49
0.0
 49
0.0208333333333333
 49
0.0
 49
0.0
 49
0.0
 49
0.0
 49
1.0
 49
0.0
 49
0.0
 49
0.0
 49
0.0
 49
1.0
175
     0
142
0.0208333333333333
142
0.0
142
0.0
142
0.0
142
0.0
142
0.0208333333333333
142
0.0
142
0.0
142
0.0
142
0.0
142
1.0
142
0.0
142
0.0
142
0.0
142
0.0
142
1.0
179
     0
144
0.0208333333333333
144
0.0
144
0.0
144
0.0
144
0.0
144
0.0208333333333333
144
0.0
144
0.0
144
0.0
144
0.0
144
1.0
144
0.0
144
0.0
144
0.0
144
0.0
144
1.0
147
0.0208333333333333
147
0.0
147
0.0
147
0.0
147
0.0
147
0.0208333333333333
147
0.0
147
0.0
147
0.0
147
0.0
147
1.0
147
0.0
147
0.0
147
0.0
147
0.0
147
1.0
  0
MLEADERSTYLE
  5
F2
102
{ACAD_XDICTIONARY
360
189
102
}
102
{ACAD_REACTORS
330
F1
102
}
330
F1
100
AcDbMLeaderStyle
179
     2
170
     2
171
     1
172
     0
 90
        2
 40
0.0
 41
0.0
173
     1
 91
-1056964608
340
14
 92
       -2
290
     1
 42
0.09
291
     1
 43
0.36
  3
Standard
 44
0.18
300

342
11
174
     1
178
     6
175
     1
176
     0
 93
-1056964608
 45
0.18
292
     0
297
     0
 46
0.18
 94
-1056964608
 47
1.0
 49
1.0
140
1.0
293
     1
141
0.0
294
     1
177
     0
142
1.0
295
     0
296
     0
143
0.125
271
     0
272
     9
273
     9
  0
MLINESTYLE
  5
18
102
{ACAD_REACTORS
330
17
102
}
330
17
100
AcDbMlineStyle
  2
STANDARD
 70
     0
  3

 62
   256
 51
90.0
 52
90.0
 71
     2
 49
0.5
 62
   256
  6
BYLAYER
 49
-0.5
 62
   256
  6
BYLAYER
  0
ACDBPLACEHOLDER
  5
2D
102
{ACAD_REACTORS
330
E
102
}
330
E
  0
ACDBPLACEHOLDER
  5
F
102
{ACAD_REACTORS
330
E
102
}
330
E
  0
SCALE
  5
E0
102
{ACAD_REACTORS
330
DF
102
}
330
DF
100
AcDbScale
 70
     0
300
1:1
140
1.0
141
1.0
290
     1
  0
SCALE
  5
E1
102
{ACAD_REACTORS
330
DF
102
}
330
DF
100
AcDbScale
 70
     0
300
1/128" = 1'-0"
140
0.0078125
141
12.0
290
     0
  0
SCALE
  5
E2
102
{ACAD_REACTORS
330
DF
102
}
330
DF
100
AcDbScale
 70
     0
300
1/64" = 1'-0"
140
0.015625
141
12.0
290
     0
  0
SCALE
  5
E3
102
{ACAD_REACTORS
330
DF
102
}
330
DF
100
AcDbScale
 70
     0
300
1/32" = 1'-0"
140
0.03125
141
12.0
290
     0
  0
SCALE
  5
E4
102
{ACAD_REACTORS
330
DF
102
}
330
DF
100
AcDbScale
 70
     0
300
1/16" = 1'-0"
140
0.0625
141
12.0
290
     0
  0
SCALE
  5
E5
102
{ACAD_REACTORS
330
DF
102
}
330
DF
100
AcDbScale
 70
     0
300
3/32" = 1'-0"
140
0.09375
141
12.0
290
     0
  0
SCALE
  5
E6
102
{ACAD_REACTORS
330
DF
102
}
330
DF
100
AcDbScale
 70
     0
300
1/8" = 1'-0"
140
0.125
141
12.0
290
     0
  0
SCALE
  5
E7
102
{ACAD_REACTORS
330
DF
102
}
330
DF
100
AcDbScale
 70
     0
300
3/16" = 1'-0"
140
0.1875
141
12.0
290
     0
  0
SCALE
  5
E8
102
{ACAD_REACTORS
330
DF
102
}
330
DF
100
AcDbScale
 70
     0
300
1/4" = 1'-0"
140
0.25
141
12.0
290
     0
  0
SCALE
  5
E9
102
{ACAD_REACTORS
330
DF
102
}
330
DF
100
AcDbScale
 70
     0
300
3/8" = 1'-0"
140
0.375
141
12.0
290
     0
  0
SCALE
  5
EA
102
{ACAD_REACTORS
330
DF
102
}
330
DF
100
AcDbScale
 70
     0
300
1/2" = 1'-0"
140
0.5
141
12.0
290
     0
  0
SCALE
  5
EB
102
{ACAD_REACTORS
330
DF
102
}
330
DF
100
AcDbScale
 70
     0
300
3/4" = 1'-0"
140
0.75
141
12.0
290
     0
  0
SCALE
  5
EC
102
{ACAD_REACTORS
330
DF
102
}
330
DF
100
AcDbScale
 70
     0
300
1" = 1'-0"
140
1.0
141
12.0
290
     0
  0
SCALE
  5
ED
102
{ACAD_REACTORS
330
DF
102
}
330
DF
100
AcDbScale
 70
     0
300
1-1/2" = 1'-0"
140
1.5
141
12.0
290
     0
  0
SCALE
  5
EE
102
{ACAD_REACTORS
330
DF
102
}
330
DF
100
AcDbScale
 70
     0
300
3" = 1'-0"
140
3.0
141
12.0
290
     0
  0
SCALE
  5
EF
102
{ACAD_REACTORS
330
DF
102
}
330
DF
100
AcDbScale
 70
     0
300
6" = 1'-0"
140
6.0
141
12.0
290
     0
  0
SCALE
  5
F0
102
{ACAD_REACTORS
330
DF
102
}
330
DF
100
AcDbScale
 70
     0
300
1'-0" = 1'-0"
140
12.0
141
12.0
290
     0
  0
ACDBSECTIONVIEWSTYLE
  5
F4
102
{ACAD_XDICTIONARY
360
18B
102
}
102
{ACAD_REACTORS
330
F3
102
}
330
F3
100
AcDbModelDocViewStyle
 70
     0
  3
Imperial24
290
     0
100
AcDbSectionViewStyle
 70
     0
 71
     0
 90
       78
 71
     1
340
11
 62
   256
 40
0.24
340
0
340
0
 62
   256
 40
0.24
300
I, O, Q, S, X, Z
 40
0.48
 90
        3
 40
0.18
 90
        1
 71
     2
340
16
 90
       25
 62
   256
340
16
 90
       50
 62
   256
 40
0.24
 40
0.0
 40
0.24
 71
     3
340
11
 62
   256
 40
0.24
 90
        1
 40
0.75
 90
        1
300
%<\AcVar ViewType \f "%tc1">% %<\AcVar ViewSectionStartId>%-%<\AcVar ViewSectionEndId>%\PSCALE %<\AcVar ViewScale \f "%sn">%
 71
     4
 62
   256
 62
   257
300
ANSI31
 40
1.0
 90
        0
290
     0
290
     0
 90
        6
 40
0.0
 40
1.570796326794896
 40
0.2617993877991494
 40
1.308996938995747
 40
-0.2617993877991494
 40
1.832595714594046
  0
TABLESTYLE
  5
DE
102
{ACAD_XDICTIONARY
360
156
102
}
102
{ACAD_REACTORS
330
DD
102
}
330
DD
100
AcDbTableStyle
280
     0
  3
Standard
 70
     0
 71
     0
 40
0.06
 41
0.06
280
     0
281
     0
  7
Standard
140
0.18
170
     2
 62
     0
 63
     7
283
     0
 90
      512
 91
        0
  1

274
    -2
284
     1
 64
     0
275
    -2
285
     1
 65
     0
276
    -2
286
     1
 66
     0
277
    -2
287
     1
 67
     0
278
    -2
288
     1
 68
     0
279
    -2
289
     1
 69
     0
  7
Standard
140
0.25
170
     5
 62
     0
 63
     7
283
     0
 90
      512
 91
        0
  1

274
    -2
284
     1
 64
     0
275
    -2
285
     1
 65
     0
276
    -2
286
     1
 66
     0
277
    -2
287
     1
 67
     0
278
    -2
288
     1
 68
     0
279
    -2
289
     1
 69
     0
  7
Standard
140
0.18
170
     5
 62
     0
 63
     7
283
     0
 90
      512
 91
        0
  1

274
    -2
284
     1
 64
     0
275
    -2
285
     1
 65
     0
276
    -2
286
     1
 66
     0
277
    -2
287
     1
 67
     0
278
    -2
288
     1
 68
     0
279
    -2
289
     1
 69
     0
  0
VISUALSTYLE
  5
C9
102
{ACAD_XDICTIONARY
360
163
102
}
102
{ACAD_REACTORS
330
C3
102
}
330
C3
100
AcDbVisualStyle
  2
2dWireframe
 70
     4
177
     2
291
     0
 71
     0
176
     1
 72
     2
176
     1
 73
     0
176
     1
 90
        0
176
     1
 40
0.6
176
     1
 41
30.0
176
     1
 63
     7
421
 16777215
176
     1
 74
     1
176
     1
 91
        4
176
     1
 64
     7
176
     1
 65
   257
176
     1
 75
     1
176
     1
175
     1
176
     1
 42
1.0
176
     1
 92
        0
176
     1
 66
   257
176
     1
 43
1.0
176
     1
 76
     1
176
     1
 77
     6
176
     1
 78
     2
176
     1
 67
     7
176
     1
 79
     5
176
     1
170
     0
176
     1
171
     0
176
     1
290
     0
176
     1
 93
        1
176
     1
 44
0.0
176
     1
173
     0
176
     1
1001
ACAD
1000
AcDbSavedByObjectVersion
1070
     0
  0
VISUALSTYLE
  5
C8
102
{ACAD_XDICTIONARY
360
161
102
}
102
{ACAD_REACTORS
330
C3
102
}
330
C3
100
AcDbVisualStyle
  2
Basic
 70
     7
177
     2
291
     1
 71
     1
176
     1
 72
     0
176
     1
 73
     1
176
     1
 90
        0
176
     1
 40
0.6
176
     1
 41
30.0
176
     1
 63
     7
421
 16777215
176
     1
 74
     0
176
     1
 91
        4
176
     1
 64
     7
176
     1
 65
   257
176
     1
 75
     1
176
     1
175
     1
176
     1
 42
1.0
176
     1
 92
        8
176
     1
 66
     7
176
     1
 43
1.0
176
     1
 76
     1
176
     1
 77
     6
176
     1
 78
     2
176
     1
 67
     7
176
     1
 79
     5
176
     1
170
     0
176
     1
171
     0
176
     1
290
     0
176
     1
 93
        1
176
     1
 44
0.0
176
     1
173
     0
176
     1
1001
ACAD
1000
AcDbSavedByObjectVersion
1070
     0
  0
VISUALSTYLE
  5
CF
102
{ACAD_XDICTIONARY
360
16F
102
}
102
{ACAD_REACTORS
330
C3
102
}
330
C3
100
AcDbVisualStyle
  2
Brighten
 70
    12
177
     2
291
     1
 71
     2
176
     1
 72
     2
176
     1
 73
     0
176
     1
 90
        0
176
     1
 40
0.6
176
     1
 41
30.0
176
     1
 63
     7
421
 16777215
176
     1
 74
     1
176
     1
 91
        4
176
     1
 64
     7
176
     1
 65
   257
176
     1
 75
     1
176
     1
175
     1
176
     1
 42
1.0
176
     1
 92
        8
176
     1
 66
     7
176
     1
 43
1.0
176
     1
 76
     1
176
     1
 77
     6
176
     1
 78
     2
176
     1
 67
     7
176
     1
 79
     5
176
     1
170
     0
176
     1
171
     0
176
     1
290
     0
176
     1
 93
        1
176
     1
 44
50.0
176
     1
173
     0
176
     1
1001
ACAD
1000
AcDbSavedByObjectVersion
1070
     0
  0
VISUALSTYLE
  5
D3
102
{ACAD_XDICTIONARY
360
177
102
}
102
{ACAD_REACTORS
330
C3
102
}
330
C3
100
AcDbVisualStyle
  2
ColorChange
 70
    16
177
     2
291
     1
 71
     2
176
     1
 72
     2
176
     1
 73
     3
176
     1
 90
        0
176
     1
 40
0.6
176
     1
 41
30.0
176
     1
 63
     8
421
  8421504
176
     1
 74
     1
176
     1
 91
        4
176
     1
 64
     7
176
     1
 65
   257
176
     1
 75
     1
176
     1
175
     1
176
     1
 42
1.0
176
     1
 92
        8
176
     1
 66
     8
424
  8421504
176
     1
 43
1.0
176
     1
 76
     1
176
     1
 77
     6
176
     1
 78
     2
176
     1
 67
     7
176
     1
 79
     5
176
     1
170
     0
176
     1
171
     0
176
     1
290
     0
176
     1
 93
        1
176
     1
 44
0.0
176
     1
173
     0
176
     1
1001
ACAD
1000
AcDbSavedByObjectVersion
1070
     0
  0
VISUALSTYLE
  5
CC
102
{ACAD_XDICTIONARY
360
169
102
}
102
{ACAD_REACTORS
330
C3
102
}
330
C3
100
AcDbVisualStyle
  2
Conceptual
 70
     9
177
     2
291
     0
 71
     3
176
     1
 72
     2
176
     1
 73
     0
176
     1
 90
        0
176
     1
 40
0.6
176
     1
 41
30.0
176
     1
 63
     7
421
 16777215
176
     1
 74
     2
176
     1
 91
        2
176
     1
 64
     7
176
     1
 65
   257
176
     1
 75
     1
176
     1
175
     1
176
     1
 42
179.0
176
     1
 92
        8
176
     1
 66
     7
176
     1
 43
1.0
176
     1
 76
     1
176
     1
 77
     6
176
     1
 78
     2
176
     1
 67
     7
176
     1
 79
     3
176
     1
170
     0
176
     1
171
     0
176
     1
290
     0
176
     1
 93
        1
176
     1
 44
0.0
176
     1
173
     0
176
     1
1001
ACAD
1000
AcDbSavedByObjectVersion
1070
     0
  0
VISUALSTYLE
  5
CE
102
{ACAD_XDICTIONARY
360
16D
102
}
102
{ACAD_REACTORS
330
C3
102
}
330
C3
100
AcDbVisualStyle
  2
Dim
 70
    11
177
     2
291
     1
 71
     2
176
     1
 72
     2
176
     1
 73
     0
176
     1
 90
        0
176
     1
 40
0.6
176
     1
 41
30.0
176
     1
 63
     7
421
 16777215
176
     1
 74
     1
176
     1
 91
        4
176
     1
 64
     7
176
     1
 65
   257
176
     1
 75
     1
176
     1
175
     1
176
     1
 42
1.0
176
     1
 92
        8
176
     1
 66
     7
176
     1
 43
1.0
176
     1
 76
     1
176
     1
 77
     6
176
     1
 78
     2
176
     1
 67
     7
176
     1
 79
     5
176
     1
170
     0
176
     1
171
     0
176
     1
290
     0
176
     1
 93
        1
176
     1
 44
-50.0
176
     1
173
     0
176
     1
1001
ACAD
1000
AcDbSavedByObjectVersion
1070
     0
  0
VISUALSTYLE
  5
DB
102
{ACAD_XDICTIONARY
360
187
102
}
102
{ACAD_REACTORS
330
C3
102
}
330
C3
100
AcDbVisualStyle
  2
EdgeColorOff
 70
    22
177
     2
291
     1
 71
     2
176
     0
 72
     2
176
     0
 73
     0
176
     0
 90
        0
176
     0
 40
0.6
176
     0
 41
30.0
176
     0
 63
     7
421
 16777215
176
     0
 74
     1
176
     0
 91
        4
176
     0
 64
     7
176
     0
 65
   257
176
     0
 75
     1
176
     0
175
     1
176
     0
 42
1.0
176
     0
 92
        8
176
     2
 66
     7
176
     0
 43
1.0
176
     0
 76
     1
176
     0
 77
     6
176
     0
 78
     2
176
     0
 67
     7
176
     0
 79
     5
176
     0
170
     0
176
     0
171
     0
176
     0
290
     0
176
     0
 93
        1
176
     0
 44
0.0
176
     0
173
     0
176
     0
1001
ACAD
1000
AcDbSavedByObjectVersion
1070
     0
  0
VISUALSTYLE
  5
D2
102
{ACAD_XDICTIONARY
360
175
102
}
102
{ACAD_REACTORS
330
C3
102
}
330
C3
100
AcDbVisualStyle
  2
Facepattern
 70
    15
177
     2
291
     1
 71
     2
176
     1
 72
     2
176
     1
 73
     0
176
     1
 90
        0
176
     1
 40
0.6
176
     1
 41
30.0
176
     1
 63
     7
421
 16777215
176
     1
 74
     1
176
     1
 91
        4
176
     1
 64
     7
176
     1
 65
   257
176
     1
 75
     1
176
     1
175
     1
176
     1
 42
1.0
176
     1
 92
        8
176
     1
 66
     7
176
     1
 43
1.0
176
     1
 76
     1
176
     1
 77
     6
176
     1
 78
     2
176
     1
 67
     7
176
     1
 79
     5
176
     1
170
     0
176
     1
171
     0
176
     1
290
     0
176
     1
 93
        1
176
     1
 44
0.0
176
     1
173
     0
176
     1
1001
ACAD
1000
AcDbSavedByObjectVersion
1070
     0
  0
VISUALSTYLE
  5
C4
102
{ACAD_XDICTIONARY
360
159
102
}
102
{ACAD_REACTORS
330
C3
102
}
330
C3
100
AcDbVisualStyle
  2
Flat
 70
     0
177
     2
291
     1
 71
     2
176
     1
 72
     1
176
     1
 73
     1
176
     1
 90
        2
176
     1
 40
0.6
176
     1
 41
30.0
176
     1
 63
     7
421
 16777215
176
     1
 74
     0
176
     1
 91
        0
176
     1
 64
     7
176
     1
 65
   257
176
     1
 75
     1
176
     1
175
     1
176
     1
 42
1.0
176
     1
 92
        8
176
     1
 66
     7
176
     1
 43
1.0
176
     1
 76
     1
176
     1
 77
     6
176
     1
 78
     2
176
     1
 67
     7
176
     1
 79
     5
176
     1
170
     0
176
     1
171
     0
176
     1
290
     0
176
     1
 93
       13
176
     1
 44
0.0
176
     1
173
     0
176
     1
1001
ACAD
1000
AcDbSavedByObjectVersion
1070
     0
  0
VISUALSTYLE
  5
C5
102
{ACAD_XDICTIONARY
360
15B
102
}
102
{ACAD_REACTORS
330
C3
102
}
330
C3
100
AcDbVisualStyle
  2
FlatWithEdges
 70
     1
177
     2
291
     1
 71
     2
176
     1
 72
     1
176
     1
 73
     1
176
     1
 90
        2
176
     1
 40
0.6
176
     1
 41
30.0
176
     1
 63
     7
421
 16777215
176
     1
 74
     1
176
     1
 91
        0
176
     1
 64
     7
176
     1
 65
   257
176
     1
 75
     1
176
     1
175
     1
176
     1
 42
1.0
176
     1
 92
        0
176
     1
 66
   257
176
     1
 43
1.0
176
     1
 76
     1
176
     1
 77
     6
176
     1
 78
     2
176
     1
 67
     7
176
     1
 79
     5
176
     1
170
     0
176
     1
171
     0
176
     1
290
     0
176
     1
 93
       13
176
     1
 44
0.0
176
     1
173
     0
176
     1
1001
ACAD
1000
AcDbSavedByObjectVersion
1070
     0
  0
VISUALSTYLE
  5
C6
102
{ACAD_XDICTIONARY
360
15D
102
}
102
{ACAD_REACTORS
330
C3
102
}
330
C3
100
AcDbVisualStyle
  2
Gouraud
 70
     2
177
     2
291
     1
 71
     2
176
     1
 72
     2
176
     1
 73
     1
176
     1
 90
        2
176
     1
 40
0.6
176
     1
 41
30.0
176
     1
 63
     7
421
 16777215
176
     1
 74
     0
176
     1
 91
        0
176
     1
 64
     7
176
     1
 65
   257
176
     1
 75
     1
176
     1
175
     1
176
     1
 42
1.0
176
     1
 92
        0
176
     1
 66
     7
176
     1
 43
1.0
176
     1
 76
     1
176
     1
 77
     6
176
     1
 78
     2
176
     1
 67
     7
176
     1
 79
     5
176
     1
170
     0
176
     1
171
     0
176
     1
290
     0
176
     1
 93
       13
176
     1
 44
0.0
176
     1
173
     0
176
     1
1001
ACAD
1000
AcDbSavedByObjectVersion
1070
     0
  0
VISUALSTYLE
  5
C7
102
{ACAD_XDICTIONARY
360
15F
102
}
102
{ACAD_REACTORS
330
C3
102
}
330
C3
100
AcDbVisualStyle
  2
GouraudWithEdges
 70
     3
177
     2
291
     1
 71
     2
176
     1
 72
     2
176
     1
 73
     1
176
     1
 90
        2
176
     1
 40
0.6
176
     1
 41
30.0
176
     1
 63
     7
421
 16777215
176
     1
 74
     1
176
     1
 91
        0
176
     1
 64
     7
176
     1
 65
   257
176
     1
 75
     1
176
     1
175
     1
176
     1
 42
1.0
176
     1
 92
        0
176
     1
 66
   257
176
     1
 43
1.0
176
     1
 76
     1
176
     1
 77
     6
176
     1
 78
     2
176
     1
 67
     7
176
     1
 79
     5
176
     1
170
     0
176
     1
171
     0
176
     1
290
     0
176
     1
 93
       13
176
     1
 44
0.0
176
     1
173
     0
176
     1
1001
ACAD
1000
AcDbSavedByObjectVersion
1070
     0
  0
VISUALSTYLE
  5
CB
102
{ACAD_XDICTIONARY
360
167
102
}
102
{ACAD_REACTORS
330
C3
102
}
330
C3
100
AcDbVisualStyle
  2
Hidden
 70
     6
177
     2
291
     0
 71
     1
176
     1
 72
     2
176
     1
 73
     2
176
     1
 90
        0
176
     1
 40
0.6
176
     1
 41
30.0
176
     1
 63
     7
421
 16777215
176
     1
 74
     2
176
     1
 91
        2
176
     1
 64
     7
176
     1
 65
   257
176
     1
 75
     2
176
     1
175
     1
176
     1
 42
40.0
176
     1
 92
        0
176
     1
 66
   257
176
     1
 43
1.0
176
     1
 76
     1
176
     1
 77
     6
176
     1
 78
     2
176
     1
 67
     7
176
     1
 79
     3
176
     1
170
     0
176
     1
171
     0
176
     1
290
     0
176
     1
 93
        1
176
     1
 44
0.0
176
     1
173
     0
176
     1
1001
ACAD
1000
AcDbSavedByObjectVersion
1070
     0
  0
VISUALSTYLE
  5
D9
102
{ACAD_XDICTIONARY
360
183
102
}
102
{ACAD_REACTORS
330
C3
102
}
330
C3
100
AcDbVisualStyle
  2
JitterOff
 70
    20
177
     2
291
     1
 71
     2
176
     0
 72
     2
176
     0
 73
     0
176
     0
 90
        0
176
     0
 40
0.6
176
     0
 41
30.0
176
     0
 63
     7
421
 16777215
176
     0
 74
     1
176
     0
 91
        4
176
     0
 64
     7
176
     0
 65
   257
176
     0
 75
     1
176
     0
175
     1
176
     0
 42
1.0
176
     0
 92
       10
176
     2
 66
     7
176
     0
 43
1.0
176
     0
 76
     1
176
     0
 77
     6
176
     0
 78
     2
176
     0
 67
     7
176
     0
 79
     5
176
     0
170
     0
176
     0
171
     0
176
     0
290
     0
176
     0
 93
        1
176
     0
 44
0.0
176
     0
173
     0
176
     0
1001
ACAD
1000
AcDbSavedByObjectVersion
1070
     0
  0
VISUALSTYLE
  5
D1
102
{ACAD_XDICTIONARY
360
173
102
}
102
{ACAD_REACTORS
330
C3
102
}
330
C3
100
AcDbVisualStyle
  2
Linepattern
 70
    14
177
     2
291
     1
 71
     2
176
     1
 72
     2
176
     1
 73
     0
176
     1
 90
        0
176
     1
 40
0.6
176
     1
 41
30.0
176
     1
 63
     7
421
 16777215
176
     1
 74
     1
176
     1
 91
        4
176
     1
 64
     7
176
     1
 65
   257
176
     1
 75
     7
176
     1
175
     7
176
     1
 42
1.0
176
     1
 92
        8
176
     1
 66
     7
176
     1
 43
1.0
176
     1
 76
     1
176
     1
 77
     6
176
     1
 78
     2
176
     1
 67
     7
176
     1
 79
     5
176
     1
170
     0
176
     1
171
     0
176
     1
290
     0
176
     1
 93
        1
176
     1
 44
0.0
176
     1
173
     0
176
     1
1001
ACAD
1000
AcDbSavedByObjectVersion
1070
     0
  0
VISUALSTYLE
  5
DA
102
{ACAD_XDICTIONARY
360
185
102
}
102
{ACAD_REACTORS
330
C3
102
}
330
C3
100
AcDbVisualStyle
  2
OverhangOff
 70
    21
177
     2
291
     1
 71
     2
176
     0
 72
     2
176
     0
 73
     0
176
     0
 90
        0
176
     0
 40
0.6
176
     0
 41
30.0
176
     0
 63
     7
421
 16777215
176
     0
 74
     1
176
     0
 91
        4
176
     0
 64
     7
176
     0
 65
   257
176
     0
 75
     1
176
     0
175
     1
176
     0
 42
1.0
176
     0
 92
        9
176
     2
 66
     7
176
     0
 43
1.0
176
     0
 76
     1
176
     0
 77
     6
176
     0
 78
     2
176
     0
 67
     7
176
     0
 79
     5
176
     0
170
     0
176
     0
171
     0
176
     0
290
     0
176
     0
 93
        1
176
     0
 44
0.0
176
     0
173
     0
176
     0
1001
ACAD
1000
AcDbSavedByObjectVersion
1070
     0
  0
VISUALSTYLE
  5
CD
102
{ACAD_XDICTIONARY
360
16B
102
}
102
{ACAD_REACTORS
330
C3
102
}
330
C3
100
AcDbVisualStyle
  2
Realistic
 70
     8
177
     2
291
     0
 71
     2
176
     1
 72
     3
176
     1
 73
     0
176
     1
 90
        2
176
     1
 40
0.6
176
     1
 41
30.0
176
     1
 63
     7
421
 16777215
176
     1
 74
     0
176
     1
 91
        0
176
     1
 64
     7
176
     1
 65
   257
176
     1
 75
     1
176
     1
175
     1
176
     1
 42
1.0
176
     1
 92
        8
176
     1
 66
   257
176
     1
 43
1.0
176
     1
 76
     1
176
     1
 77
     6
176
     1
 78
     2
176
     1
 67
     7
176
     1
 79
     3
176
     1
170
     0
176
     1
171
     0
176
     1
290
     0
176
     1
 93
       13
176
     1
 44
0.0
176
     1
173
     0
176
     1
1001
ACAD
1000
AcDbSavedByObjectVersion
1070
     0
  0
VISUALSTYLE
  5
D8
102
{ACAD_XDICTIONARY
360
181
102
}
102
{ACAD_REACTORS
330
C3
102
}
330
C3
100
AcDbVisualStyle
  2
Shaded
 70
    27
177
     2
291
     0
 71
     2
176
     1
 72
     2
176
     1
 73
     1
176
     1
 90
        2
176
     1
 40
0.6
176
     1
 41
30.0
176
     1
 63
     7
421
 16777215
176
     1
 74
     0
176
     1
 91
        4
176
     1
 64
     7
176
     1
 65
   257
176
     1
 75
     1
176
     1
175
     1
176
     1
 42
1.0
176
     1
 92
        8
176
     1
 66
   257
176
     1
 43
1.0
176
     1
 76
     1
176
     1
 77
     6
176
     1
 78
     2
176
     1
 67
     8
425
  7895160
176
     1
 79
     3
176
     1
170
     0
176
     1
171
     0
176
     1
290
     0
176
     1
 93
        5
176
     1
 44
0.0
176
     1
173
     0
176
     1
1001
ACAD
1000
AcDbSavedByObjectVersion
1070
     0
  0
VISUALSTYLE
  5
D7
102
{ACAD_XDICTIONARY
360
17F
102
}
102
{ACAD_REACTORS
330
C3
102
}
330
C3
100
AcDbVisualStyle
  2
Shaded with edges
 70
    26
177
     2
291
     0
 71
     2
176
     1
 72
     2
176
     1
 73
     1
176
     1
 90
        2
176
     1
 40
0.6
176
     1
 41
30.0
176
     1
 63
     7
421
 16777215
176
     1
 74
     1
176
     1
 91
       10
176
     1
 64
     7
176
     1
 65
   257
176
     1
 75
     2
176
     1
175
     1
176
     1
 42
1.0
176
     1
 92
        8
176
     1
 66
   257
176
     1
 43
1.0
176
     1
 76
     1
176
     1
 77
     6
176
     1
 78
     2
176
     1
 67
     7
176
     1
 79
     3
176
     1
170
     0
176
     1
171
     0
176
     1
290
     0
176
     1
 93
        5
176
     1
 44
0.0
176
     1
173
     0
176
     1
1001
ACAD
1000
AcDbSavedByObjectVersion
1070
     0
  0
VISUALSTYLE
  5
D4
102
{ACAD_XDICTIONARY
360
179
102
}
102
{ACAD_REACTORS
330
C3
102
}
330
C3
100
AcDbVisualStyle
  2
Shades of Gray
 70
    23
177
     2
291
     0
 71
     2
176
     1
 72
     2
176
     1
 73
     3
176
     1
 90
        0
176
     1
 40
0.6
176
     1
 41
30.0
176
     1
 63
     7
421
 16777215
176
     1
 74
     2
176
     1
 91
        2
176
     1
 64
     7
176
     1
 65
     7
176
     1
 75
     1
176
     1
175
     1
176
     1
 42
40.0
176
     1
 92
        8
176
     1
 66
     7
176
     1
 43
1.0
176
     1
 76
     1
176
     1
 77
     6
176
     1
 78
     2
176
     1
 67
     7
176
     1
 79
     3
176
     1
170
     0
176
     1
171
     0
176
     1
290
     0
176
     1
 93
        1
176
     1
 44
0.0
176
     1
173
     0
176
     1
1001
ACAD
1000
AcDbSavedByObjectVersion
1070
     0
  0
VISUALSTYLE
  5
D5
102
{ACAD_XDICTIONARY
360
17B
102
}
102
{ACAD_REACTORS
330
C3
102
}
330
C3
100
AcDbVisualStyle
  2
Sketchy
 70
    24
177
     2
291
     0
 71
     1
176
     1
 72
     2
176
     1
 73
     2
176
     1
 90
        0
176
     1
 40
0.6
176
     1
 41
30.0
176
     1
 63
     7
421
 16777215
176
     1
 74
     2
176
     1
 91
        2
176
     1
 64
     7
176
     1
 65
     7
176
     1
 75
     1
176
     1
175
     1
176
     1
 42
40.0
176
     1
 92
       11
176
     1
 66
     7
176
     1
 43
1.0
176
     1
 76
     1
176
     1
 77
     6
176
     1
 78
     2
176
     1
 67
     7
176
     1
 79
     6
176
     1
170
     0
176
     1
171
     0
176
     1
290
     0
176
     1
 93
        1
176
     1
 44
0.0
176
     1
173
     0
176
     1
1001
ACAD
1000
AcDbSavedByObjectVersion
1070
     0
  0
VISUALSTYLE
  5
D0
102
{ACAD_XDICTIONARY
360
171
102
}
102
{ACAD_REACTORS
330
C3
102
}
330
C3
100
AcDbVisualStyle
  2
Thicken
 70
    13
177
     2
291
     1
 71
     2
176
     1
 72
     2
176
     1
 73
     0
176
     1
 90
        0
176
     1
 40
0.6
176
     1
 41
30.0
176
     1
 63
     7
421
 16777215
176
     1
 74
     1
176
     1
 91
        4
176
     1
 64
     7
176
     1
 65
   257
176
     1
 75
     1
176
     1
175
     1
176
     1
 42
1.0
176
     1
 92
       12
176
     1
 66
     7
176
     1
 43
1.0
176
     1
 76
     1
176
     1
 77
     6
176
     1
 78
     2
176
     1
 67
     7
176
     1
 79
     5
176
     1
170
     0
176
     1
171
     0
176
     1
290
     0
176
     1
 93
        1
176
     1
 44
0.0
176
     1
173
     0
176
     1
1001
ACAD
1000
AcDbSavedByObjectVersion
1070
     0
  0
VISUALSTYLE
  5
CA
102
{ACAD_XDICTIONARY
360
165
102
}
102
{ACAD_REACTORS
330
C3
102
}
330
C3
100
AcDbVisualStyle
  2
Wireframe
 70
     5
177
     2
291
     0
 71
     0
176
     1
 72
     2
176
     1
 73
     0
176
     1
 90
        0
176
     1
 40
0.6
176
     1
 41
30.0
176
     1
 63
     7
421
 16777215
176
     1
 74
     1
176
     1
 91
        4
176
     1
 64
     7
176
     1
 65
   257
176
     1
 75
     1
176
     1
175
     1
176
     1
 42
1.0
176
     1
 92
        0
176
     1
 66
   257
176
     1
 43
1.0
176
     1
 76
     1
176
     1
 77
     6
176
     1
 78
     2
176
     1
 67
     7
176
     1
 79
     3
176
     1
170
     0
176
     1
171
     0
176
     1
290
     0
176
     1
 93
        1
176
     1
 44
0.0
176
     1
173
     0
176
     1
1001
ACAD
1000
AcDbSavedByObjectVersion
1070
     0
  0
VISUALSTYLE
  5
D6
102
{ACAD_XDICTIONARY
360
17D
102
}
102
{ACAD_REACTORS
330
C3
102
}
330
C3
100
AcDbVisualStyle
  2
X-Ray
 70
    25
177
     2
291
     0
 71
     2
176
     1
 72
     2
176
     1
 73
     1
176
     1
 90
        1
176
     1
 40
0.5
176
     1
 41
30.0
176
     1
 63
     7
421
 16777215
176
     1
 74
     1
176
     1
 91
        0
176
     1
 64
     7
176
     1
 65
   257
176
     1
 75
     1
176
     1
175
     1
176
     1
 42
1.0
176
     1
 92
        8
176
     1
 66
     7
176
     1
 43
1.0
176
     1
 76
     1
176
     1
 77
     6
176
     1
 78
     2
176
     1
 67
     7
176
     1
 79
     3
176
     1
170
     0
176
     1
171
     0
176
     1
290
     0
176
     1
 93
       13
176
     1
 44
0.0
176
     1
173
     0
176
     1
1001
ACAD
1000
AcDbSavedByObjectVersion
1070
     0
  0
DICTIONARYVAR
  5
152
102
{ACAD_REACTORS
330
14C
102
}
330
14C
100
DictionaryVariables
280
     0
  1
1:1
  0
DICTIONARYVAR
  5
14E
102
{ACAD_REACTORS
330
14C
102
}
330
14C
100
DictionaryVariables
280
     0
  1
STANDARD
  0
DICTIONARYVAR
  5
14D
102
{ACAD_REACTORS
330
14C
102
}
330
14C
100
DictionaryVariables
280
     0
  1
STANDARD
  0
DICTIONARYVAR
  5
14F
102
{ACAD_REACTORS
330
14C
102
}
330
14C
100
DictionaryVariables
280
     0
  1
Imperial24
  0
DICTIONARYVAR
  5
150
102
{ACAD_REACTORS
330
14C
102
}
330
14C
100
DictionaryVariables
280
     0
  1
Imperial24
  0
DICTIONARYVAR
  5
154
102
{ACAD_REACTORS
330
14C
102
}
330
14C
100
DictionaryVariables
280
     0
  1
1
  0
DICTIONARYVAR
  5
155
102
{ACAD_REACTORS
330
14C
102
}
330
14C
100
DictionaryVariables
280
     0
  1
15
  0
DICTIONARYVAR
  5
153
102
{ACAD_REACTORS
330
14C
102
}
330
14C
100
DictionaryVariables
280
     0
  1
0
  0
DICTIONARYVAR
  5
151
102
{ACAD_REACTORS
330
14C
102
}
330
14C
100
DictionaryVariables
280
     0
  1
0
  0
DICTIONARY
  5
18D
330
F6
100
AcDbDictionary
280
     1
281
     1
  3
ACAD_XREC_ROUNDTRIP
360
18E
  0
DICTIONARY
  5
B4
330
B3
100
AcDbDictionary
280
     1
281
     1
  3
BUMPTILE
360
B6
  3
DIFFUSETILE
360
B5
  3
OPACITYTILE
360
B9
  3
REFLECTIONTILE
360
B8
  3
REFRACTIONTILE
360
BA
  3
SPECULARTILE
360
B7
  0
DICTIONARY
  5
AC
330
AB
100
AcDbDictionary
280
     1
281
     1
  3
BUMPTILE
360
AE
  3
DIFFUSETILE
360
AD
  3
OPACITYTILE
360
B1
  3
REFLECTIONTILE
360
B0
  3
REFRACTIONTILE
360
B2
  3
SPECULARTILE
360
AF
  0
DICTIONARY
  5
BC
330
BB
100
AcDbDictionary
280
     1
281
     1
  3
BUMPTILE
360
BE
  3
DIFFUSETILE
360
BD
  3
OPACITYTILE
360
C1
  3
REFLECTIONTILE
360
C0
  3
REFRACTIONTILE
360
C2
  3
SPECULARTILE
360
BF
  0
DICTIONARY
  5
189
330
F2
100
AcDbDictionary
280
     1
281
     1
  3
ACAD_XREC_ROUNDTRIP
360
18A
  0
DICTIONARY
  5
18B
330
F4
100
AcDbDictionary
280
     1
281
     1
  3
ACAD_XREC_ROUNDTRIP
360
18C
  0
DICTIONARY
  5
156
330
DE
100
AcDbDictionary
280
     1
281
     1
  3
ACAD_ROUNDTRIP_2008_TABLESTYLE_CELLSTYLEMAP
360
157
  0
DICTIONARY
  5
163
330
C9
100
AcDbDictionary
280
     1
281
     1
  3
ACAD_XREC_ROUNDTRIP
360
164
  0
DICTIONARY
  5
161
330
C8
100
AcDbDictionary
280
     1
281
     1
  3
ACAD_XREC_ROUNDTRIP
360
162
  0
DICTIONARY
  5
16F
330
CF
100
AcDbDictionary
280
     1
281
     1
  3
ACAD_XREC_ROUNDTRIP
360
170
  0
DICTIONARY
  5
177
330
D3
100
AcDbDictionary
280
     1
281
     1
  3
ACAD_XREC_ROUNDTRIP
360
178
  0
DICTIONARY
  5
169
330
CC
100
AcDbDictionary
280
     1
281
     1
  3
ACAD_XREC_ROUNDTRIP
360
16A
  0
DICTIONARY
  5
16D
330
CE
100
AcDbDictionary
280
     1
281
     1
  3
ACAD_XREC_ROUNDTRIP
360
16E
  0
DICTIONARY
  5
187
330
DB
100
AcDbDictionary
280
     1
281
     1
  3
ACAD_XREC_ROUNDTRIP
360
188
  0
DICTIONARY
  5
175
330
D2
100
AcDbDictionary
280
     1
281
     1
  3
ACAD_XREC_ROUNDTRIP
360
176
  0
DICTIONARY
  5
159
330
C4
100
AcDbDictionary
280
     1
281
     1
  3
ACAD_XREC_ROUNDTRIP
360
15A
  0
DICTIONARY
  5
15B
330
C5
100
AcDbDictionary
280
     1
281
     1
  3
ACAD_XREC_ROUNDTRIP
360
15C
  0
DICTIONARY
  5
15D
330
C6
100
AcDbDictionary
280
     1
281
     1
  3
ACAD_XREC_ROUNDTRIP
360
15E
  0
DICTIONARY
  5
15F
330
C7
100
AcDbDictionary
280
     1
281
     1
  3
ACAD_XREC_ROUNDTRIP
360
160
  0
DICTIONARY
  5
167
330
CB
100
AcDbDictionary
280
     1
281
     1
  3
ACAD_XREC_ROUNDTRIP
360
168
  0
DICTIONARY
  5
183
330
D9
100
AcDbDictionary
280
     1
281
     1
  3
ACAD_XREC_ROUNDTRIP
360
184
  0
DICTIONARY
  5
173
330
D1
100
AcDbDictionary
280
     1
281
     1
  3
ACAD_XREC_ROUNDTRIP
360
174
  0
DICTIONARY
  5
185
330
DA
100
AcDbDictionary
280
     1
281
     1
  3
ACAD_XREC_ROUNDTRIP
360
186
  0
DICTIONARY
  5
16B
330
CD
100
AcDbDictionary
280
     1
281
     1
  3
ACAD_XREC_ROUNDTRIP
360
16C
  0
DICTIONARY
  5
181
330
D8
100
AcDbDictionary
280
     1
281
     1
  3
ACAD_XREC_ROUNDTRIP
360
182
  0
DICTIONARY
  5
17F
330
D7
100
AcDbDictionary
280
     1
281
     1
  3
ACAD_XREC_ROUNDTRIP
360
180
  0
DICTIONARY
  5
179
330
D4
100
AcDbDictionary
280
     1
281
     1
  3
ACAD_XREC_ROUNDTRIP
360
17A
  0
DICTIONARY
  5
17B
330
D5
100
AcDbDictionary
280
     1
281
     1
  3
ACAD_XREC_ROUNDTRIP
360
17C
  0
DICTIONARY
  5
171
330
D0
100
AcDbDictionary
280
     1
281
     1
  3
ACAD_XREC_ROUNDTRIP
360
172
  0
DICTIONARY
  5
165
330
CA
100
AcDbDictionary
280
     1
281
     1
  3
ACAD_XREC_ROUNDTRIP
360
166
  0
DICTIONARY
  5
17D
330
D6
100
AcDbDictionary
280
     1
281
     1
  3
ACAD_XREC_ROUNDTRIP
360
17E
  0
XRECORD
  5
18E
102
{ACAD_REACTORS
330
18D
102
}
330
18D
100
AcDbXrecord
280
     1
102
DISPLAYNAME
  1
Imperial24
102
FLAGS
 90
        0
  0
XRECORD
  5
B6
102
{ACAD_REACTORS
330
B4
102
}
330
B4
100
AcDbXrecord
280
     1
270
     1
271
     1
  0
XRECORD
  5
B5
102
{ACAD_REACTORS
330
B4
102
}
330
B4
100
AcDbXrecord
280
     1
270
     1
271
     1
  0
XRECORD
  5
B9
102
{ACAD_REACTORS
330
B4
102
}
330
B4
100
AcDbXrecord
280
     1
270
     1
271
     1
  0
XRECORD
  5
B8
102
{ACAD_REACTORS
330
B4
102
}
330
B4
100
AcDbXrecord
280
     1
270
     1
271
     1
  0
XRECORD
  5
BA
102
{ACAD_REACTORS
330
B4
102
}
330
B4
100
AcDbXrecord
280
     1
270
     1
271
     1
  0
XRECORD
  5
B7
102
{ACAD_REACTORS
330
B4
102
}
330
B4
100
AcDbXrecord
280
     1
270
     1
271
     1
  0
XRECORD
  5
AE
102
{ACAD_REACTORS
330
AC
102
}
330
AC
100
AcDbXrecord
280
     1
270
     1
271
     1
  0
XRECORD
  5
AD
102
{ACAD_REACTORS
330
AC
102
}
330
AC
100
AcDbXrecord
280
     1
270
     1
271
     1
  0
XRECORD
  5
B1
102
{ACAD_REACTORS
330
AC
102
}
330
AC
100
AcDbXrecord
280
     1
270
     1
271
     1
  0
XRECORD
  5
B0
102
{ACAD_REACTORS
330
AC
102
}
330
AC
100
AcDbXrecord
280
     1
270
     1
271
     1
  0
XRECORD
  5
B2
102
{ACAD_REACTORS
330
AC
102
}
330
AC
100
AcDbXrecord
280
     1
270
     1
271
     1
  0
XRECORD
  5
AF
102
{ACAD_REACTORS
330
AC
102
}
330
AC
100
AcDbXrecord
280
     1
270
     1
271
     1
  0
XRECORD
  5
BE
102
{ACAD_REACTORS
330
BC
102
}
330
BC
100
AcDbXrecord
280
     1
270
     1
271
     1
  0
XRECORD
  5
BD
102
{ACAD_REACTORS
330
BC
102
}
330
BC
100
AcDbXrecord
280
     1
270
     1
271
     1
  0
XRECORD
  5
C1
102
{ACAD_REACTORS
330
BC
102
}
330
BC
100
AcDbXrecord
280
     1
270
     1
271
     1
  0
XRECORD
  5
C0
102
{ACAD_REACTORS
330
BC
102
}
330
BC
100
AcDbXrecord
280
     1
270
     1
271
     1
  0
XRECORD
  5
C2
102
{ACAD_REACTORS
330
BC
102
}
330
BC
100
AcDbXrecord
280
     1
270
     1
271
     1
  0
XRECORD
  5
BF
102
{ACAD_REACTORS
330
BC
102
}
330
BC
100
AcDbXrecord
280
     1
270
     1
271
     1
  0
XRECORD
  5
18A
102
{ACAD_REACTORS
330
189
102
}
330
189
100
AcDbXrecord
280
     1
102
ACAD_ROUNDTRIP_2012_MLEADER_STYLE
298
     1
  0
XRECORD
  5
18C
102
{ACAD_REACTORS
330
18B
102
}
330
18B
100
AcDbXrecord
280
     1
102
DISPLAYNAME
  1
Imperial24
102
FLAGS
 90
        0
  0
CELLSTYLEMAP
  5
157
102
{ACAD_REACTORS
330
156
102
}
330
156
100
AcDbCellStyleMap
 90
        3
300
CELLSTYLE
  1
TABLEFORMAT_BEGIN
 90
        5
170
     1
 91
        0
 92
    32768
 62
   257
 93
        1
300
CONTENTFORMAT
  1
CONTENTFORMAT_BEGIN
 90
        0
 91
        0
 92
      512
 93
        0
300

 40
0.0
140
1.0
 94
        5
 62
     0
340
11
144
0.25
309
CONTENTFORMAT_END
171
     0
 94
        0
309
TABLEFORMAT_END
  1
CELLSTYLE_BEGIN
 90
        1
 91
        1
300
_TITLE
309
CELLSTYLE_END
300
CELLSTYLE
  1
TABLEFORMAT_BEGIN
 90
        5
170
     1
 91
        0
 92
        0
 62
   257
 93
        1
300
CONTENTFORMAT
  1
CONTENTFORMAT_BEGIN
 90
        0
 91
        0
 92
      512
 93
        0
300

 40
0.0
140
1.0
 94
        5
 62
     0
340
11
144
0.18
309
CONTENTFORMAT_END
171
     0
 94
        0
309
TABLEFORMAT_END
  1
CELLSTYLE_BEGIN
 90
        2
 91
        1
300
_HEADER
309
CELLSTYLE_END
300
CELLSTYLE
  1
TABLEFORMAT_BEGIN
 90
        5
170
     1
 91
        0
 92
        0
 62
   257
 93
        1
300
CONTENTFORMAT
  1
CONTENTFORMAT_BEGIN
 90
        0
 91
        0
 92
      512
 93
        0
300

 40
0.0
140
1.0
 94
        2
 62
     0
340
11
144
0.18
309
CONTENTFORMAT_END
171
     0
 94
        0
309
TABLEFORMAT_END
  1
CELLSTYLE_BEGIN
 90
        3
 91
        2
300
_DATA
309
CELLSTYLE_END
  0
XRECORD
  5
164
102
{ACAD_REACTORS
330
163
102
}
330
163
100
AcDbXrecord
280
     1
102
RTVSPost2010Prop28
280
     1
102
RTVSPost2010PropOp28
 70
     1
102
RTVSPost2010Prop29
280
     1
102
RTVSPost2010PropOp29
 70
     1
102
RTVSPost2010Prop30
280
     0
102
RTVSPost2010PropOp30
 70
     1
102
RTVSPost2010Prop31
280
     0
102
RTVSPost2010PropOp31
 70
     1
102
RTVSPost2010Prop32
280
     0
102
RTVSPost2010PropOp32
 70
     1
102
RTVSPost2010Prop33
280
     0
102
RTVSPost2010PropOp33
 70
     1
102
RTVSPost2010Prop34
280
     0
102
RTVSPost2010PropOp34
 70
     1
102
RTVSPost2010Prop35
280
     0
102
RTVSPost2010PropOp35
 70
     1
102
RTVSPost2010Prop36
280
     0
102
RTVSPost2010PropOp36
 70
     1
102
RTVSPost2010Prop37
 90
       50
102
RTVSPost2010PropOp37
 70
     1
102
RTVSPost2010Prop38
140
0.0
102
RTVSPost2010PropOp38
 70
     1
102
RTVSPost2010Prop39
140
1.0
102
RTVSPost2010PropOp39
 70
     1
102
RTVSPost2010Prop40
 90
        0
102
RTVSPost2010PropOp40
 70
     1
102
RTVSPost2010Prop41ColorIndex
 90
       18
102
RTVSPost2010Prop41ColorRGB
 90
        0
102
RTVSPost2010PropOp41
 70
     1
102
RTVSPost2010Prop42
 90
       50
102
RTVSPost2010PropOp42
 70
     1
102
RTVSPost2010Prop43
 90
        3
102
RTVSPost2010PropOp43
 70
     1
102
RTVSPost2010Prop44ColorIndex
 90
        5
102
RTVSPost2010Prop44ColorRGB
 90
      255
102
RTVSPost2010PropOp44
 70
     1
102
RTVSPost2010Prop45
280
     0
102
RTVSPost2010PropOp45
 70
     1
102
RTVSPost2010Prop46
 90
       50
102
RTVSPost2010PropOp46
 70
     1
102
RTVSPost2010Prop47
 90
       50
102
RTVSPost2010PropOp47
 70
     1
102
RTVSPost2010Prop48
 90
       50
102
RTVSPost2010PropOp48
 70
     1
102
RTVSPost2010Prop49
280
     0
102
RTVSPost2010PropOp49
 70
     1
102
RTVSPost2010Prop50
 90
       50
102
RTVSPost2010PropOp50
 70
     1
102
RTVSPost2010Prop51ColorIndex
 90
      256
102
RTVSPost2010Prop51ColorRGB
 90
-16777216
102
RTVSPost2010PropOp51
 70
     0
102
RTVSPost2010Prop52
140
1.0
102
RTVSPost2010PropOp52
 70
     0
102
RTVSPost2010Prop53
 90
        2
102
RTVSPost2010PropOp53
 70
     1
102
RTVSPost2010Prop54
  1
strokes_ogs.tif
102
RTVSPost2010PropOp54
 70
     1
102
RTVSPost2010Prop55
280
     0
102
RTVSPost2010PropOp55
 70
     1
102
RTVSPost2010Prop56
140
1.0
102
RTVSPost2010PropOp56
 70
     1
102
RTVSPost2010Prop57
140
1.0
102
RTVSPost2010PropOp57
 70
     1
  0
XRECORD
  5
162
102
{ACAD_REACTORS
330
161
102
}
330
161
100
AcDbXrecord
280
     1
102
RTVSPost2010Prop28
280
     0
102
RTVSPost2010PropOp28
 70
     1
102
RTVSPost2010Prop29
280
     1
102
RTVSPost2010PropOp29
 70
     1
102
RTVSPost2010Prop30
280
     1
102
RTVSPost2010PropOp30
 70
     1
102
RTVSPost2010Prop31
280
     0
102
RTVSPost2010PropOp31
 70
     1
102
RTVSPost2010Prop32
280
     0
102
RTVSPost2010PropOp32
 70
     1
102
RTVSPost2010Prop33
280
     0
102
RTVSPost2010PropOp33
 70
     1
102
RTVSPost2010Prop34
280
     0
102
RTVSPost2010PropOp34
 70
     1
102
RTVSPost2010Prop35
280
     0
102
RTVSPost2010PropOp35
 70
     1
102
RTVSPost2010Prop36
280
     0
102
RTVSPost2010PropOp36
 70
     1
102
RTVSPost2010Prop37
 90
       50
102
RTVSPost2010PropOp37
 70
     1
102
RTVSPost2010Prop38
140
0.0
102
RTVSPost2010PropOp38
 70
     1
102
RTVSPost2010Prop39
140
1.0
102
RTVSPost2010PropOp39
 70
     1
102
RTVSPost2010Prop40
 90
        0
102
RTVSPost2010PropOp40
 70
     1
102
RTVSPost2010Prop41ColorIndex
 90
       18
102
RTVSPost2010Prop41ColorRGB
 90
        0
102
RTVSPost2010PropOp41
 70
     1
102
RTVSPost2010Prop42
 90
       50
102
RTVSPost2010PropOp42
 70
     1
102
RTVSPost2010Prop43
 90
        3
102
RTVSPost2010PropOp43
 70
     1
102
RTVSPost2010Prop44ColorIndex
 90
        5
102
RTVSPost2010Prop44ColorRGB
 90
      255
102
RTVSPost2010PropOp44
 70
     1
102
RTVSPost2010Prop45
280
     0
102
RTVSPost2010PropOp45
 70
     1
102
RTVSPost2010Prop46
 90
       50
102
RTVSPost2010PropOp46
 70
     1
102
RTVSPost2010Prop47
 90
       50
102
RTVSPost2010PropOp47
 70
     1
102
RTVSPost2010Prop48
 90
       50
102
RTVSPost2010PropOp48
 70
     1
102
RTVSPost2010Prop49
280
     0
102
RTVSPost2010PropOp49
 70
     1
102
RTVSPost2010Prop50
 90
       50
102
RTVSPost2010PropOp50
 70
     1
102
RTVSPost2010Prop51ColorIndex
 90
      256
102
RTVSPost2010Prop51ColorRGB
 90
-16777216
102
RTVSPost2010PropOp51
 70
     0
102
RTVSPost2010Prop52
140
1.0
102
RTVSPost2010PropOp52
 70
     0
102
RTVSPost2010Prop53
 90
        2
102
RTVSPost2010PropOp53
 70
     1
102
RTVSPost2010Prop54
  1
strokes_ogs.tif
102
RTVSPost2010PropOp54
 70
     1
102
RTVSPost2010Prop55
280
     0
102
RTVSPost2010PropOp55
 70
     1
102
RTVSPost2010Prop56
140
1.0
102
RTVSPost2010PropOp56
 70
     1
102
RTVSPost2010Prop57
140
1.0
102
RTVSPost2010PropOp57
 70
     1
  0
XRECORD
  5
170
102
{ACAD_REACTORS
330
16F
102
}
330
16F
100
AcDbXrecord
280
     1
102
RTVSPost2010Prop28
280
     0
102
RTVSPost2010PropOp28
 70
     1
102
RTVSPost2010Prop29
280
     1
102
RTVSPost2010PropOp29
 70
     1
102
RTVSPost2010Prop30
280
     1
102
RTVSPost2010PropOp30
 70
     1
102
RTVSPost2010Prop31
280
     0
102
RTVSPost2010PropOp31
 70
     1
102
RTVSPost2010Prop32
280
     0
102
RTVSPost2010PropOp32
 70
     1
102
RTVSPost2010Prop33
280
     0
102
RTVSPost2010PropOp33
 70
     1
102
RTVSPost2010Prop34
280
     0
102
RTVSPost2010PropOp34
 70
     1
102
RTVSPost2010Prop35
280
     0
102
RTVSPost2010PropOp35
 70
     1
102
RTVSPost2010Prop36
280
     0
102
RTVSPost2010PropOp36
 70
     1
102
RTVSPost2010Prop37
 90
       50
102
RTVSPost2010PropOp37
 70
     1
102
RTVSPost2010Prop38
140
0.0
102
RTVSPost2010PropOp38
 70
     1
102
RTVSPost2010Prop39
140
1.0
102
RTVSPost2010PropOp39
 70
     1
102
RTVSPost2010Prop40
 90
        0
102
RTVSPost2010PropOp40
 70
     1
102
RTVSPost2010Prop41ColorIndex
 90
       18
102
RTVSPost2010Prop41ColorRGB
 90
        0
102
RTVSPost2010PropOp41
 70
     1
102
RTVSPost2010Prop42
 90
       50
102
RTVSPost2010PropOp42
 70
     1
102
RTVSPost2010Prop43
 90
        3
102
RTVSPost2010PropOp43
 70
     1
102
RTVSPost2010Prop44ColorIndex
 90
        5
102
RTVSPost2010Prop44ColorRGB
 90
      255
102
RTVSPost2010PropOp44
 70
     1
102
RTVSPost2010Prop45
280
     0
102
RTVSPost2010PropOp45
 70
     1
102
RTVSPost2010Prop46
 90
       50
102
RTVSPost2010PropOp46
 70
     1
102
RTVSPost2010Prop47
 90
       50
102
RTVSPost2010PropOp47
 70
     1
102
RTVSPost2010Prop48
 90
       50
102
RTVSPost2010PropOp48
 70
     1
102
RTVSPost2010Prop49
280
     0
102
RTVSPost2010PropOp49
 70
     1
102
RTVSPost2010Prop50
 90
       50
102
RTVSPost2010PropOp50
 70
     1
102
RTVSPost2010Prop51ColorIndex
 90
      256
102
RTVSPost2010Prop51ColorRGB
 90
-16777216
102
RTVSPost2010PropOp51
 70
     0
102
RTVSPost2010Prop52
140
1.0
102
RTVSPost2010PropOp52
 70
     0
102
RTVSPost2010Prop53
 90
        2
102
RTVSPost2010PropOp53
 70
     1
102
RTVSPost2010Prop54
  1
strokes_ogs.tif
102
RTVSPost2010PropOp54
 70
     1
102
RTVSPost2010Prop55
280
     0
102
RTVSPost2010PropOp55
 70
     1
102
RTVSPost2010Prop56
140
1.0
102
RTVSPost2010PropOp56
 70
     1
102
RTVSPost2010Prop57
140
1.0
102
RTVSPost2010PropOp57
 70
     1
  0
XRECORD
  5
178
102
{ACAD_REACTORS
330
177
102
}
330
177
100
AcDbXrecord
280
     1
102
RTVSPost2010Prop28
280
     0
102
RTVSPost2010PropOp28
 70
     1
102
RTVSPost2010Prop29
280
     1
102
RTVSPost2010PropOp29
 70
     1
102
RTVSPost2010Prop30
280
     1
102
RTVSPost2010PropOp30
 70
     1
102
RTVSPost2010Prop31
280
     0
102
RTVSPost2010PropOp31
 70
     1
102
RTVSPost2010Prop32
280
     0
102
RTVSPost2010PropOp32
 70
     1
102
RTVSPost2010Prop33
280
     0
102
RTVSPost2010PropOp33
 70
     1
102
RTVSPost2010Prop34
280
     0
102
RTVSPost2010PropOp34
 70
     1
102
RTVSPost2010Prop35
280
     0
102
RTVSPost2010PropOp35
 70
     1
102
RTVSPost2010Prop36
280
     0
102
RTVSPost2010PropOp36
 70
     1
102
RTVSPost2010Prop37
 90
       50
102
RTVSPost2010PropOp37
 70
     1
102
RTVSPost2010Prop38
140
0.0
102
RTVSPost2010PropOp38
 70
     1
102
RTVSPost2010Prop39
140
1.0
102
RTVSPost2010PropOp39
 70
     1
102
RTVSPost2010Prop40
 90
        0
102
RTVSPost2010PropOp40
 70
     1
102
RTVSPost2010Prop41ColorIndex
 90
       18
102
RTVSPost2010Prop41ColorRGB
 90
        0
102
RTVSPost2010PropOp41
 70
     1
102
RTVSPost2010Prop42
 90
       50
102
RTVSPost2010PropOp42
 70
     1
102
RTVSPost2010Prop43
 90
        3
102
RTVSPost2010PropOp43
 70
     1
102
RTVSPost2010Prop44ColorIndex
 90
        5
102
RTVSPost2010Prop44ColorRGB
 90
      255
102
RTVSPost2010PropOp44
 70
     1
102
RTVSPost2010Prop45
280
     0
102
RTVSPost2010PropOp45
 70
     1
102
RTVSPost2010Prop46
 90
       50
102
RTVSPost2010PropOp46
 70
     1
102
RTVSPost2010Prop47
 90
       50
102
RTVSPost2010PropOp47
 70
     1
102
RTVSPost2010Prop48
 90
       50
102
RTVSPost2010PropOp48
 70
     1
102
RTVSPost2010Prop49
280
     0
102
RTVSPost2010PropOp49
 70
     1
102
RTVSPost2010Prop50
 90
       50
102
RTVSPost2010PropOp50
 70
     1
102
RTVSPost2010Prop51ColorIndex
 90
      256
102
RTVSPost2010Prop51ColorRGB
 90
-16777216
102
RTVSPost2010PropOp51
 70
     0
102
RTVSPost2010Prop52
140
1.0
102
RTVSPost2010PropOp52
 70
     0
102
RTVSPost2010Prop53
 90
        2
102
RTVSPost2010PropOp53
 70
     1
102
RTVSPost2010Prop54
  1
strokes_ogs.tif
102
RTVSPost2010PropOp54
 70
     1
102
RTVSPost2010Prop55
280
     0
102
RTVSPost2010PropOp55
 70
     1
102
RTVSPost2010Prop56
140
1.0
102
RTVSPost2010PropOp56
 70
     1
102
RTVSPost2010Prop57
140
1.0
102
RTVSPost2010PropOp57
 70
     1
  0
XRECORD
  5
16A
102
{ACAD_REACTORS
330
169
102
}
330
169
100
AcDbXrecord
280
     1
102
RTVSPost2010Prop28
280
     0
102
RTVSPost2010PropOp28
 70
     1
102
RTVSPost2010Prop29
280
     1
102
RTVSPost2010PropOp29
 70
     1
102
RTVSPost2010Prop30
280
     1
102
RTVSPost2010PropOp30
 70
     1
102
RTVSPost2010Prop31
280
     0
102
RTVSPost2010PropOp31
 70
     1
102
RTVSPost2010Prop32
280
     0
102
RTVSPost2010PropOp32
 70
     1
102
RTVSPost2010Prop33
280
     0
102
RTVSPost2010PropOp33
 70
     1
102
RTVSPost2010Prop34
280
     0
102
RTVSPost2010PropOp34
 70
     1
102
RTVSPost2010Prop35
280
     0
102
RTVSPost2010PropOp35
 70
     1
102
RTVSPost2010Prop36
280
     0
102
RTVSPost2010PropOp36
 70
     1
102
RTVSPost2010Prop37
 90
       50
102
RTVSPost2010PropOp37
 70
     1
102
RTVSPost2010Prop38
140
0.0
102
RTVSPost2010PropOp38
 70
     1
102
RTVSPost2010Prop39
140
1.0
102
RTVSPost2010PropOp39
 70
     1
102
RTVSPost2010Prop40
 90
        0
102
RTVSPost2010PropOp40
 70
     1
102
RTVSPost2010Prop41ColorIndex
 90
       18
102
RTVSPost2010Prop41ColorRGB
 90
        0
102
RTVSPost2010PropOp41
 70
     1
102
RTVSPost2010Prop42
 90
       50
102
RTVSPost2010PropOp42
 70
     1
102
RTVSPost2010Prop43
 90
        3
102
RTVSPost2010PropOp43
 70
     1
102
RTVSPost2010Prop44ColorIndex
 90
        5
102
RTVSPost2010Prop44ColorRGB
 90
      255
102
RTVSPost2010PropOp44
 70
     1
102
RTVSPost2010Prop45
280
     0
102
RTVSPost2010PropOp45
 70
     1
102
RTVSPost2010Prop46
 90
       50
102
RTVSPost2010PropOp46
 70
     1
102
RTVSPost2010Prop47
 90
       50
102
RTVSPost2010PropOp47
 70
     1
102
RTVSPost2010Prop48
 90
       50
102
RTVSPost2010PropOp48
 70
     1
102
RTVSPost2010Prop49
280
     0
102
RTVSPost2010PropOp49
 70
     1
102
RTVSPost2010Prop50
 90
       50
102
RTVSPost2010PropOp50
 70
     1
102
RTVSPost2010Prop51ColorIndex
 90
      256
102
RTVSPost2010Prop51ColorRGB
 90
-16777216
102
RTVSPost2010PropOp51
 70
     0
102
RTVSPost2010Prop52
140
1.0
102
RTVSPost2010PropOp52
 70
     0
102
RTVSPost2010Prop53
 90
        2
102
RTVSPost2010PropOp53
 70
     1
102
RTVSPost2010Prop54
  1
strokes_ogs.tif
102
RTVSPost2010PropOp54
 70
     1
102
RTVSPost2010Prop55
280
     0
102
RTVSPost2010PropOp55
 70
     1
102
RTVSPost2010Prop56
140
1.0
102
RTVSPost2010PropOp56
 70
     1
102
RTVSPost2010Prop57
140
1.0
102
RTVSPost2010PropOp57
 70
     1
  0
XRECORD
  5
16E
102
{ACAD_REACTORS
330
16D
102
}
330
16D
100
AcDbXrecord
280
     1
102
RTVSPost2010Prop28
280
     0
102
RTVSPost2010PropOp28
 70
     1
102
RTVSPost2010Prop29
280
     1
102
RTVSPost2010PropOp29
 70
     1
102
RTVSPost2010Prop30
280
     1
102
RTVSPost2010PropOp30
 70
     1
102
RTVSPost2010Prop31
280
     0
102
RTVSPost2010PropOp31
 70
     1
102
RTVSPost2010Prop32
280
     0
102
RTVSPost2010PropOp32
 70
     1
102
RTVSPost2010Prop33
280
     0
102
RTVSPost2010PropOp33
 70
     1
102
RTVSPost2010Prop34
280
     0
102
RTVSPost2010PropOp34
 70
     1
102
RTVSPost2010Prop35
280
     0
102
RTVSPost2010PropOp35
 70
     1
102
RTVSPost2010Prop36
280
     0
102
RTVSPost2010PropOp36
 70
     1
102
RTVSPost2010Prop37
 90
       50
102
RTVSPost2010PropOp37
 70
     1
102
RTVSPost2010Prop38
140
0.0
102
RTVSPost2010PropOp38
 70
     1
102
RTVSPost2010Prop39
140
1.0
102
RTVSPost2010PropOp39
 70
     1
102
RTVSPost2010Prop40
 90
        0
102
RTVSPost2010PropOp40
 70
     1
102
RTVSPost2010Prop41ColorIndex
 90
       18
102
RTVSPost2010Prop41ColorRGB
 90
        0
102
RTVSPost2010PropOp41
 70
     1
102
RTVSPost2010Prop42
 90
       50
102
RTVSPost2010PropOp42
 70
     1
102
RTVSPost2010Prop43
 90
        3
102
RTVSPost2010PropOp43
 70
     1
102
RTVSPost2010Prop44ColorIndex
 90
        5
102
RTVSPost2010Prop44ColorRGB
 90
      255
102
RTVSPost2010PropOp44
 70
     1
102
RTVSPost2010Prop45
280
     0
102
RTVSPost2010PropOp45
 70
     1
102
RTVSPost2010Prop46
 90
       50
102
RTVSPost2010PropOp46
 70
     1
102
RTVSPost2010Prop47
 90
       50
102
RTVSPost2010PropOp47
 70
     1
102
RTVSPost2010Prop48
 90
       50
102
RTVSPost2010PropOp48
 70
     1
102
RTVSPost2010Prop49
280
     0
102
RTVSPost2010PropOp49
 70
     1
102
RTVSPost2010Prop50
 90
       50
102
RTVSPost2010PropOp50
 70
     1
102
RTVSPost2010Prop51ColorIndex
 90
      256
102
RTVSPost2010Prop51ColorRGB
 90
-16777216
102
RTVSPost2010PropOp51
 70
     0
102
RTVSPost2010Prop52
140
1.0
102
RTVSPost2010PropOp52
 70
     0
102
RTVSPost2010Prop53
 90
        2
102
RTVSPost2010PropOp53
 70
     1
102
RTVSPost2010Prop54
  1
strokes_ogs.tif
102
RTVSPost2010PropOp54
 70
     1
102
RTVSPost2010Prop55
280
     0
102
RTVSPost2010PropOp55
 70
     1
102
RTVSPost2010Prop56
140
1.0
102
RTVSPost2010PropOp56
 70
     1
102
RTVSPost2010Prop57
140
1.0
102
RTVSPost2010PropOp57
 70
     1
  0
XRECORD
  5
188
102
{ACAD_REACTORS
330
187
102
}
330
187
100
AcDbXrecord
280
     1
102
RTVSPost2010Prop28
280
     0
102
RTVSPost2010PropOp28
 70
     0
102
RTVSPost2010Prop29
280
     1
102
RTVSPost2010PropOp29
 70
     0
102
RTVSPost2010Prop30
280
     1
102
RTVSPost2010PropOp30
 70
     0
102
RTVSPost2010Prop31
280
     0
102
RTVSPost2010PropOp31
 70
     0
102
RTVSPost2010Prop32
280
     0
102
RTVSPost2010PropOp32
 70
     0
102
RTVSPost2010Prop33
280
     0
102
RTVSPost2010PropOp33
 70
     0
102
RTVSPost2010Prop34
280
     0
102
RTVSPost2010PropOp34
 70
     0
102
RTVSPost2010Prop35
280
     0
102
RTVSPost2010PropOp35
 70
     0
102
RTVSPost2010Prop36
280
     0
102
RTVSPost2010PropOp36
 70
     0
102
RTVSPost2010Prop37
 90
       50
102
RTVSPost2010PropOp37
 70
     0
102
RTVSPost2010Prop38
140
0.0
102
RTVSPost2010PropOp38
 70
     0
102
RTVSPost2010Prop39
140
1.0
102
RTVSPost2010PropOp39
 70
     0
102
RTVSPost2010Prop40
 90
        0
102
RTVSPost2010PropOp40
 70
     0
102
RTVSPost2010Prop41ColorIndex
 90
       18
102
RTVSPost2010Prop41ColorRGB
 90
        0
102
RTVSPost2010PropOp41
 70
     0
102
RTVSPost2010Prop42
 90
       50
102
RTVSPost2010PropOp42
 70
     0
102
RTVSPost2010Prop43
 90
        3
102
RTVSPost2010PropOp43
 70
     0
102
RTVSPost2010Prop44ColorIndex
 90
        5
102
RTVSPost2010Prop44ColorRGB
 90
      255
102
RTVSPost2010PropOp44
 70
     0
102
RTVSPost2010Prop45
280
     0
102
RTVSPost2010PropOp45
 70
     0
102
RTVSPost2010Prop46
 90
       50
102
RTVSPost2010PropOp46
 70
     0
102
RTVSPost2010Prop47
 90
       50
102
RTVSPost2010PropOp47
 70
     0
102
RTVSPost2010Prop48
 90
       50
102
RTVSPost2010PropOp48
 70
     0
102
RTVSPost2010Prop49
280
     0
102
RTVSPost2010PropOp49
 70
     0
102
RTVSPost2010Prop50
 90
       50
102
RTVSPost2010PropOp50
 70
     0
102
RTVSPost2010Prop51ColorIndex
 90
      256
102
RTVSPost2010Prop51ColorRGB
 90
-16777216
102
RTVSPost2010PropOp51
 70
     0
102
RTVSPost2010Prop52
140
1.0
102
RTVSPost2010PropOp52
 70
     0
102
RTVSPost2010Prop53
 90
        2
102
RTVSPost2010PropOp53
 70
     0
102
RTVSPost2010Prop54
  1
strokes_ogs.tif
102
RTVSPost2010PropOp54
 70
     0
102
RTVSPost2010Prop55
280
     0
102
RTVSPost2010PropOp55
 70
     0
102
RTVSPost2010Prop56
140
1.0
102
RTVSPost2010PropOp56
 70
     0
102
RTVSPost2010Prop57
140
1.0
102
RTVSPost2010PropOp57
 70
     0
  0
XRECORD
  5
176
102
{ACAD_REACTORS
330
175
102
}
330
175
100
AcDbXrecord
280
     1
102
RTVSPost2010Prop28
280
     0
102
RTVSPost2010PropOp28
 70
     1
102
RTVSPost2010Prop29
280
     1
102
RTVSPost2010PropOp29
 70
     1
102
RTVSPost2010Prop30
280
     1
102
RTVSPost2010PropOp30
 70
     1
102
RTVSPost2010Prop31
280
     0
102
RTVSPost2010PropOp31
 70
     1
102
RTVSPost2010Prop32
280
     0
102
RTVSPost2010PropOp32
 70
     1
102
RTVSPost2010Prop33
280
     0
102
RTVSPost2010PropOp33
 70
     1
102
RTVSPost2010Prop34
280
     0
102
RTVSPost2010PropOp34
 70
     1
102
RTVSPost2010Prop35
280
     0
102
RTVSPost2010PropOp35
 70
     1
102
RTVSPost2010Prop36
280
     0
102
RTVSPost2010PropOp36
 70
     1
102
RTVSPost2010Prop37
 90
       50
102
RTVSPost2010PropOp37
 70
     1
102
RTVSPost2010Prop38
140
0.0
102
RTVSPost2010PropOp38
 70
     1
102
RTVSPost2010Prop39
140
1.0
102
RTVSPost2010PropOp39
 70
     1
102
RTVSPost2010Prop40
 90
        0
102
RTVSPost2010PropOp40
 70
     1
102
RTVSPost2010Prop41ColorIndex
 90
       18
102
RTVSPost2010Prop41ColorRGB
 90
        0
102
RTVSPost2010PropOp41
 70
     1
102
RTVSPost2010Prop42
 90
       50
102
RTVSPost2010PropOp42
 70
     1
102
RTVSPost2010Prop43
 90
        3
102
RTVSPost2010PropOp43
 70
     1
102
RTVSPost2010Prop44ColorIndex
 90
        5
102
RTVSPost2010Prop44ColorRGB
 90
      255
102
RTVSPost2010PropOp44
 70
     1
102
RTVSPost2010Prop45
280
     0
102
RTVSPost2010PropOp45
 70
     1
102
RTVSPost2010Prop46
 90
       50
102
RTVSPost2010PropOp46
 70
     1
102
RTVSPost2010Prop47
 90
       50
102
RTVSPost2010PropOp47
 70
     1
102
RTVSPost2010Prop48
 90
       50
102
RTVSPost2010PropOp48
 70
     1
102
RTVSPost2010Prop49
280
     0
102
RTVSPost2010PropOp49
 70
     1
102
RTVSPost2010Prop50
 90
       50
102
RTVSPost2010PropOp50
 70
     1
102
RTVSPost2010Prop51ColorIndex
 90
      256
102
RTVSPost2010Prop51ColorRGB
 90
-16777216
102
RTVSPost2010PropOp51
 70
     0
102
RTVSPost2010Prop52
140
1.0
102
RTVSPost2010PropOp52
 70
     0
102
RTVSPost2010Prop53
 90
        2
102
RTVSPost2010PropOp53
 70
     1
102
RTVSPost2010Prop54
  1
strokes_ogs.tif
102
RTVSPost2010PropOp54
 70
     1
102
RTVSPost2010Prop55
280
     0
102
RTVSPost2010PropOp55
 70
     1
102
RTVSPost2010Prop56
140
1.0
102
RTVSPost2010PropOp56
 70
     1
102
RTVSPost2010Prop57
140
1.0
102
RTVSPost2010PropOp57
 70
     1
  0
XRECORD
  5
15A
102
{ACAD_REACTORS
330
159
102
}
330
159
100
AcDbXrecord
280
     1
102
RTVSPost2010Prop28
280
     0
102
RTVSPost2010PropOp28
 70
     1
102
RTVSPost2010Prop29
280
     1
102
RTVSPost2010PropOp29
 70
     1
102
RTVSPost2010Prop30
280
     1
102
RTVSPost2010PropOp30
 70
     1
102
RTVSPost2010Prop31
280
     0
102
RTVSPost2010PropOp31
 70
     1
102
RTVSPost2010Prop32
280
     0
102
RTVSPost2010PropOp32
 70
     1
102
RTVSPost2010Prop33
280
     0
102
RTVSPost2010PropOp33
 70
     1
102
RTVSPost2010Prop34
280
     0
102
RTVSPost2010PropOp34
 70
     1
102
RTVSPost2010Prop35
280
     0
102
RTVSPost2010PropOp35
 70
     1
102
RTVSPost2010Prop36
280
     0
102
RTVSPost2010PropOp36
 70
     1
102
RTVSPost2010Prop37
 90
       50
102
RTVSPost2010PropOp37
 70
     1
102
RTVSPost2010Prop38
140
0.0
102
RTVSPost2010PropOp38
 70
     1
102
RTVSPost2010Prop39
140
1.0
102
RTVSPost2010PropOp39
 70
     1
102
RTVSPost2010Prop40
 90
        0
102
RTVSPost2010PropOp40
 70
     1
102
RTVSPost2010Prop41ColorIndex
 90
       18
102
RTVSPost2010Prop41ColorRGB
 90
        0
102
RTVSPost2010PropOp41
 70
     1
102
RTVSPost2010Prop42
 90
       50
102
RTVSPost2010PropOp42
 70
     1
102
RTVSPost2010Prop43
 90
        3
102
RTVSPost2010PropOp43
 70
     1
102
RTVSPost2010Prop44ColorIndex
 90
        5
102
RTVSPost2010Prop44ColorRGB
 90
      255
102
RTVSPost2010PropOp44
 70
     1
102
RTVSPost2010Prop45
280
     0
102
RTVSPost2010PropOp45
 70
     1
102
RTVSPost2010Prop46
 90
       50
102
RTVSPost2010PropOp46
 70
     1
102
RTVSPost2010Prop47
 90
       50
102
RTVSPost2010PropOp47
 70
     1
102
RTVSPost2010Prop48
 90
       50
102
RTVSPost2010PropOp48
 70
     1
102
RTVSPost2010Prop49
280
     0
102
RTVSPost2010PropOp49
 70
     1
102
RTVSPost2010Prop50
 90
       50
102
RTVSPost2010PropOp50
 70
     1
102
RTVSPost2010Prop51ColorIndex
 90
      256
102
RTVSPost2010Prop51ColorRGB
 90
-16777216
102
RTVSPost2010PropOp51
 70
     0
102
RTVSPost2010Prop52
140
1.0
102
RTVSPost2010PropOp52
 70
     0
102
RTVSPost2010Prop53
 90
        2
102
RTVSPost2010PropOp53
 70
     1
102
RTVSPost2010Prop54
  1
strokes_ogs.tif
102
RTVSPost2010PropOp54
 70
     1
102
RTVSPost2010Prop55
280
     0
102
RTVSPost2010PropOp55
 70
     1
102
RTVSPost2010Prop56
140
1.0
102
RTVSPost2010PropOp56
 70
     1
102
RTVSPost2010Prop57
140
1.0
102
RTVSPost2010PropOp57
 70
     1
  0
XRECORD
  5
15C
102
{ACAD_REACTORS
330
15B
102
}
330
15B
100
AcDbXrecord
280
     1
102
RTVSPost2010Prop28
280
     0
102
RTVSPost2010PropOp28
 70
     1
102
RTVSPost2010Prop29
280
     1
102
RTVSPost2010PropOp29
 70
     1
102
RTVSPost2010Prop30
280
     1
102
RTVSPost2010PropOp30
 70
     1
102
RTVSPost2010Prop31
280
     0
102
RTVSPost2010PropOp31
 70
     1
102
RTVSPost2010Prop32
280
     0
102
RTVSPost2010PropOp32
 70
     1
102
RTVSPost2010Prop33
280
     0
102
RTVSPost2010PropOp33
 70
     1
102
RTVSPost2010Prop34
280
     0
102
RTVSPost2010PropOp34
 70
     1
102
RTVSPost2010Prop35
280
     0
102
RTVSPost2010PropOp35
 70
     1
102
RTVSPost2010Prop36
280
     0
102
RTVSPost2010PropOp36
 70
     1
102
RTVSPost2010Prop37
 90
       50
102
RTVSPost2010PropOp37
 70
     1
102
RTVSPost2010Prop38
140
0.0
102
RTVSPost2010PropOp38
 70
     1
102
RTVSPost2010Prop39
140
1.0
102
RTVSPost2010PropOp39
 70
     1
102
RTVSPost2010Prop40
 90
        0
102
RTVSPost2010PropOp40
 70
     1
102
RTVSPost2010Prop41ColorIndex
 90
       18
102
RTVSPost2010Prop41ColorRGB
 90
        0
102
RTVSPost2010PropOp41
 70
     1
102
RTVSPost2010Prop42
 90
       50
102
RTVSPost2010PropOp42
 70
     1
102
RTVSPost2010Prop43
 90
        3
102
RTVSPost2010PropOp43
 70
     1
102
RTVSPost2010Prop44ColorIndex
 90
        5
102
RTVSPost2010Prop44ColorRGB
 90
      255
102
RTVSPost2010PropOp44
 70
     1
102
RTVSPost2010Prop45
280
     0
102
RTVSPost2010PropOp45
 70
     1
102
RTVSPost2010Prop46
 90
       50
102
RTVSPost2010PropOp46
 70
     1
102
RTVSPost2010Prop47
 90
       50
102
RTVSPost2010PropOp47
 70
     1
102
RTVSPost2010Prop48
 90
       50
102
RTVSPost2010PropOp48
 70
     1
102
RTVSPost2010Prop49
280
     0
102
RTVSPost2010PropOp49
 70
     1
102
RTVSPost2010Prop50
 90
       50
102
RTVSPost2010PropOp50
 70
     1
102
RTVSPost2010Prop51ColorIndex
 90
      256
102
RTVSPost2010Prop51ColorRGB
 90
-16777216
102
RTVSPost2010PropOp51
 70
     0
102
RTVSPost2010Prop52
140
1.0
102
RTVSPost2010PropOp52
 70
     0
102
RTVSPost2010Prop53
 90
        2
102
RTVSPost2010PropOp53
 70
     1
102
RTVSPost2010Prop54
  1
strokes_ogs.tif
102
RTVSPost2010PropOp54
 70
     1
102
RTVSPost2010Prop55
280
     0
102
RTVSPost2010PropOp55
 70
     1
102
RTVSPost2010Prop56
140
1.0
102
RTVSPost2010PropOp56
 70
     1
102
RTVSPost2010Prop57
140
1.0
102
RTVSPost2010PropOp57
 70
     1
  0
XRECORD
  5
15E
102
{ACAD_REACTORS
330
15D
102
}
330
15D
100
AcDbXrecord
280
     1
102
RTVSPost2010Prop28
280
     0
102
RTVSPost2010PropOp28
 70
     1
102
RTVSPost2010Prop29
280
     1
102
RTVSPost2010PropOp29
 70
     1
102
RTVSPost2010Prop30
280
     1
102
RTVSPost2010PropOp30
 70
     1
102
RTVSPost2010Prop31
280
     0
102
RTVSPost2010PropOp31
 70
     1
102
RTVSPost2010Prop32
280
     0
102
RTVSPost2010PropOp32
 70
     1
102
RTVSPost2010Prop33
280
     0
102
RTVSPost2010PropOp33
 70
     1
102
RTVSPost2010Prop34
280
     0
102
RTVSPost2010PropOp34
 70
     1
102
RTVSPost2010Prop35
280
     0
102
RTVSPost2010PropOp35
 70
     1
102
RTVSPost2010Prop36
280
     0
102
RTVSPost2010PropOp36
 70
     1
102
RTVSPost2010Prop37
 90
       50
102
RTVSPost2010PropOp37
 70
     1
102
RTVSPost2010Prop38
140
0.0
102
RTVSPost2010PropOp38
 70
     1
102
RTVSPost2010Prop39
140
1.0
102
RTVSPost2010PropOp39
 70
     1
102
RTVSPost2010Prop40
 90
        0
102
RTVSPost2010PropOp40
 70
     1
102
RTVSPost2010Prop41ColorIndex
 90
       18
102
RTVSPost2010Prop41ColorRGB
 90
        0
102
RTVSPost2010PropOp41
 70
     1
102
RTVSPost2010Prop42
 90
       50
102
RTVSPost2010PropOp42
 70
     1
102
RTVSPost2010Prop43
 90
        3
102
RTVSPost2010PropOp43
 70
     1
102
RTVSPost2010Prop44ColorIndex
 90
        5
102
RTVSPost2010Prop44ColorRGB
 90
      255
102
RTVSPost2010PropOp44
 70
     1
102
RTVSPost2010Prop45
280
     0
102
RTVSPost2010PropOp45
 70
     1
102
RTVSPost2010Prop46
 90
       50
102
RTVSPost2010PropOp46
 70
     1
102
RTVSPost2010Prop47
 90
       50
102
RTVSPost2010PropOp47
 70
     1
102
RTVSPost2010Prop48
 90
       50
102
RTVSPost2010PropOp48
 70
     1
102
RTVSPost2010Prop49
280
     0
102
RTVSPost2010PropOp49
 70
     1
102
RTVSPost2010Prop50
 90
       50
102
RTVSPost2010PropOp50
 70
     1
102
RTVSPost2010Prop51ColorIndex
 90
      256
102
RTVSPost2010Prop51ColorRGB
 90
-16777216
102
RTVSPost2010PropOp51
 70
     0
102
RTVSPost2010Prop52
140
1.0
102
RTVSPost2010PropOp52
 70
     0
102
RTVSPost2010Prop53
 90
        2
102
RTVSPost2010PropOp53
 70
     1
102
RTVSPost2010Prop54
  1
strokes_ogs.tif
102
RTVSPost2010PropOp54
 70
     1
102
RTVSPost2010Prop55
280
     0
102
RTVSPost2010PropOp55
 70
     1
102
RTVSPost2010Prop56
140
1.0
102
RTVSPost2010PropOp56
 70
     1
102
RTVSPost2010Prop57
140
1.0
102
RTVSPost2010PropOp57
 70
     1
  0
XRECORD
  5
160
102
{ACAD_REACTORS
330
15F
102
}
330
15F
100
AcDbXrecord
280
     1
102
RTVSPost2010Prop28
280
     0
102
RTVSPost2010PropOp28
 70
     1
102
RTVSPost2010Prop29
280
     1
102
RTVSPost2010PropOp29
 70
     1
102
RTVSPost2010Prop30
280
     1
102
RTVSPost2010PropOp30
 70
     1
102
RTVSPost2010Prop31
280
     0
102
RTVSPost2010PropOp31
 70
     1
102
RTVSPost2010Prop32
280
     0
102
RTVSPost2010PropOp32
 70
     1
102
RTVSPost2010Prop33
280
     0
102
RTVSPost2010PropOp33
 70
     1
102
RTVSPost2010Prop34
280
     0
102
RTVSPost2010PropOp34
 70
     1
102
RTVSPost2010Prop35
280
     0
102
RTVSPost2010PropOp35
 70
     1
102
RTVSPost2010Prop36
280
     0
102
RTVSPost2010PropOp36
 70
     1
102
RTVSPost2010Prop37
 90
       50
102
RTVSPost2010PropOp37
 70
     1
102
RTVSPost2010Prop38
140
0.0
102
RTVSPost2010PropOp38
 70
     1
102
RTVSPost2010Prop39
140
1.0
102
RTVSPost2010PropOp39
 70
     1
102
RTVSPost2010Prop40
 90
        0
102
RTVSPost2010PropOp40
 70
     1
102
RTVSPost2010Prop41ColorIndex
 90
       18
102
RTVSPost2010Prop41ColorRGB
 90
        0
102
RTVSPost2010PropOp41
 70
     1
102
RTVSPost2010Prop42
 90
       50
102
RTVSPost2010PropOp42
 70
     1
102
RTVSPost2010Prop43
 90
        3
102
RTVSPost2010PropOp43
 70
     1
102
RTVSPost2010Prop44ColorIndex
 90
        5
102
RTVSPost2010Prop44ColorRGB
 90
      255
102
RTVSPost2010PropOp44
 70
     1
102
RTVSPost2010Prop45
280
     0
102
RTVSPost2010PropOp45
 70
     1
102
RTVSPost2010Prop46
 90
       50
102
RTVSPost2010PropOp46
 70
     1
102
RTVSPost2010Prop47
 90
       50
102
RTVSPost2010PropOp47
 70
     1
102
RTVSPost2010Prop48
 90
       50
102
RTVSPost2010PropOp48
 70
     1
102
RTVSPost2010Prop49
280
     0
102
RTVSPost2010PropOp49
 70
     1
102
RTVSPost2010Prop50
 90
       50
102
RTVSPost2010PropOp50
 70
     1
102
RTVSPost2010Prop51ColorIndex
 90
      256
102
RTVSPost2010Prop51ColorRGB
 90
-16777216
102
RTVSPost2010PropOp51
 70
     0
102
RTVSPost2010Prop52
140
1.0
102
RTVSPost2010PropOp52
 70
     0
102
RTVSPost2010Prop53
 90
        2
102
RTVSPost2010PropOp53
 70
     1
102
RTVSPost2010Prop54
  1
strokes_ogs.tif
102
RTVSPost2010PropOp54
 70
     1
102
RTVSPost2010Prop55
280
     0
102
RTVSPost2010PropOp55
 70
     1
102
RTVSPost2010Prop56
140
1.0
102
RTVSPost2010PropOp56
 70
     1
102
RTVSPost2010Prop57
140
1.0
102
RTVSPost2010PropOp57
 70
     1
  0
XRECORD
  5
168
102
{ACAD_REACTORS
330
167
102
}
330
167
100
AcDbXrecord
280
     1
102
RTVSPost2010Prop28
280
     0
102
RTVSPost2010PropOp28
 70
     1
102
RTVSPost2010Prop29
280
     1
102
RTVSPost2010PropOp29
 70
     1
102
RTVSPost2010Prop30
280
     1
102
RTVSPost2010PropOp30
 70
     1
102
RTVSPost2010Prop31
280
     0
102
RTVSPost2010PropOp31
 70
     1
102
RTVSPost2010Prop32
280
     0
102
RTVSPost2010PropOp32
 70
     1
102
RTVSPost2010Prop33
280
     0
102
RTVSPost2010PropOp33
 70
     1
102
RTVSPost2010Prop34
280
     0
102
RTVSPost2010PropOp34
 70
     1
102
RTVSPost2010Prop35
280
     0
102
RTVSPost2010PropOp35
 70
     1
102
RTVSPost2010Prop36
280
     0
102
RTVSPost2010PropOp36
 70
     1
102
RTVSPost2010Prop37
 90
       50
102
RTVSPost2010PropOp37
 70
     1
102
RTVSPost2010Prop38
140
0.0
102
RTVSPost2010PropOp38
 70
     1
102
RTVSPost2010Prop39
140
1.0
102
RTVSPost2010PropOp39
 70
     1
102
RTVSPost2010Prop40
 90
        0
102
RTVSPost2010PropOp40
 70
     1
102
RTVSPost2010Prop41ColorIndex
 90
       18
102
RTVSPost2010Prop41ColorRGB
 90
        0
102
RTVSPost2010PropOp41
 70
     1
102
RTVSPost2010Prop42
 90
       50
102
RTVSPost2010PropOp42
 70
     1
102
RTVSPost2010Prop43
 90
        3
102
RTVSPost2010PropOp43
 70
     1
102
RTVSPost2010Prop44ColorIndex
 90
        5
102
RTVSPost2010Prop44ColorRGB
 90
      255
102
RTVSPost2010PropOp44
 70
     1
102
RTVSPost2010Prop45
280
     0
102
RTVSPost2010PropOp45
 70
     1
102
RTVSPost2010Prop46
 90
       50
102
RTVSPost2010PropOp46
 70
     1
102
RTVSPost2010Prop47
 90
       50
102
RTVSPost2010PropOp47
 70
     1
102
RTVSPost2010Prop48
 90
       50
102
RTVSPost2010PropOp48
 70
     1
102
RTVSPost2010Prop49
280
     0
102
RTVSPost2010PropOp49
 70
     1
102
RTVSPost2010Prop50
 90
       50
102
RTVSPost2010PropOp50
 70
     1
102
RTVSPost2010Prop51ColorIndex
 90
      256
102
RTVSPost2010Prop51ColorRGB
 90
-16777216
102
RTVSPost2010PropOp51
 70
     0
102
RTVSPost2010Prop52
140
1.0
102
RTVSPost2010PropOp52
 70
     0
102
RTVSPost2010Prop53
 90
        2
102
RTVSPost2010PropOp53
 70
     1
102
RTVSPost2010Prop54
  1
strokes_ogs.tif
102
RTVSPost2010PropOp54
 70
     1
102
RTVSPost2010Prop55
280
     0
102
RTVSPost2010PropOp55
 70
     1
102
RTVSPost2010Prop56
140
1.0
102
RTVSPost2010PropOp56
 70
     1
102
RTVSPost2010Prop57
140
1.0
102
RTVSPost2010PropOp57
 70
     1
  0
XRECORD
  5
184
102
{ACAD_REACTORS
330
183
102
}
330
183
100
AcDbXrecord
280
     1
102
RTVSPost2010Prop28
280
     0
102
RTVSPost2010PropOp28
 70
     0
102
RTVSPost2010Prop29
280
     1
102
RTVSPost2010PropOp29
 70
     0
102
RTVSPost2010Prop30
280
     1
102
RTVSPost2010PropOp30
 70
     0
102
RTVSPost2010Prop31
280
     0
102
RTVSPost2010PropOp31
 70
     0
102
RTVSPost2010Prop32
280
     0
102
RTVSPost2010PropOp32
 70
     0
102
RTVSPost2010Prop33
280
     0
102
RTVSPost2010PropOp33
 70
     0
102
RTVSPost2010Prop34
280
     0
102
RTVSPost2010PropOp34
 70
     0
102
RTVSPost2010Prop35
280
     0
102
RTVSPost2010PropOp35
 70
     0
102
RTVSPost2010Prop36
280
     0
102
RTVSPost2010PropOp36
 70
     0
102
RTVSPost2010Prop37
 90
       50
102
RTVSPost2010PropOp37
 70
     0
102
RTVSPost2010Prop38
140
0.0
102
RTVSPost2010PropOp38
 70
     0
102
RTVSPost2010Prop39
140
1.0
102
RTVSPost2010PropOp39
 70
     0
102
RTVSPost2010Prop40
 90
        0
102
RTVSPost2010PropOp40
 70
     0
102
RTVSPost2010Prop41ColorIndex
 90
       18
102
RTVSPost2010Prop41ColorRGB
 90
        0
102
RTVSPost2010PropOp41
 70
     0
102
RTVSPost2010Prop42
 90
       50
102
RTVSPost2010PropOp42
 70
     0
102
RTVSPost2010Prop43
 90
        3
102
RTVSPost2010PropOp43
 70
     0
102
RTVSPost2010Prop44ColorIndex
 90
        5
102
RTVSPost2010Prop44ColorRGB
 90
      255
102
RTVSPost2010PropOp44
 70
     0
102
RTVSPost2010Prop45
280
     0
102
RTVSPost2010PropOp45
 70
     0
102
RTVSPost2010Prop46
 90
       50
102
RTVSPost2010PropOp46
 70
     0
102
RTVSPost2010Prop47
 90
       50
102
RTVSPost2010PropOp47
 70
     0
102
RTVSPost2010Prop48
 90
       50
102
RTVSPost2010PropOp48
 70
     0
102
RTVSPost2010Prop49
280
     0
102
RTVSPost2010PropOp49
 70
     0
102
RTVSPost2010Prop50
 90
       50
102
RTVSPost2010PropOp50
 70
     0
102
RTVSPost2010Prop51ColorIndex
 90
      256
102
RTVSPost2010Prop51ColorRGB
 90
-16777216
102
RTVSPost2010PropOp51
 70
     0
102
RTVSPost2010Prop52
140
1.0
102
RTVSPost2010PropOp52
 70
     0
102
RTVSPost2010Prop53
 90
        2
102
RTVSPost2010PropOp53
 70
     0
102
RTVSPost2010Prop54
  1
strokes_ogs.tif
102
RTVSPost2010PropOp54
 70
     0
102
RTVSPost2010Prop55
280
     0
102
RTVSPost2010PropOp55
 70
     0
102
RTVSPost2010Prop56
140
1.0
102
RTVSPost2010PropOp56
 70
     0
102
RTVSPost2010Prop57
140
1.0
102
RTVSPost2010PropOp57
 70
     0
  0
XRECORD
  5
174
102
{ACAD_REACTORS
330
173
102
}
330
173
100
AcDbXrecord
280
     1
102
RTVSPost2010Prop28
280
     0
102
RTVSPost2010PropOp28
 70
     1
102
RTVSPost2010Prop29
280
     1
102
RTVSPost2010PropOp29
 70
     1
102
RTVSPost2010Prop30
280
     1
102
RTVSPost2010PropOp30
 70
     1
102
RTVSPost2010Prop31
280
     0
102
RTVSPost2010PropOp31
 70
     1
102
RTVSPost2010Prop32
280
     0
102
RTVSPost2010PropOp32
 70
     1
102
RTVSPost2010Prop33
280
     0
102
RTVSPost2010PropOp33
 70
     1
102
RTVSPost2010Prop34
280
     0
102
RTVSPost2010PropOp34
 70
     1
102
RTVSPost2010Prop35
280
     0
102
RTVSPost2010PropOp35
 70
     1
102
RTVSPost2010Prop36
280
     0
102
RTVSPost2010PropOp36
 70
     1
102
RTVSPost2010Prop37
 90
       50
102
RTVSPost2010PropOp37
 70
     1
102
RTVSPost2010Prop38
140
0.0
102
RTVSPost2010PropOp38
 70
     1
102
RTVSPost2010Prop39
140
1.0
102
RTVSPost2010PropOp39
 70
     1
102
RTVSPost2010Prop40
 90
        0
102
RTVSPost2010PropOp40
 70
     1
102
RTVSPost2010Prop41ColorIndex
 90
       18
102
RTVSPost2010Prop41ColorRGB
 90
        0
102
RTVSPost2010PropOp41
 70
     1
102
RTVSPost2010Prop42
 90
       50
102
RTVSPost2010PropOp42
 70
     1
102
RTVSPost2010Prop43
 90
        3
102
RTVSPost2010PropOp43
 70
     1
102
RTVSPost2010Prop44ColorIndex
 90
        5
102
RTVSPost2010Prop44ColorRGB
 90
      255
102
RTVSPost2010PropOp44
 70
     1
102
RTVSPost2010Prop45
280
     0
102
RTVSPost2010PropOp45
 70
     1
102
RTVSPost2010Prop46
 90
       50
102
RTVSPost2010PropOp46
 70
     1
102
RTVSPost2010Prop47
 90
       50
102
RTVSPost2010PropOp47
 70
     1
102
RTVSPost2010Prop48
 90
       50
102
RTVSPost2010PropOp48
 70
     1
102
RTVSPost2010Prop49
280
     0
102
RTVSPost2010PropOp49
 70
     1
102
RTVSPost2010Prop50
 90
       50
102
RTVSPost2010PropOp50
 70
     1
102
RTVSPost2010Prop51ColorIndex
 90
      256
102
RTVSPost2010Prop51ColorRGB
 90
-16777216
102
RTVSPost2010PropOp51
 70
     0
102
RTVSPost2010Prop52
140
1.0
102
RTVSPost2010PropOp52
 70
     0
102
RTVSPost2010Prop53
 90
        2
102
RTVSPost2010PropOp53
 70
     1
102
RTVSPost2010Prop54
  1
strokes_ogs.tif
102
RTVSPost2010PropOp54
 70
     1
102
RTVSPost2010Prop55
280
     0
102
RTVSPost2010PropOp55
 70
     1
102
RTVSPost2010Prop56
140
1.0
102
RTVSPost2010PropOp56
 70
     1
102
RTVSPost2010Prop57
140
1.0
102
RTVSPost2010PropOp57
 70
     1
  0
XRECORD
  5
186
102
{ACAD_REACTORS
330
185
102
}
330
185
100
AcDbXrecord
280
     1
102
RTVSPost2010Prop28
280
     0
102
RTVSPost2010PropOp28
 70
     0
102
RTVSPost2010Prop29
280
     1
102
RTVSPost2010PropOp29
 70
     0
102
RTVSPost2010Prop30
280
     1
102
RTVSPost2010PropOp30
 70
     0
102
RTVSPost2010Prop31
280
     0
102
RTVSPost2010PropOp31
 70
     0
102
RTVSPost2010Prop32
280
     0
102
RTVSPost2010PropOp32
 70
     0
102
RTVSPost2010Prop33
280
     0
102
RTVSPost2010PropOp33
 70
     0
102
RTVSPost2010Prop34
280
     0
102
RTVSPost2010PropOp34
 70
     0
102
RTVSPost2010Prop35
280
     0
102
RTVSPost2010PropOp35
 70
     0
102
RTVSPost2010Prop36
280
     0
102
RTVSPost2010PropOp36
 70
     0
102
RTVSPost2010Prop37
 90
       50
102
RTVSPost2010PropOp37
 70
     0
102
RTVSPost2010Prop38
140
0.0
102
RTVSPost2010PropOp38
 70
     0
102
RTVSPost2010Prop39
140
1.0
102
RTVSPost2010PropOp39
 70
     0
102
RTVSPost2010Prop40
 90
        0
102
RTVSPost2010PropOp40
 70
     0
102
RTVSPost2010Prop41ColorIndex
 90
       18
102
RTVSPost2010Prop41ColorRGB
 90
        0
102
RTVSPost2010PropOp41
 70
     0
102
RTVSPost2010Prop42
 90
       50
102
RTVSPost2010PropOp42
 70
     0
102
RTVSPost2010Prop43
 90
        3
102
RTVSPost2010PropOp43
 70
     0
102
RTVSPost2010Prop44ColorIndex
 90
        5
102
RTVSPost2010Prop44ColorRGB
 90
      255
102
RTVSPost2010PropOp44
 70
     0
102
RTVSPost2010Prop45
280
     0
102
RTVSPost2010PropOp45
 70
     0
102
RTVSPost2010Prop46
 90
       50
102
RTVSPost2010PropOp46
 70
     0
102
RTVSPost2010Prop47
 90
       50
102
RTVSPost2010PropOp47
 70
     0
102
RTVSPost2010Prop48
 90
       50
102
RTVSPost2010PropOp48
 70
     0
102
RTVSPost2010Prop49
280
     0
102
RTVSPost2010PropOp49
 70
     0
102
RTVSPost2010Prop50
 90
       50
102
RTVSPost2010PropOp50
 70
     0
102
RTVSPost2010Prop51ColorIndex
 90
      256
102
RTVSPost2010Prop51ColorRGB
 90
-16777216
102
RTVSPost2010PropOp51
 70
     0
102
RTVSPost2010Prop52
140
1.0
102
RTVSPost2010PropOp52
 70
     0
102
RTVSPost2010Prop53
 90
        2
102
RTVSPost2010PropOp53
 70
     0
102
RTVSPost2010Prop54
  1
strokes_ogs.tif
102
RTVSPost2010PropOp54
 70
     0
102
RTVSPost2010Prop55
280
     0
102
RTVSPost2010PropOp55
 70
     0
102
RTVSPost2010Prop56
140
1.0
102
RTVSPost2010PropOp56
 70
     0
102
RTVSPost2010Prop57
140
1.0
102
RTVSPost2010PropOp57
 70
     0
  0
XRECORD
  5
16C
102
{ACAD_REACTORS
330
16B
102
}
330
16B
100
AcDbXrecord
280
     1
102
RTVSPost2010Prop28
280
     0
102
RTVSPost2010PropOp28
 70
     1
102
RTVSPost2010Prop29
280
     1
102
RTVSPost2010PropOp29
 70
     1
102
RTVSPost2010Prop30
280
     1
102
RTVSPost2010PropOp30
 70
     1
102
RTVSPost2010Prop31
280
     0
102
RTVSPost2010PropOp31
 70
     1
102
RTVSPost2010Prop32
280
     0
102
RTVSPost2010PropOp32
 70
     1
102
RTVSPost2010Prop33
280
     0
102
RTVSPost2010PropOp33
 70
     1
102
RTVSPost2010Prop34
280
     0
102
RTVSPost2010PropOp34
 70
     1
102
RTVSPost2010Prop35
280
     0
102
RTVSPost2010PropOp35
 70
     1
102
RTVSPost2010Prop36
280
     0
102
RTVSPost2010PropOp36
 70
     1
102
RTVSPost2010Prop37
 90
       50
102
RTVSPost2010PropOp37
 70
     1
102
RTVSPost2010Prop38
140
0.0
102
RTVSPost2010PropOp38
 70
     1
102
RTVSPost2010Prop39
140
1.0
102
RTVSPost2010PropOp39
 70
     1
102
RTVSPost2010Prop40
 90
        0
102
RTVSPost2010PropOp40
 70
     1
102
RTVSPost2010Prop41ColorIndex
 90
       18
102
RTVSPost2010Prop41ColorRGB
 90
        0
102
RTVSPost2010PropOp41
 70
     1
102
RTVSPost2010Prop42
 90
       50
102
RTVSPost2010PropOp42
 70
     1
102
RTVSPost2010Prop43
 90
        3
102
RTVSPost2010PropOp43
 70
     1
102
RTVSPost2010Prop44ColorIndex
 90
        5
102
RTVSPost2010Prop44ColorRGB
 90
      255
102
RTVSPost2010PropOp44
 70
     1
102
RTVSPost2010Prop45
280
     0
102
RTVSPost2010PropOp45
 70
     1
102
RTVSPost2010Prop46
 90
       50
102
RTVSPost2010PropOp46
 70
     1
102
RTVSPost2010Prop47
 90
       50
102
RTVSPost2010PropOp47
 70
     1
102
RTVSPost2010Prop48
 90
       50
102
RTVSPost2010PropOp48
 70
     1
102
RTVSPost2010Prop49
280
     0
102
RTVSPost2010PropOp49
 70
     1
102
RTVSPost2010Prop50
 90
       50
102
RTVSPost2010PropOp50
 70
     1
102
RTVSPost2010Prop51ColorIndex
 90
      256
102
RTVSPost2010Prop51ColorRGB
 90
-16777216
102
RTVSPost2010PropOp51
 70
     0
102
RTVSPost2010Prop52
140
1.0
102
RTVSPost2010PropOp52
 70
     0
102
RTVSPost2010Prop53
 90
        2
102
RTVSPost2010PropOp53
 70
     1
102
RTVSPost2010Prop54
  1
strokes_ogs.tif
102
RTVSPost2010PropOp54
 70
     1
102
RTVSPost2010Prop55
280
     0
102
RTVSPost2010PropOp55
 70
     1
102
RTVSPost2010Prop56
140
1.0
102
RTVSPost2010PropOp56
 70
     1
102
RTVSPost2010Prop57
140
1.0
102
RTVSPost2010PropOp57
 70
     1
  0
XRECORD
  5
182
102
{ACAD_REACTORS
330
181
102
}
330
181
100
AcDbXrecord
280
     1
102
RTVSPost2010Prop28
280
     0
102
RTVSPost2010PropOp28
 70
     1
102
RTVSPost2010Prop29
280
     1
102
RTVSPost2010PropOp29
 70
     1
102
RTVSPost2010Prop30
280
     1
102
RTVSPost2010PropOp30
 70
     1
102
RTVSPost2010Prop31
280
     0
102
RTVSPost2010PropOp31
 70
     1
102
RTVSPost2010Prop32
280
     0
102
RTVSPost2010PropOp32
 70
     1
102
RTVSPost2010Prop33
280
     0
102
RTVSPost2010PropOp33
 70
     1
102
RTVSPost2010Prop34
280
     0
102
RTVSPost2010PropOp34
 70
     1
102
RTVSPost2010Prop35
280
     0
102
RTVSPost2010PropOp35
 70
     1
102
RTVSPost2010Prop36
280
     0
102
RTVSPost2010PropOp36
 70
     1
102
RTVSPost2010Prop37
 90
       50
102
RTVSPost2010PropOp37
 70
     1
102
RTVSPost2010Prop38
140
0.0
102
RTVSPost2010PropOp38
 70
     1
102
RTVSPost2010Prop39
140
1.0
102
RTVSPost2010PropOp39
 70
     1
102
RTVSPost2010Prop40
 90
        0
102
RTVSPost2010PropOp40
 70
     1
102
RTVSPost2010Prop41ColorIndex
 90
       18
102
RTVSPost2010Prop41ColorRGB
 90
        0
102
RTVSPost2010PropOp41
 70
     1
102
RTVSPost2010Prop42
 90
       50
102
RTVSPost2010PropOp42
 70
     1
102
RTVSPost2010Prop43
 90
        3
102
RTVSPost2010PropOp43
 70
     1
102
RTVSPost2010Prop44ColorIndex
 90
        5
102
RTVSPost2010Prop44ColorRGB
 90
      255
102
RTVSPost2010PropOp44
 70
     1
102
RTVSPost2010Prop45
280
     0
102
RTVSPost2010PropOp45
 70
     1
102
RTVSPost2010Prop46
 90
       50
102
RTVSPost2010PropOp46
 70
     1
102
RTVSPost2010Prop47
 90
       50
102
RTVSPost2010PropOp47
 70
     1
102
RTVSPost2010Prop48
 90
       50
102
RTVSPost2010PropOp48
 70
     1
102
RTVSPost2010Prop49
280
     0
102
RTVSPost2010PropOp49
 70
     1
102
RTVSPost2010Prop50
 90
       50
102
RTVSPost2010PropOp50
 70
     1
102
RTVSPost2010Prop51ColorIndex
 90
      256
102
RTVSPost2010Prop51ColorRGB
 90
-16777216
102
RTVSPost2010PropOp51
 70
     0
102
RTVSPost2010Prop52
140
1.0
102
RTVSPost2010PropOp52
 70
     0
102
RTVSPost2010Prop53
 90
        2
102
RTVSPost2010PropOp53
 70
     1
102
RTVSPost2010Prop54
  1
strokes_ogs.tif
102
RTVSPost2010PropOp54
 70
     1
102
RTVSPost2010Prop55
280
     0
102
RTVSPost2010PropOp55
 70
     1
102
RTVSPost2010Prop56
140
1.0
102
RTVSPost2010PropOp56
 70
     1
102
RTVSPost2010Prop57
140
1.0
102
RTVSPost2010PropOp57
 70
     1
  0
XRECORD
  5
180
102
{ACAD_REACTORS
330
17F
102
}
330
17F
100
AcDbXrecord
280
     1
102
RTVSPost2010Prop28
280
     0
102
RTVSPost2010PropOp28
 70
     1
102
RTVSPost2010Prop29
280
     1
102
RTVSPost2010PropOp29
 70
     1
102
RTVSPost2010Prop30
280
     1
102
RTVSPost2010PropOp30
 70
     1
102
RTVSPost2010Prop31
280
     0
102
RTVSPost2010PropOp31
 70
     1
102
RTVSPost2010Prop32
280
     0
102
RTVSPost2010PropOp32
 70
     1
102
RTVSPost2010Prop33
280
     0
102
RTVSPost2010PropOp33
 70
     1
102
RTVSPost2010Prop34
280
     0
102
RTVSPost2010PropOp34
 70
     1
102
RTVSPost2010Prop35
280
     0
102
RTVSPost2010PropOp35
 70
     1
102
RTVSPost2010Prop36
280
     0
102
RTVSPost2010PropOp36
 70
     1
102
RTVSPost2010Prop37
 90
       50
102
RTVSPost2010PropOp37
 70
     1
102
RTVSPost2010Prop38
140
0.0
102
RTVSPost2010PropOp38
 70
     1
102
RTVSPost2010Prop39
140
1.0
102
RTVSPost2010PropOp39
 70
     1
102
RTVSPost2010Prop40
 90
        0
102
RTVSPost2010PropOp40
 70
     1
102
RTVSPost2010Prop41ColorIndex
 90
       18
102
RTVSPost2010Prop41ColorRGB
 90
        0
102
RTVSPost2010PropOp41
 70
     1
102
RTVSPost2010Prop42
 90
       50
102
RTVSPost2010PropOp42
 70
     1
102
RTVSPost2010Prop43
 90
        3
102
RTVSPost2010PropOp43
 70
     1
102
RTVSPost2010Prop44ColorIndex
 90
        5
102
RTVSPost2010Prop44ColorRGB
 90
      255
102
RTVSPost2010PropOp44
 70
     1
102
RTVSPost2010Prop45
280
     0
102
RTVSPost2010PropOp45
 70
     1
102
RTVSPost2010Prop46
 90
       50
102
RTVSPost2010PropOp46
 70
     1
102
RTVSPost2010Prop47
 90
       50
102
RTVSPost2010PropOp47
 70
     1
102
RTVSPost2010Prop48
 90
       50
102
RTVSPost2010PropOp48
 70
     1
102
RTVSPost2010Prop49
280
     0
102
RTVSPost2010PropOp49
 70
     1
102
RTVSPost2010Prop50
 90
       50
102
RTVSPost2010PropOp50
 70
     1
102
RTVSPost2010Prop51ColorIndex
 90
      256
102
RTVSPost2010Prop51ColorRGB
 90
-16777216
102
RTVSPost2010PropOp51
 70
     0
102
RTVSPost2010Prop52
140
1.0
102
RTVSPost2010PropOp52
 70
     0
102
RTVSPost2010Prop53
 90
        2
102
RTVSPost2010PropOp53
 70
     1
102
RTVSPost2010Prop54
  1
strokes_ogs.tif
102
RTVSPost2010PropOp54
 70
     1
102
RTVSPost2010Prop55
280
     0
102
RTVSPost2010PropOp55
 70
     1
102
RTVSPost2010Prop56
140
1.0
102
RTVSPost2010PropOp56
 70
     1
102
RTVSPost2010Prop57
140
1.0
102
RTVSPost2010PropOp57
 70
     1
  0
XRECORD
  5
17A
102
{ACAD_REACTORS
330
179
102
}
330
179
100
AcDbXrecord
280
     1
102
RTVSPost2010Prop28
280
     0
102
RTVSPost2010PropOp28
 70
     1
102
RTVSPost2010Prop29
280
     1
102
RTVSPost2010PropOp29
 70
     1
102
RTVSPost2010Prop30
280
     1
102
RTVSPost2010PropOp30
 70
     1
102
RTVSPost2010Prop31
280
     0
102
RTVSPost2010PropOp31
 70
     1
102
RTVSPost2010Prop32
280
     0
102
RTVSPost2010PropOp32
 70
     1
102
RTVSPost2010Prop33
280
     0
102
RTVSPost2010PropOp33
 70
     1
102
RTVSPost2010Prop34
280
     0
102
RTVSPost2010PropOp34
 70
     1
102
RTVSPost2010Prop35
280
     0
102
RTVSPost2010PropOp35
 70
     1
102
RTVSPost2010Prop36
280
     0
102
RTVSPost2010PropOp36
 70
     1
102
RTVSPost2010Prop37
 90
       50
102
RTVSPost2010PropOp37
 70
     1
102
RTVSPost2010Prop38
140
0.0
102
RTVSPost2010PropOp38
 70
     1
102
RTVSPost2010Prop39
140
1.0
102
RTVSPost2010PropOp39
 70
     1
102
RTVSPost2010Prop40
 90
        0
102
RTVSPost2010PropOp40
 70
     1
102
RTVSPost2010Prop41ColorIndex
 90
       18
102
RTVSPost2010Prop41ColorRGB
 90
        0
102
RTVSPost2010PropOp41
 70
     1
102
RTVSPost2010Prop42
 90
       50
102
RTVSPost2010PropOp42
 70
     1
102
RTVSPost2010Prop43
 90
        3
102
RTVSPost2010PropOp43
 70
     1
102
RTVSPost2010Prop44ColorIndex
 90
        5
102
RTVSPost2010Prop44ColorRGB
 90
      255
102
RTVSPost2010PropOp44
 70
     1
102
RTVSPost2010Prop45
280
     0
102
RTVSPost2010PropOp45
 70
     1
102
RTVSPost2010Prop46
 90
       50
102
RTVSPost2010PropOp46
 70
     1
102
RTVSPost2010Prop47
 90
       50
102
RTVSPost2010PropOp47
 70
     1
102
RTVSPost2010Prop48
 90
       50
102
RTVSPost2010PropOp48
 70
     1
102
RTVSPost2010Prop49
280
     0
102
RTVSPost2010PropOp49
 70
     1
102
RTVSPost2010Prop50
 90
       50
102
RTVSPost2010PropOp50
 70
     1
102
RTVSPost2010Prop51ColorIndex
 90
      256
102
RTVSPost2010Prop51ColorRGB
 90
-16777216
102
RTVSPost2010PropOp51
 70
     0
102
RTVSPost2010Prop52
140
1.0
102
RTVSPost2010PropOp52
 70
     0
102
RTVSPost2010Prop53
 90
        2
102
RTVSPost2010PropOp53
 70
     1
102
RTVSPost2010Prop54
  1
strokes_ogs.tif
102
RTVSPost2010PropOp54
 70
     1
102
RTVSPost2010Prop55
280
     0
102
RTVSPost2010PropOp55
 70
     1
102
RTVSPost2010Prop56
140
1.0
102
RTVSPost2010PropOp56
 70
     1
102
RTVSPost2010Prop57
140
1.0
102
RTVSPost2010PropOp57
 70
     1
  0
XRECORD
  5
17C
102
{ACAD_REACTORS
330
17B
102
}
330
17B
100
AcDbXrecord
280
     1
102
RTVSPost2010Prop28
280
     0
102
RTVSPost2010PropOp28
 70
     1
102
RTVSPost2010Prop29
280
     1
102
RTVSPost2010PropOp29
 70
     1
102
RTVSPost2010Prop30
280
     1
102
RTVSPost2010PropOp30
 70
     1
102
RTVSPost2010Prop31
280
     0
102
RTVSPost2010PropOp31
 70
     1
102
RTVSPost2010Prop32
280
     0
102
RTVSPost2010PropOp32
 70
     1
102
RTVSPost2010Prop33
280
     0
102
RTVSPost2010PropOp33
 70
     1
102
RTVSPost2010Prop34
280
     0
102
RTVSPost2010PropOp34
 70
     1
102
RTVSPost2010Prop35
280
     0
102
RTVSPost2010PropOp35
 70
     1
102
RTVSPost2010Prop36
280
     0
102
RTVSPost2010PropOp36
 70
     1
102
RTVSPost2010Prop37
 90
       50
102
RTVSPost2010PropOp37
 70
     1
102
RTVSPost2010Prop38
140
0.0
102
RTVSPost2010PropOp38
 70
     1
102
RTVSPost2010Prop39
140
1.0
102
RTVSPost2010PropOp39
 70
     1
102
RTVSPost2010Prop40
 90
        0
102
RTVSPost2010PropOp40
 70
     1
102
RTVSPost2010Prop41ColorIndex
 90
       18
102
RTVSPost2010Prop41ColorRGB
 90
        0
102
RTVSPost2010PropOp41
 70
     1
102
RTVSPost2010Prop42
 90
       50
102
RTVSPost2010PropOp42
 70
     1
102
RTVSPost2010Prop43
 90
        3
102
RTVSPost2010PropOp43
 70
     1
102
RTVSPost2010Prop44ColorIndex
 90
        5
102
RTVSPost2010Prop44ColorRGB
 90
      255
102
RTVSPost2010PropOp44
 70
     1
102
RTVSPost2010Prop45
280
     0
102
RTVSPost2010PropOp45
 70
     1
102
RTVSPost2010Prop46
 90
       50
102
RTVSPost2010PropOp46
 70
     1
102
RTVSPost2010Prop47
 90
       50
102
RTVSPost2010PropOp47
 70
     1
102
RTVSPost2010Prop48
 90
       50
102
RTVSPost2010PropOp48
 70
     1
102
RTVSPost2010Prop49
280
     0
102
RTVSPost2010PropOp49
 70
     1
102
RTVSPost2010Prop50
 90
       50
102
RTVSPost2010PropOp50
 70
     1
102
RTVSPost2010Prop51ColorIndex
 90
      256
102
RTVSPost2010Prop51ColorRGB
 90
-16777216
102
RTVSPost2010PropOp51
 70
     0
102
RTVSPost2010Prop52
140
1.0
102
RTVSPost2010PropOp52
 70
     0
102
RTVSPost2010Prop53
 90
        2
102
RTVSPost2010PropOp53
 70
     1
102
RTVSPost2010Prop54
  1
strokes_ogs.tif
102
RTVSPost2010PropOp54
 70
     1
102
RTVSPost2010Prop55
280
     0
102
RTVSPost2010PropOp55
 70
     1
102
RTVSPost2010Prop56
140
1.0
102
RTVSPost2010PropOp56
 70
     1
102
RTVSPost2010Prop57
140
1.0
102
RTVSPost2010PropOp57
 70
     1
  0
XRECORD
  5
172
102
{ACAD_REACTORS
330
171
102
}
330
171
100
AcDbXrecord
280
     1
102
RTVSPost2010Prop28
280
     0
102
RTVSPost2010PropOp28
 70
     1
102
RTVSPost2010Prop29
280
     1
102
RTVSPost2010PropOp29
 70
     1
102
RTVSPost2010Prop30
280
     1
102
RTVSPost2010PropOp30
 70
     1
102
RTVSPost2010Prop31
280
     0
102
RTVSPost2010PropOp31
 70
     1
102
RTVSPost2010Prop32
280
     0
102
RTVSPost2010PropOp32
 70
     1
102
RTVSPost2010Prop33
280
     0
102
RTVSPost2010PropOp33
 70
     1
102
RTVSPost2010Prop34
280
     0
102
RTVSPost2010PropOp34
 70
     1
102
RTVSPost2010Prop35
280
     0
102
RTVSPost2010PropOp35
 70
     1
102
RTVSPost2010Prop36
280
     0
102
RTVSPost2010PropOp36
 70
     1
102
RTVSPost2010Prop37
 90
       50
102
RTVSPost2010PropOp37
 70
     1
102
RTVSPost2010Prop38
140
0.0
102
RTVSPost2010PropOp38
 70
     1
102
RTVSPost2010Prop39
140
1.0
102
RTVSPost2010PropOp39
 70
     1
102
RTVSPost2010Prop40
 90
        0
102
RTVSPost2010PropOp40
 70
     1
102
RTVSPost2010Prop41ColorIndex
 90
       18
102
RTVSPost2010Prop41ColorRGB
 90
        0
102
RTVSPost2010PropOp41
 70
     1
102
RTVSPost2010Prop42
 90
       50
102
RTVSPost2010PropOp42
 70
     1
102
RTVSPost2010Prop43
 90
        3
102
RTVSPost2010PropOp43
 70
     1
102
RTVSPost2010Prop44ColorIndex
 90
        5
102
RTVSPost2010Prop44ColorRGB
 90
      255
102
RTVSPost2010PropOp44
 70
     1
102
RTVSPost2010Prop45
280
     0
102
RTVSPost2010PropOp45
 70
     1
102
RTVSPost2010Prop46
 90
       50
102
RTVSPost2010PropOp46
 70
     1
102
RTVSPost2010Prop47
 90
       50
102
RTVSPost2010PropOp47
 70
     1
102
RTVSPost2010Prop48
 90
       50
102
RTVSPost2010PropOp48
 70
     1
102
RTVSPost2010Prop49
280
     0
102
RTVSPost2010PropOp49
 70
     1
102
RTVSPost2010Prop50
 90
       50
102
RTVSPost2010PropOp50
 70
     1
102
RTVSPost2010Prop51ColorIndex
 90
      256
102
RTVSPost2010Prop51ColorRGB
 90
-16777216
102
RTVSPost2010PropOp51
 70
     0
102
RTVSPost2010Prop52
140
1.0
102
RTVSPost2010PropOp52
 70
     0
102
RTVSPost2010Prop53
 90
        2
102
RTVSPost2010PropOp53
 70
     1
102
RTVSPost2010Prop54
  1
strokes_ogs.tif
102
RTVSPost2010PropOp54
 70
     1
102
RTVSPost2010Prop55
280
     0
102
RTVSPost2010PropOp55
 70
     1
102
RTVSPost2010Prop56
140
1.0
102
RTVSPost2010PropOp56
 70
     1
102
RTVSPost2010Prop57
140
1.0
102
RTVSPost2010PropOp57
 70
     1
  0
XRECORD
  5
166
102
{ACAD_REACTORS
330
165
102
}
330
165
100
AcDbXrecord
280
     1
102
RTVSPost2010Prop28
280
     0
102
RTVSPost2010PropOp28
 70
     1
102
RTVSPost2010Prop29
280
     1
102
RTVSPost2010PropOp29
 70
     1
102
RTVSPost2010Prop30
280
     1
102
RTVSPost2010PropOp30
 70
     1
102
RTVSPost2010Prop31
280
     0
102
RTVSPost2010PropOp31
 70
     1
102
RTVSPost2010Prop32
280
     0
102
RTVSPost2010PropOp32
 70
     1
102
RTVSPost2010Prop33
280
     0
102
RTVSPost2010PropOp33
 70
     1
102
RTVSPost2010Prop34
280
     0
102
RTVSPost2010PropOp34
 70
     1
102
RTVSPost2010Prop35
280
     0
102
RTVSPost2010PropOp35
 70
     1
102
RTVSPost2010Prop36
280
     0
102
RTVSPost2010PropOp36
 70
     1
102
RTVSPost2010Prop37
 90
       50
102
RTVSPost2010PropOp37
 70
     1
102
RTVSPost2010Prop38
140
0.0
102
RTVSPost2010PropOp38
 70
     1
102
RTVSPost2010Prop39
140
1.0
102
RTVSPost2010PropOp39
 70
     1
102
RTVSPost2010Prop40
 90
        0
102
RTVSPost2010PropOp40
 70
     1
102
RTVSPost2010Prop41ColorIndex
 90
       18
102
RTVSPost2010Prop41ColorRGB
 90
        0
102
RTVSPost2010PropOp41
 70
     1
102
RTVSPost2010Prop42
 90
       50
102
RTVSPost2010PropOp42
 70
     1
102
RTVSPost2010Prop43
 90
        3
102
RTVSPost2010PropOp43
 70
     1
102
RTVSPost2010Prop44ColorIndex
 90
        5
102
RTVSPost2010Prop44ColorRGB
 90
      255
102
RTVSPost2010PropOp44
 70
     1
102
RTVSPost2010Prop45
280
     0
102
RTVSPost2010PropOp45
 70
     1
102
RTVSPost2010Prop46
 90
       50
102
RTVSPost2010PropOp46
 70
     1
102
RTVSPost2010Prop47
 90
       50
102
RTVSPost2010PropOp47
 70
     1
102
RTVSPost2010Prop48
 90
       50
102
RTVSPost2010PropOp48
 70
     1
102
RTVSPost2010Prop49
280
     0
102
RTVSPost2010PropOp49
 70
     1
102
RTVSPost2010Prop50
 90
       50
102
RTVSPost2010PropOp50
 70
     1
102
RTVSPost2010Prop51ColorIndex
 90
      256
102
RTVSPost2010Prop51ColorRGB
 90
-16777216
102
RTVSPost2010PropOp51
 70
     0
102
RTVSPost2010Prop52
140
1.0
102
RTVSPost2010PropOp52
 70
     0
102
RTVSPost2010Prop53
 90
        2
102
RTVSPost2010PropOp53
 70
     1
102
RTVSPost2010Prop54
  1
strokes_ogs.tif
102
RTVSPost2010PropOp54
 70
     1
102
RTVSPost2010Prop55
280
     0
102
RTVSPost2010PropOp55
 70
     1
102
RTVSPost2010Prop56
140
1.0
102
RTVSPost2010PropOp56
 70
     1
102
RTVSPost2010Prop57
140
1.0
102
RTVSPost2010PropOp57
 70
     1
  0
XRECORD
  5
17E
102
{ACAD_REACTORS
330
17D
102
}
330
17D
100
AcDbXrecord
280
     1
102
RTVSPost2010Prop28
280
     0
102
RTVSPost2010PropOp28
 70
     1
102
RTVSPost2010Prop29
280
     1
102
RTVSPost2010PropOp29
 70
     1
102
RTVSPost2010Prop30
280
     1
102
RTVSPost2010PropOp30
 70
     1
102
RTVSPost2010Prop31
280
     0
102
RTVSPost2010PropOp31
 70
     1
102
RTVSPost2010Prop32
280
     0
102
RTVSPost2010PropOp32
 70
     1
102
RTVSPost2010Prop33
280
     0
102
RTVSPost2010PropOp33
 70
     1
102
RTVSPost2010Prop34
280
     0
102
RTVSPost2010PropOp34
 70
     1
102
RTVSPost2010Prop35
280
     0
102
RTVSPost2010PropOp35
 70
     1
102
RTVSPost2010Prop36
280
     0
102
RTVSPost2010PropOp36
 70
     1
102
RTVSPost2010Prop37
 90
       50
102
RTVSPost2010PropOp37
 70
     1
102
RTVSPost2010Prop38
140
0.0
102
RTVSPost2010PropOp38
 70
     1
102
RTVSPost2010Prop39
140
1.0
102
RTVSPost2010PropOp39
 70
     1
102
RTVSPost2010Prop40
 90
        0
102
RTVSPost2010PropOp40
 70
     1
102
RTVSPost2010Prop41ColorIndex
 90
       18
102
RTVSPost2010Prop41ColorRGB
 90
        0
102
RTVSPost2010PropOp41
 70
     1
102
RTVSPost2010Prop42
 90
       50
102
RTVSPost2010PropOp42
 70
     1
102
RTVSPost2010Prop43
 90
        3
102
RTVSPost2010PropOp43
 70
     1
102
RTVSPost2010Prop44ColorIndex
 90
        5
102
RTVSPost2010Prop44ColorRGB
 90
      255
102
RTVSPost2010PropOp44
 70
     1
102
RTVSPost2010Prop45
280
     0
102
RTVSPost2010PropOp45
 70
     1
102
RTVSPost2010Prop46
 90
       50
102
RTVSPost2010PropOp46
 70
     1
102
RTVSPost2010Prop47
 90
       50
102
RTVSPost2010PropOp47
 70
     1
102
RTVSPost2010Prop48
 90
       50
102
RTVSPost2010PropOp48
 70
     1
102
RTVSPost2010Prop49
280
     0
102
RTVSPost2010PropOp49
 70
     1
102
RTVSPost2010Prop50
 90
       50
102
RTVSPost2010PropOp50
 70
     1
102
RTVSPost2010Prop51ColorIndex
 90
      256
102
RTVSPost2010Prop51ColorRGB
 90
-16777216
102
RTVSPost2010PropOp51
 70
     0
102
RTVSPost2010Prop52
140
1.0
102
RTVSPost2010PropOp52
 70
     0
102
RTVSPost2010Prop53
 90
        2
102
RTVSPost2010PropOp53
 70
     1
102
RTVSPost2010Prop54
  1
strokes_ogs.tif
102
RTVSPost2010PropOp54
 70
     1
102
RTVSPost2010Prop55
280
     0
102
RTVSPost2010PropOp55
 70
     1
102
RTVSPost2010Prop56
140
1.0
102
RTVSPost2010PropOp56
 70
     1
102
RTVSPost2010Prop57
140
1.0
102
RTVSPost2010PropOp57
 70
     1
  0
ENDSEC
  0
EOF
