  0
SECTION
  2
HEADER
  9
$ACADVER
  1
AC1024
  9
$ACADMAINTVER
 70
   205
  9
$DWGCODEPAGE
  3
ANSI_1251
  9
$INSBASE
 10
0.0
 20
0.0
 30
0.0
  9
$EXTMIN
 10
1.000000000000000E+20
 20
1.000000000000000E+20
 30
1.000000000000000E+20
  9
$EXTMAX
 10
-1.000000000000000E+20
 20
-1.000000000000000E+20
 30
-1.000000000000000E+20
  9
$LIMMIN
 10
0.0
 20
0.0
  9
$LIMMAX
 10
12.0
 20
9.0
  9
$ORTHOMODE
 70
     0
  9
$REGENMODE
 70
     1
  9
$FILLMODE
 70
     1
  9
$QTEXTMODE
 70
     0
  9
$MIRRTEXT
 70
     1
  9
$LTSCALE
 40
1.0
  9
$ATTMODE
 70
     1
  9
$TEXTSIZE
 40
0.2
  9
$TRACEWID
 40
0.05
  9
$TEXTSTYLE
  7
Standard
  9
$CLAYER
  8
OracDecor_cornice_mouldings
  9
$CELTYPE
  6
ByLayer
  9
$CECOLOR
 62
   256
  9
$CELTSCALE
 40
1.0
  9
$DISPSILH
 70
     0
  9
$DIMSCALE
 40
1.0
  9
$DIMASZ
 40
0.18
  9
$DIMEXO
 40
0.0625
  9
$DIMDLI
 40
0.38
  9
$DIMRND
 40
0.0
  9
$DIMDLE
 40
0.0
  9
$DIMEXE
 40
0.18
  9
$DIMTP
 40
0.0
  9
$DIMTM
 40
0.0
  9
$DIMTXT
 40
0.18
  9
$DIMCEN
 40
0.09
  9
$DIMTSZ
 40
0.0
  9
$DIMTOL
 70
     0
  9
$DIMLIM
 70
     0
  9
$DIMTIH
 70
     1
  9
$DIMTOH
 70
     1
  9
$DIMSE1
 70
     0
  9
$DIMSE2
 70
     0
  9
$DIMTAD
 70
     0
  9
$DIMZIN
 70
     0
  9
$DIMBLK
  1

  9
$DIMASO
 70
     1
  9
$DIMSHO
 70
     1
  9
$DIMPOST
  1

  9
$DIMAPOST
  1

  9
$DIMALT
 70
     0
  9
$DIMALTD
 70
     2
  9
$DIMALTF
 40
25.4
  9
$DIMLFAC
 40
1.0
  9
$DIMTOFL
 70
     0
  9
$DIMTVP
 40
0.0
  9
$DIMTIX
 70
     0
  9
$DIMSOXD
 70
     0
  9
$DIMSAH
 70
     0
  9
$DIMBLK1
  1

  9
$DIMBLK2
  1

  9
$DIMSTYLE
  2
Standard
  9
$DIMCLRD
 70
     0
  9
$DIMCLRE
 70
     0
  9
$DIMCLRT
 70
     0
  9
$DIMTFAC
 40
1.0
  9
$DIMGAP
 40
0.09
  9
$DIMJUST
 70
     0
  9
$DIMSD1
 70
     0
  9
$DIMSD2
 70
     0
  9
$DIMTOLJ
 70
     1
  9
$DIMTZIN
 70
     0
  9
$DIMALTZ
 70
     0
  9
$DIMALTTZ
 70
     0
  9
$DIMUPT
 70
     0
  9
$DIMDEC
 70
     4
  9
$DIMTDEC
 70
     4
  9
$DIMALTU
 70
     2
  9
$DIMALTTD
 70
     2
  9
$DIMTXSTY
  7
Standard
  9
$DIMAUNIT
 70
     0
  9
$DIMADEC
 70
     0
  9
$DIMALTRND
 40
0.0
  9
$DIMAZIN
 70
     0
  9
$DIMDSEP
 70
    46
  9
$DIMATFIT
 70
     3
  9
$DIMFRAC
 70
     0
  9
$DIMLDRBLK
  1

  9
$DIMLUNIT
 70
     2
  9
$DIMLWD
 70
    -2
  9
$DIMLWE
 70
    -2
  9
$DIMTMOVE
 70
     0
  9
$DIMFXL
 40
1.0
  9
$DIMFXLON
 70
     0
  9
$DIMJOGANG
 40
0.7853981633974483
  9
$DIMTFILL
 70
     0
  9
$DIMTFILLCLR
 70
     0
  9
$DIMARCSYM
 70
     0
  9
$DIMLTYPE
  6

  9
$DIMLTEX1
  6

  9
$DIMLTEX2
  6

  9
$DIMTXTDIRECTION
 70
     0
  9
$LUNITS
 70
     2
  9
$LUPREC
 70
     4
  9
$SKETCHINC
 40
0.1
  9
$FILLETRAD
 40
0.5
  9
$AUNITS
 70
     0
  9
$AUPREC
 70
     0
  9
$MENU
  1
.
  9
$ELEVATION
 40
0.0
  9
$PELEVATION
 40
0.0
  9
$THICKNESS
 40
0.0
  9
$LIMCHECK
 70
     0
  9
$CHAMFERA
 40
0.5
  9
$CHAMFERB
 40
0.5
  9
$CHAMFERC
 40
1.0
  9
$CHAMFERD
 40
0.0
  9
$SKPOLY
 70
     0
  9
$TDCREATE
 40
2451380.930432396
  9
$TDUCREATE
 40
2451380.805432396
  9
$TDUPDATE
 40
2451380.966180555
  9
$TDUUPDATE
 40
2451380.841180556
  9
$TDINDWG
 40
0.0075614236
  9
$TDUSRTIMER
 40
0.0075523843
  9
$USRTIMER
 70
     1
  9
$ANGBASE
 50
0.0
  9
$ANGDIR
 70
     0
  9
$PDMODE
 70
     0
  9
$PDSIZE
 40
0.0
  9
$PLINEWID
 40
0.0
  9
$SPLFRAME
 70
     0
  9
$SPLINETYPE
 70
     6
  9
$SPLINESEGS
 70
     8
  9
$HANDSEED
  5
1B4
  9
$SURFTAB1
 70
     6
  9
$SURFTAB2
 70
     6
  9
$SURFTYPE
 70
     6
  9
$SURFU
 70
     6
  9
$SURFV
 70
     6
  9
$UCSBASE
  2

  9
$UCSNAME
  2

  9
$UCSORG
 10
0.0
 20
0.0
 30
0.0
  9
$UCSXDIR
 10
1.0
 20
0.0
 30
0.0
  9
$UCSYDIR
 10
0.0
 20
1.0
 30
0.0
  9
$UCSORTHOREF
  2

  9
$UCSORTHOVIEW
 70
     0
  9
$UCSORGTOP
 10
0.0
 20
0.0
 30
0.0
  9
$UCSORGBOTTOM
 10
0.0
 20
0.0
 30
0.0
  9
$UCSORGLEFT
 10
0.0
 20
0.0
 30
0.0
  9
$UCSORGRIGHT
 10
0.0
 20
0.0
 30
0.0
  9
$UCSORGFRONT
 10
0.0
 20
0.0
 30
0.0
  9
$UCSORGBACK
 10
0.0
 20
0.0
 30
0.0
  9
$PUCSBASE
  2

  9
$PUCSNAME
  2

  9
$PUCSORG
 10
0.0
 20
0.0
 30
0.0
  9
$PUCSXDIR
 10
1.0
 20
0.0
 30
0.0
  9
$PUCSYDIR
 10
0.0
 20
1.0
 30
0.0
  9
$PUCSORTHOREF
  2

  9
$PUCSORTHOVIEW
 70
     0
  9
$PUCSORGTOP
 10
0.0
 20
0.0
 30
0.0
  9
$PUCSORGBOTTOM
 10
0.0
 20
0.0
 30
0.0
  9
$PUCSORGLEFT
 10
0.0
 20
0.0
 30
0.0
  9
$PUCSORGRIGHT
 10
0.0
 20
0.0
 30
0.0
  9
$PUCSORGFRONT
 10
0.0
 20
0.0
 30
0.0
  9
$PUCSORGBACK
 10
0.0
 20
0.0
 30
0.0
  9
$USERI1
 70
     0
  9
$USERI2
 70
     0
  9
$USERI3
 70
     0
  9
$USERI4
 70
     0
  9
$USERI5
 70
     0
  9
$USERR1
 40
0.0
  9
$USERR2
 40
0.0
  9
$USERR3
 40
0.0
  9
$USERR4
 40
0.0
  9
$USERR5
 40
0.0
  9
$WORLDVIEW
 70
     1
  9
$SHADEDGE
 70
     3
  9
$SHADEDIF
 70
    70
  9
$TILEMODE
 70
     1
  9
$MAXACTVP
 70
    64
  9
$PINSBASE
 10
0.0
 20
0.0
 30
0.0
  9
$PLIMCHECK
 70
     0
  9
$PEXTMIN
 10
1.000000000000000E+20
 20
1.000000000000000E+20
 30
1.000000000000000E+20
  9
$PEXTMAX
 10
-1.000000000000000E+20
 20
-1.000000000000000E+20
 30
-1.000000000000000E+20
  9
$PLIMMIN
 10
0.0
 20
0.0
  9
$PLIMMAX
 10
12.0
 20
9.0
  9
$UNITMODE
 70
     0
  9
$VISRETAIN
 70
     1
  9
$PLINEGEN
 70
     0
  9
$PSLTSCALE
 70
     1
  9
$TREEDEPTH
 70
  3020
  9
$CMLSTYLE
  2
Standard
  9
$CMLJUST
 70
     0
  9
$CMLSCALE
 40
1.0
  9
$PROXYGRAPHICS
 70
     1
  9
$MEASUREMENT
 70
     1
  9
$CELWEIGHT
370
    -1
  9
$ENDCAPS
280
     0
  9
$JOINSTYLE
280
     0
  9
$LWDISPLAY
290
     0
  9
$INSUNITS
 70
     4
  9
$HYPERLINKBASE
  1

  9
$STYLESHEET
  1

  9
$XEDIT
290
     1
  9
$CEPSNTYPE
380
     0
  9
$PSTYLEMODE
290
     1
  9
$FINGERPRINTGUID
  2
{12F50282-3ED8-11D3-A8B7-0060B0F84BC6}
  9
$VERSIONGUID
  2
{12F50293-3ED8-11D3-A8B7-0060B0F84BC6}
  9
$EXTNAMES
290
     1
  9
$PSVPSCALE
 40
0.0
  9
$OLESTARTUP
290
     0
  9
$SORTENTS
280
   127
  9
$INDEXCTL
280
     0
  9
$HIDETEXT
280
     0
  9
$XCLIPFRAME
280
     2
  9
$HALOGAP
280
     0
  9
$OBSCOLOR
 70
   257
  9
$OBSLTYPE
280
     0
  9
$INTERSECTIONDISPLAY
280
     0
  9
$INTERSECTIONCOLOR
 70
   257
  9
$DIMASSOC
280
     1
  9
$PROJECTNAME
  1

  9
$CAMERADISPLAY
290
     0
  9
$LENSLENGTH
 40
50.0
  9
$CAMERAHEIGHT
 40
0.0
  9
$STEPSPERSEC
 40
2.0
  9
$STEPSIZE
 40
6.0
  9
$3DDWFPREC
 40
2.0
  9
$PSOLWIDTH
 40
0.25
  9
$PSOLHEIGHT
 40
4.0
  9
$LOFTANG1
 40
1.570796326794896
  9
$LOFTANG2
 40
1.570796326794896
  9
$LOFTMAG1
 40
0.0
  9
$LOFTMAG2
 40
0.0
  9
$LOFTPARAM
 70
     7
  9
$LOFTNORMALS
280
     1
  9
$LATITUDE
 40
37.795
  9
$LONGITUDE
 40
-122.394
  9
$NORTHDIRECTION
 40
0.0
  9
$TIMEZONE
 70
 -8000
  9
$LIGHTGLYPHDISPLAY
280
     1
  9
$TILEMODELIGHTSYNCH
280
     1
  9
$CMATERIAL
347
AB
  9
$SOLIDHIST
280
     0
  9
$SHOWHIST
280
     1
  9
$DWFFRAME
280
     2
  9
$DGNFRAME
280
     0
  9
$REALWORLDSCALE
290
     1
  9
$INTERFERECOLOR
 62
     1
  9
$INTERFEREOBJVS
345
CD
  9
$INTERFEREVPVS
346
CA
  9
$CSHADOW
280
     0
  9
$SHADOWPLANELOCATION
 40
0.0
  0
ENDSEC
  0
SECTION
  2
CLASSES
  0
CLASS
  1
ACDBDICTIONARYWDFLT
  2
AcDbDictionaryWithDefault
  3
ObjectDBX Classes
 90
        0
 91
        1
280
     0
281
     0
  0
CLASS
  1
ACDBPLACEHOLDER
  2
AcDbPlaceHolder
  3
ObjectDBX Classes
 90
        0
 91
        2
280
     0
281
     0
  0
CLASS
  1
LAYOUT
  2
AcDbLayout
  3
ObjectDBX Classes
 90
        0
 91
        3
280
     0
281
     0
  0
CLASS
  1
MATERIAL
  2
AcDbMaterial
  3
ObjectDBX Classes
 90
     1153
 91
        3
280
     0
281
     0
  0
CLASS
  1
VISUALSTYLE
  2
AcDbVisualStyle
  3
ObjectDBX Classes
 90
     4095
 91
       24
280
     0
281
     0
  0
CLASS
  1
TABLESTYLE
  2
AcDbTableStyle
  3
ObjectDBX Classes
 90
     4095
 91
        1
280
     0
281
     0
  0
CLASS
  1
SCALE
  2
AcDbScale
  3
ObjectDBX Classes
 90
     1153
 91
       17
280
     0
281
     0
  0
CLASS
  1
MLEADERSTYLE
  2
AcDbMLeaderStyle
  3
ACDB_MLEADERSTYLE_CLASS
 90
     4095
 91
        1
280
     0
281
     0
  0
CLASS
  1
ACDBSECTIONVIEWSTYLE
  2
AcDbSectionViewStyle
  3
ObjectDBX Classes
 90
     1025
 91
        1
280
     0
281
     0
  0
CLASS
  1
ACDBDETAILVIEWSTYLE
  2
AcDbDetailViewStyle
  3
ObjectDBX Classes
 90
     1025
 91
        1
280
     0
281
     0
  0
CLASS
  1
MESH
  2
AcDbSubDMesh
  3
ObjectDBX Classes
 90
        0
 91
        1
280
     0
281
     1
  0
CLASS
  1
DICTIONARYVAR
  2
AcDbDictionaryVar
  3
ObjectDBX Classes
 90
        0
 91
        9
280
     0
281
     0
  0
CLASS
  1
CELLSTYLEMAP
  2
AcDbCellStyleMap
  3
ObjectDBX Classes
 90
     1152
 91
        1
280
     0
281
     0
  0
ENDSEC
  0
SECTION
  2
TABLES
  0
TABLE
  2
VPORT
  5
8
330
0
100
AcDbSymbolTable
 70
     1
  0
VPORT
  5
A8
330
8
100
AcDbSymbolTableRecord
100
AcDbViewportTableRecord
  2
*Active
 70
     0
 10
0.0
 20
0.0
 11
1.0
 21
1.0
 12
-0.0000809219563962
 22
-61.93128204345703
 13
0.0
 23
0.0
 14
0.5
 24
0.5
 15
0.5
 25
0.5
 16
-1.0
 26
-1.0
 36
1.0
 17
0.0
 27
0.0
 37
0.0
 40
1363.400245635095
 41
1.539332543493409
 42
50.0
 43
0.0
 44
0.0
 50
0.0
 51
0.0
 71
     0
 72
   100
 73
     1
 74
     3
 75
     0
 76
     0
 77
     0
 78
     0
281
     0
 65
     1
110
0.0
120
0.0
130
0.0
111
1.0
121
0.0
131
0.0
112
0.0
122
1.0
132
0.0
 79
     0
146
0.0
348
C9
 60
     3
 61
     5
292
     1
282
     1
141
0.0
142
0.0
 63
   250
421
  3355443
  0
ENDTAB
  0
TABLE
  2
LTYPE
  5
5
330
0
100
AcDbSymbolTable
 70
     1
  0
LTYPE
  5
14
330
5
100
AcDbSymbolTableRecord
100
AcDbLinetypeTableRecord
  2
ByBlock
 70
     0
  3

 72
    65
 73
     0
 40
0.0
  0
LTYPE
  5
15
330
5
100
AcDbSymbolTableRecord
100
AcDbLinetypeTableRecord
  2
ByLayer
 70
     0
  3

 72
    65
 73
     0
 40
0.0
  0
LTYPE
  5
16
330
5
100
AcDbSymbolTableRecord
100
AcDbLinetypeTableRecord
  2
Continuous
 70
     0
  3
Solid line
 72
    65
 73
     0
 40
0.0
  0
ENDTAB
  0
TABLE
  2
LAYER
  5
2
330
0
100
AcDbSymbolTable
 70
     3
  0
LAYER
  5
10
330
2
100
AcDbSymbolTableRecord
100
AcDbLayerTableRecord
  2
0
 70
     0
 62
     7
  6
Continuous
370
    -3
390
F
347
BB
  0
LAYER
  5
2B
330
2
100
AcDbSymbolTableRecord
100
AcDbLayerTableRecord
  2
ASHADE
 70
     4
 62
     7
  6
Continuous
370
    -3
390
2D
347
BB
  0
LAYER
  5
F8
330
2
100
AcDbSymbolTableRecord
100
AcDbLayerTableRecord
  2
OracDecor_cornice_mouldings
 70
     0
 62
   121
420
 10937829
  6
Continuous
370
    -3
390
F
347
BB
  0
ENDTAB
  0
TABLE
  2
STYLE
  5
3
330
0
100
AcDbSymbolTable
 70
     2
  0
STYLE
  5
11
330
3
100
AcDbSymbolTableRecord
100
AcDbTextStyleTableRecord
  2
Standard
 70
     0
 40
0.0
 41
1.0
 50
0.0
 71
     0
 42
0.2
  3
txt
  4

  0
STYLE
  5
2C
330
3
100
AcDbSymbolTableRecord
100
AcDbTextStyleTableRecord
  2
ASHADE
 70
     0
 40
0.2
 41
1.0
 50
0.0
 71
     0
 42
0.2
  3
simplex
  4

  0
ENDTAB
  0
TABLE
  2
VIEW
  5
6
330
0
100
AcDbSymbolTable
 70
     0
  0
ENDTAB
  0
TABLE
  2
UCS
  5
7
330
0
100
AcDbSymbolTable
 70
     0
  0
ENDTAB
  0
TABLE
  2
APPID
  5
9
330
0
100
AcDbSymbolTable
 70
     6
  0
APPID
  5
12
330
9
100
AcDbSymbolTableRecord
100
AcDbRegAppTableRecord
  2
ACAD
 70
     0
  0
APPID
  5
8F
330
9
100
AcDbSymbolTableRecord
100
AcDbRegAppTableRecord
  2
AVE_RENDER
 70
     0
  0
APPID
  5
90
330
9
100
AcDbSymbolTableRecord
100
AcDbRegAppTableRecord
  2
AVE_ENTITY_MATERIAL
 70
     0
  0
APPID
  5
9C
330
9
100
AcDbSymbolTableRecord
100
AcDbRegAppTableRecord
  2
AVE_FINISH
 70
     0
  0
APPID
  5
9D
330
9
100
AcDbSymbolTableRecord
100
AcDbRegAppTableRecord
  2
AVE_MATERIAL
 70
     0
  0
APPID
  5
9E
330
9
100
AcDbSymbolTableRecord
100
AcDbRegAppTableRecord
  2
AVE_GLOBAL
 70
     0
  0
ENDTAB
  0
TABLE
  2
DIMSTYLE
  5
A
330
0
100
AcDbSymbolTable
 70
     1
100
AcDbDimStyleTable
 71
     0
  0
DIMSTYLE
105
27
330
A
100
AcDbSymbolTableRecord
100
AcDbDimStyleTableRecord
  2
Standard
 70
     0
340
11
  0
ENDTAB
  0
TABLE
  2
BLOCK_RECORD
  5
1
330
0
100
AcDbSymbolTable
 70
     6
  0
BLOCK_RECORD
  5
1F
330
1
100
AcDbSymbolTableRecord
100
AcDbBlockTableRecord
  2
*Model_Space
340
22
 70
     0
280
     1
281
     0
  0
BLOCK_RECORD
  5
1B
330
1
100
AcDbSymbolTableRecord
100
AcDbBlockTableRecord
  2
*Paper_Space
340
1E
 70
     0
280
     1
281
     0
  0
BLOCK_RECORD
  5
23
330
1
100
AcDbSymbolTableRecord
100
AcDbBlockTableRecord
  2
*Paper_Space0
340
26
 70
     0
280
     1
281
     0
  0
BLOCK_RECORD
  5
2E
330
1
100
AcDbSymbolTableRecord
100
AcDbBlockTableRecord
  2
direct
340
0
 70
     0
280
     1
281
     0
  0
BLOCK_RECORD
  5
42
330
1
100
AcDbSymbolTableRecord
100
AcDbBlockTableRecord
  2
overhead
340
0
 70
     0
280
     1
281
     0
  0
BLOCK_RECORD
  5
5F
330
1
100
AcDbSymbolTableRecord
100
AcDbBlockTableRecord
  2
sh_spot
340
0
 70
     0
280
     1
281
     0
  0
BLOCK_RECORD
  5
91
330
1
100
AcDbSymbolTableRecord
100
AcDbBlockTableRecord
  2
AVE_RENDER
340
0
102
{BLKREFS
331
94
331
95
331
96
331
97
331
98
331
99
331
9A
331
9B
102
}
 70
     0
280
     1
281
     0
  0
BLOCK_RECORD
  5
9F
330
1
100
AcDbSymbolTableRecord
100
AcDbBlockTableRecord
  2
AVE_GLOBAL
340
0
102
{BLKREFS
331
A2
102
}
 70
     0
280
     1
281
     0
  0
ENDTAB
  0
ENDSEC
  0
SECTION
  2
BLOCKS
  0
BLOCK
  5
20
330
1F
100
AcDbEntity
  8
0
100
AcDbBlockBegin
  2
*Model_Space
 70
     0
 10
0.0
 20
0.0
 30
0.0
  3
*Model_Space
  1

  0
ENDBLK
  5
21
330
1F
100
AcDbEntity
  8
0
100
AcDbBlockEnd
  0
BLOCK
  5
1C
330
1B
100
AcDbEntity
 67
     1
  8
0
100
AcDbBlockBegin
  2
*Paper_Space
 70
     0
 10
0.0
 20
0.0
 30
0.0
  3
*Paper_Space
  1

  0
ENDBLK
  5
1D
330
1B
100
AcDbEntity
 67
     1
  8
0
100
AcDbBlockEnd
  0
BLOCK
  5
24
330
23
100
AcDbEntity
 67
     1
  8
0
100
AcDbBlockBegin
  2
*Paper_Space0
 70
     0
 10
0.0
 20
0.0
 30
0.0
  3
*Paper_Space0
  1

  0
ENDBLK
  5
25
330
23
100
AcDbEntity
 67
     1
  8
0
100
AcDbBlockEnd
  0
BLOCK
  5
40
330
2E
100
AcDbEntity
  8
0
100
AcDbBlockBegin
  2
direct
 70
     2
 10
0.0
 20
0.0
 30
0.0
  3
direct
  1

  0
ATTDEF
  5
2F
330
2E
100
AcDbEntity
  8
ASHADE
  6
Continuous
 62
     1
100
AcDbText
 10
0.0
 20
-0.1
 30
0.0
 40
0.2
  1

  7
ASHADE
 72
     1
 11
0.0
 21
-0.1
 31
0.0
100
AcDbAttributeDefinition
280
     0
  3
Light Name
  2
SNAME
 70
     0
280
     0
  0
ARC
  5
30
330
2E
100
AcDbEntity
  8
ASHADE
  6
Continuous
 62
     7
100
AcDbCircle
 10
0.0
 20
0.0
 30
0.0
 40
0.3
100
AcDbArc
 50
205.6792886194569
 51
334.3207113805431
  0
ARC
  5
31
330
2E
100
AcDbEntity
  8
ASHADE
  6
Continuous
 62
     7
100
AcDbCircle
 10
0.0
 20
0.0
 30
0.0
 40
0.3
100
AcDbArc
 50
25.67928861945685
 51
154.3207113805431
  0
LINE
  5
32
330
2E
100
AcDbEntity
  8
ASHADE
  6
Continuous
 62
     7
100
AcDbLine
 10
-0.21
 20
0.2142428528562855
 30
0.0
 11
-0.21
 21
0.5
 31
0.0
  0
LINE
  5
33
330
2E
100
AcDbEntity
  8
ASHADE
  6
Continuous
 62
     7
100
AcDbLine
 10
-0.11
 20
0.2791057147390572
 30
0.0
 11
-0.11
 21
0.5
 31
0.0
  0
LINE
  5
34
330
2E
100
AcDbEntity
  8
ASHADE
  6
Continuous
 62
     7
100
AcDbLine
 10
0.21
 20
0.2142428528562855
 30
0.0
 11
0.21
 21
0.5
 31
0.0
  0
ATTDEF
  5
35
330
2E
100
AcDbEntity
  8
ASHADE
  6
Continuous
 62
     7
100
AcDbText
 10
0.0
 20
0.25
 30
0.0
 40
0.01
  1

100
AcDbAttributeDefinition
280
     0
  3
Look-at Y
  2
LAY
 70
     1
280
     0
  0
ATTDEF
  5
36
330
2E
100
AcDbEntity
  8
ASHADE
  6
Continuous
 62
     7
100
AcDbText
 10
0.0
 20
0.22
 30
0.0
 40
0.01
  1
1
100
AcDbAttributeDefinition
280
     0
  3
Light Intensity
  2
INTENSITY
 70
     1
280
     0
  0
ATTDEF
  5
37
330
2E
100
AcDbEntity
  8
ASHADE
  6
Continuous
 62
     7
100
AcDbText
 10
0.0
 20
0.16
 30
0.0
 40
0.01
  1
-1
100
AcDbAttributeDefinition
280
     0
  3
*not used*
  2
BEAMD
 70
     1
280
     0
  0
ATTDEF
  5
38
330
2E
100
AcDbEntity
  8
ASHADE
  6
Continuous
 62
     7
100
AcDbText
 10
0.0
 20
0.175
 30
0.0
 40
0.01
  1
-1
100
AcDbAttributeDefinition
280
     0
  3
*not used*
  2
CONED
 70
     1
280
     0
  0
ATTDEF
  5
39
330
2E
100
AcDbEntity
  8
ASHADE
  6
Continuous
 62
     7
100
AcDbText
 10
0.0
 20
0.19
 30
0.0
 40
0.01
  1
0
100
AcDbAttributeDefinition
280
     0
  3
Depth Map Size
  2
CONEA
 70
     1
280
     0
  0
ATTDEF
  5
3A
330
2E
100
AcDbEntity
  8
ASHADE
  6
Continuous
 62
     7
100
AcDbText
 10
0.0
 20
0.2050000000000001
 30
0.0
 40
0.01
  1
1,1,1
100
AcDbAttributeDefinition
280
     0
  3
Light Color (RGB)
  2
COLOR
 70
     1
280
     0
  0
ATTDEF
  5
3B
330
2E
100
AcDbEntity
  8
ASHADE
  6
Continuous
 62
     7
100
AcDbText
 10
0.0
 20
0.235
 30
0.0
 40
0.01
  1

100
AcDbAttributeDefinition
280
     0
  3
Look-at Z
  2
LAZ
 70
     1
280
     0
  0
LINE
  5
3C
330
2E
100
AcDbEntity
  8
ASHADE
  6
Continuous
 62
     7
100
AcDbLine
 10
0.0
 20
0.3
 30
0.0
 11
0.0
 21
0.5
 31
0.0
  0
LINE
  5
3D
330
2E
100
AcDbEntity
  8
ASHADE
  6
Continuous
 62
     7
100
AcDbLine
 10
0.11
 20
0.2791057147390572
 30
0.0
 11
0.11
 21
0.5
 31
0.0
  0
ATTDEF
  5
3E
330
2E
100
AcDbEntity
  8
ASHADE
  6
Continuous
 62
     7
100
AcDbText
 10
0.0
 20
0.265
 30
0.0
 40
0.01
  1

100
AcDbAttributeDefinition
280
     0
  3
Look-at X
  2
LAX
 70
     1
280
     0
  0
ATTDEF
  5
3F
330
2E
100
AcDbEntity
  8
ASHADE
  6
Continuous
 62
     7
100
AcDbText
 10
0.0
 20
0.28
 30
0.0
 40
0.01
  1

100
AcDbAttributeDefinition
280
     0
  3

  2
GNAME
 70
     1
280
     0
  0
ENDBLK
  5
41
330
2E
100
AcDbEntity
  8
0
100
AcDbBlockEnd
  0
BLOCK
  5
5D
330
42
100
AcDbEntity
  8
0
100
AcDbBlockBegin
  2
overhead
 70
     2
 10
0.0
 20
0.0
 30
0.0
  3
overhead
  1

  0
ATTDEF
  5
43
330
42
100
AcDbEntity
  8
ASHADE
  6
Continuous
 62
     1
100
AcDbText
 10
0.0
 20
-0.1
 30
0.0
 40
0.2
  1

  7
ASHADE
 72
     1
 11
0.0
 21
-0.1
 31
0.0
100
AcDbAttributeDefinition
280
     0
  3
Light Name
  2
SNAME
 70
     0
280
     0
  0
ARC
  5
44
330
42
100
AcDbEntity
  8
ASHADE
  6
Continuous
 62
     7
100
AcDbCircle
 10
0.0
 20
0.0
 30
0.0
 40
0.3
100
AcDbArc
 50
205.6792886194569
 51
334.3207113805431
  0
LINE
  5
45
330
42
100
AcDbEntity
  8
ASHADE
  6
Continuous
 62
     7
100
AcDbLine
 10
-0.2041413561583015
 20
-0.2198324514393848
 30
0.0
 11
-0.2721884748777353
 21
-0.2931099352525131
 31
0.0
  0
LINE
  5
46
330
42
100
AcDbEntity
  8
ASHADE
  6
Continuous
 62
     7
100
AcDbLine
 10
-0.1096591641591904
 20
-0.2792398032442862
 30
0.0
 11
-0.1279356915190555
 21
-0.3257797704516673
 31
0.0
  0
LINE
  5
47
330
42
100
AcDbEntity
  8
ASHADE
  6
Continuous
 62
     7
100
AcDbLine
 10
0.0
 20
-0.2999999999999999
 30
0.0
 11
0.0
 21
-0.4
 31
0.0
  0
LINE
  5
48
330
42
100
AcDbEntity
  8
ASHADE
  6
Continuous
 62
     7
100
AcDbLine
 10
0.1096591641591904
 20
-0.2792398032442862
 30
0.0
 11
0.1279356915190555
 21
-0.3257797704516673
 31
0.0
  0
LINE
  5
49
330
42
100
AcDbEntity
  8
ASHADE
  6
Continuous
 62
     7
100
AcDbLine
 10
0.2041413561583015
 20
-0.2198324514393848
 30
0.0
 11
0.2721884748777353
 21
-0.2931099352525131
 31
0.0
  0
ARC
  5
4A
330
42
100
AcDbEntity
  8
ASHADE
  6
Continuous
 62
     7
100
AcDbCircle
 10
0.0
 20
0.0
 30
0.0
 40
0.3
100
AcDbArc
 50
25.67928861945685
 51
154.3207113805431
  0
LINE
  5
4B
330
42
100
AcDbEntity
  8
ASHADE
  6
Continuous
 62
     7
100
AcDbLine
 10
-0.2703701166919155
 20
0.13
 30
0.0
 11
-0.3154318028072347
 21
0.1516666666666666
 31
0.0
  0
LINE
  5
4C
330
42
100
AcDbEntity
  8
ASHADE
  6
Continuous
 62
     7
100
AcDbLine
 10
-0.2703701166919155
 20
-0.13
 30
0.0
 11
-0.3154318028072347
 21
-0.1516666666666666
 31
0.0
  0
LINE
  5
4D
330
42
100
AcDbEntity
  8
ASHADE
  6
Continuous
 62
     7
100
AcDbLine
 10
-0.2041413561583015
 20
0.2198324514393849
 30
0.0
 11
-0.2721884748777353
 21
0.2931099352525131
 31
0.0
  0
LINE
  5
4E
330
42
100
AcDbEntity
  8
ASHADE
  6
Continuous
 62
     7
100
AcDbLine
 10
-0.1096591641591904
 20
0.2792398032442862
 30
0.0
 11
-0.1279356915190555
 21
0.3257797704516674
 31
0.0
  0
LINE
  5
4F
330
42
100
AcDbEntity
  8
ASHADE
  6
Continuous
 62
     7
100
AcDbLine
 10
0.2703701166919155
 20
-0.13
 30
0.0
 11
0.3154318028072347
 21
-0.1516666666666666
 31
0.0
  0
LINE
  5
50
330
42
100
AcDbEntity
  8
ASHADE
  6
Continuous
 62
     7
100
AcDbLine
 10
0.2703701166919155
 20
0.13
 30
0.0
 11
0.3154318028072347
 21
0.1516666666666666
 31
0.0
  0
LINE
  5
51
330
42
100
AcDbEntity
  8
ASHADE
  6
Continuous
 62
     7
100
AcDbLine
 10
0.0
 20
0.3
 30
0.0
 11
0.0
 21
0.4
 31
0.0
  0
ATTDEF
  5
52
330
42
100
AcDbEntity
  8
ASHADE
  6
Continuous
 62
     7
100
AcDbText
 10
0.0
 20
0.22
 30
0.0
 40
0.01
  1
1
100
AcDbAttributeDefinition
280
     0
  3
Light Intensity
  2
INTENSITY
 70
     1
280
     0
  0
ATTDEF
  5
53
330
42
100
AcDbEntity
  8
ASHADE
  6
Continuous
 62
     7
100
AcDbText
 10
0.0
 20
0.16
 30
0.0
 40
0.01
  1
-1
100
AcDbAttributeDefinition
280
     0
  3
*not used*
  2
BEAMD
 70
     1
280
     0
  0
ATTDEF
  5
54
330
42
100
AcDbEntity
  8
ASHADE
  6
Continuous
 62
     7
100
AcDbText
 10
0.0
 20
0.175
 30
0.0
 40
0.01
  1
-1
100
AcDbAttributeDefinition
280
     0
  3
*not used*
  2
CONED
 70
     1
280
     0
  0
ATTDEF
  5
55
330
42
100
AcDbEntity
  8
ASHADE
  6
Continuous
 62
     7
100
AcDbText
 10
0.0
 20
0.19
 30
0.0
 40
0.01
  1
0
100
AcDbAttributeDefinition
280
     0
  3
Depth Map Size
  2
CONEA
 70
     1
280
     0
  0
ATTDEF
  5
56
330
42
100
AcDbEntity
  8
ASHADE
  6
Continuous
 62
     7
100
AcDbText
 10
0.0
 20
0.2050000000000001
 30
0.0
 40
0.01
  1
1,1,1
100
AcDbAttributeDefinition
280
     0
  3
Light Color (RGB)
  2
COLOR
 70
     1
280
     0
  0
ATTDEF
  5
57
330
42
100
AcDbEntity
  8
ASHADE
  6
Continuous
 62
     7
100
AcDbText
 10
0.0
 20
0.235
 30
0.0
 40
0.01
  1

100
AcDbAttributeDefinition
280
     0
  3
Look-at Z
  2
LAZ
 70
     1
280
     0
  0
ATTDEF
  5
58
330
42
100
AcDbEntity
  8
ASHADE
  6
Continuous
 62
     7
100
AcDbText
 10
0.0
 20
0.25
 30
0.0
 40
0.01
  1

100
AcDbAttributeDefinition
280
     0
  3
Look-at Y
  2
LAY
 70
     1
280
     0
  0
ATTDEF
  5
59
330
42
100
AcDbEntity
  8
ASHADE
  6
Continuous
 62
     7
100
AcDbText
 10
0.0
 20
0.265
 30
0.0
 40
0.01
  1

100
AcDbAttributeDefinition
280
     0
  3
Look-at X
  2
LAX
 70
     1
280
     0
  0
ATTDEF
  5
5A
330
42
100
AcDbEntity
  8
ASHADE
  6
Continuous
 62
     7
100
AcDbText
 10
0.0
 20
0.28
 30
0.0
 40
0.01
  1

100
AcDbAttributeDefinition
280
     0
  3

  2
GNAME
 70
     1
280
     0
  0
LINE
  5
5B
330
42
100
AcDbEntity
  8
ASHADE
  6
Continuous
 62
     7
100
AcDbLine
 10
0.1096591641591904
 20
0.2792398032442862
 30
0.0
 11
0.1279356915190555
 21
0.3257797704516674
 31
0.0
  0
LINE
  5
5C
330
42
100
AcDbEntity
  8
ASHADE
  6
Continuous
 62
     7
100
AcDbLine
 10
0.2041413561583015
 20
0.2198324514393849
 30
0.0
 11
0.2721884748777353
 21
0.2931099352525131
 31
0.0
  0
ENDBLK
  5
5E
330
42
100
AcDbEntity
  8
0
100
AcDbBlockEnd
  0
BLOCK
  5
85
330
5F
100
AcDbEntity
  8
0
100
AcDbBlockBegin
  2
sh_spot
 70
     2
 10
0.0
 20
0.0
 30
0.0
  3
sh_spot
  1

  0
LINE
  5
60
330
5F
100
AcDbEntity
  8
ASHADE
  6
Continuous
 62
     7
100
AcDbLine
 10
0.25
 20
0.26
 30
0.0
 11
-0.25
 21
0.26
 31
0.0
  0
LINE
  5
61
330
5F
100
AcDbEntity
  8
ASHADE
  6
Continuous
 62
     7
100
AcDbLine
 10
-0.25
 20
-0.3399999999999999
 30
0.0
 11
0.25
 21
-0.3399999999999999
 31
0.0
  0
ATTDEF
  5
62
330
5F
100
AcDbEntity
  8
ASHADE
  6
Continuous
 62
     1
100
AcDbText
 10
0.0
 20
-0.1
 30
0.0
 40
0.2
  1

  7
ASHADE
 72
     1
 11
0.0
 21
-0.1
 31
0.0
100
AcDbAttributeDefinition
280
     0
  3
Light Name
  2
SNAME
 70
     0
280
     0
  0
LINE
  5
63
330
5F
100
AcDbEntity
  8
ASHADE
  6
Continuous
 62
     7
100
AcDbLine
 10
-0.25
 20
-0.13
 30
0.0
 11
-0.25
 21
-0.3399999999999999
 31
0.0
  0
LINE
  5
64
330
5F
100
AcDbEntity
  8
ASHADE
  6
Continuous
 62
     7
100
AcDbLine
 10
-0.25
 20
-0.18
 30
0.0
 11
-0.29
 21
-0.18
 31
0.0
  0
LINE
  5
65
330
5F
100
AcDbEntity
  8
ASHADE
  6
Continuous
 62
     7
100
AcDbLine
 10
-0.29
 20
-0.22
 30
0.0
 11
-0.25
 21
-0.22
 31
0.0
  0
LINE
  5
66
330
5F
100
AcDbEntity
  8
ASHADE
  6
Continuous
 62
     7
100
AcDbLine
 10
-0.29
 20
-0.18
 30
0.0
 11
-0.29
 21
-0.22
 31
0.0
  0
LINE
  5
67
330
5F
100
AcDbEntity
  8
ASHADE
  6
Continuous
 62
     7
100
AcDbLine
 10
-0.1045454545454545
 20
0.26
 30
0.0
 11
-0.15
 21
0.46
 31
0.0
  0
LINE
  5
68
330
5F
100
AcDbEntity
  8
ASHADE
  6
Continuous
 62
     7
100
AcDbLine
 10
-0.21
 20
0.26
 30
0.0
 11
-0.301304347826087
 21
0.46
 31
0.0
  0
LINE
  5
69
330
5F
100
AcDbEntity
  8
ASHADE
  6
Continuous
 62
     7
100
AcDbLine
 10
-0.25
 20
0.26
 30
0.0
 11
-0.25
 21
0.13
 31
0.0
  0
LINE
  5
6A
330
5F
100
AcDbEntity
  8
ASHADE
  6
Continuous
 62
     7
100
AcDbLine
 10
-0.25
 20
0.22
 30
0.0
 11
-0.29
 21
0.22
 31
0.0
  0
LINE
  5
6B
330
5F
100
AcDbEntity
  8
ASHADE
  6
Continuous
 62
     7
100
AcDbLine
 10
-0.29
 20
0.1799999999999999
 30
0.0
 11
-0.25
 21
0.1799999999999999
 31
0.0
  0
LINE
  5
6C
330
5F
100
AcDbEntity
  8
ASHADE
  6
Continuous
 62
     7
100
AcDbLine
 10
-0.29
 20
0.22
 30
0.0
 11
-0.29
 21
0.1799999999999999
 31
0.0
  0
ATTDEF
  5
6D
330
5F
100
AcDbEntity
  8
ASHADE
  6
Continuous
 62
     7
100
AcDbText
 10
0.0
 20
-0.24
 30
0.0
 40
0.01
  1
0
100
AcDbAttributeDefinition
280
     0
  3
Depth Map Size
  2
ZSIZE
 70
     1
280
     0
  0
ATTDEF
  5
6E
330
5F
100
AcDbEntity
  8
ASHADE
  6
Continuous
 62
     7
100
AcDbText
 10
0.0
 20
-0.3300000000000001
 30
0.0
 40
0.01
  1
0,0,0
100
AcDbAttributeDefinition
280
     0
  3
Look-from XYZ
  2
LFXYZ
 70
     1
280
     0
  0
ATTDEF
  5
6F
330
5F
100
AcDbEntity
  8
ASHADE
  6
Continuous
 62
     7
100
AcDbText
 10
0.0
 20
-0.315
 30
0.0
 40
0.01
  1
0.0
100
AcDbAttributeDefinition
280
     0
  3
Beam Distribution
  2
BEAMDI
 70
     1
280
     0
  0
ATTDEF
  5
70
330
5F
100
AcDbEntity
  8
ASHADE
  6
Continuous
 62
     7
100
AcDbText
 10
0.0
 20
-0.3
 30
0.0
 40
0.01
  1
0.0
100
AcDbAttributeDefinition
280
     0
  3
Cone Delta
  2
CONEDE
 70
     1
280
     0
  0
ATTDEF
  5
71
330
5F
100
AcDbEntity
  8
ASHADE
  6
Continuous
 62
     7
100
AcDbText
 10
0.0
 20
-0.2850000000000001
 30
0.0
 40
0.01
  1
10.0
100
AcDbAttributeDefinition
280
     0
  3
Cone Angle
  2
CONEAN
 70
     1
280
     0
  0
ATTDEF
  5
72
330
5F
100
AcDbEntity
  8
ASHADE
  6
Continuous
 62
     7
100
AcDbText
 10
0.0
 20
-0.27
 30
0.0
 40
0.01
  1
-1
100
AcDbAttributeDefinition
280
     0
  3
*not used*
  2
BIASMAX
 70
     1
280
     0
  0
ATTDEF
  5
73
330
5F
100
AcDbEntity
  8
ASHADE
  6
Continuous
 62
     7
100
AcDbText
 10
0.0
 20
-0.255
 30
0.0
 40
0.01
  1
-1
100
AcDbAttributeDefinition
280
     0
  3
*not used*
  2
BIASMIN
 70
     1
280
     0
  0
ATTDEF
  5
74
330
5F
100
AcDbEntity
  8
ASHADE
  6
Continuous
 62
     7
100
AcDbText
 10
0.0
 20
-0.225
 30
0.0
 40
0.01
  1
1,1,1
100
AcDbAttributeDefinition
280
     0
  3
Light Color (RGB)
  2
COLOR
 70
     1
280
     0
  0
ATTDEF
  5
75
330
5F
100
AcDbEntity
  8
ASHADE
  6
Continuous
 62
     7
100
AcDbText
 10
0.0
 20
-0.21
 30
0.0
 40
0.01
  1
1
100
AcDbAttributeDefinition
280
     0
  3
Light Intensity
  2
INTENSITY
 70
     1
280
     0
  0
ATTDEF
  5
76
330
5F
100
AcDbEntity
  8
ASHADE
  6
Continuous
 62
     7
100
AcDbText
 10
0.0
 20
-0.15
 30
0.0
 40
0.01
  1

100
AcDbAttributeDefinition
280
     0
  3

  2
GNAME
 70
     1
280
     0
  0
ATTDEF
  5
77
330
5F
100
AcDbEntity
  8
ASHADE
  6
Continuous
 62
     7
100
AcDbText
 10
0.0
 20
-0.195
 30
0.0
 40
0.01
  1

100
AcDbAttributeDefinition
280
     0
  3
Look-at Z
  2
LAZ
 70
     1
280
     0
  0
ATTDEF
  5
78
330
5F
100
AcDbEntity
  8
ASHADE
  6
Continuous
 62
     7
100
AcDbText
 10
0.0
 20
-0.18
 30
0.0
 40
0.01
  1

100
AcDbAttributeDefinition
280
     0
  3
Look-at Y
  2
LAY
 70
     1
280
     0
  0
ATTDEF
  5
79
330
5F
100
AcDbEntity
  8
ASHADE
  6
Continuous
 62
     7
100
AcDbText
 10
0.0
 20
-0.165
 30
0.0
 40
0.01
  1

100
AcDbAttributeDefinition
280
     0
  3
Look-at X
  2
LAX
 70
     1
280
     0
  0
LINE
  5
7A
330
5F
100
AcDbEntity
  8
ASHADE
  6
Continuous
 62
     7
100
AcDbLine
 10
0.25
 20
-0.3399999999999999
 30
0.0
 11
0.25
 21
-0.13
 31
0.0
  0
LINE
  5
7B
330
5F
100
AcDbEntity
  8
ASHADE
  6
Continuous
 62
     7
100
AcDbLine
 10
0.25
 20
-0.18
 30
0.0
 11
0.29
 21
-0.18
 31
0.0
  0
LINE
  5
7C
330
5F
100
AcDbEntity
  8
ASHADE
  6
Continuous
 62
     7
100
AcDbLine
 10
0.29
 20
-0.22
 30
0.0
 11
0.25
 21
-0.22
 31
0.0
  0
LINE
  5
7D
330
5F
100
AcDbEntity
  8
ASHADE
  6
Continuous
 62
     7
100
AcDbLine
 10
0.29
 20
-0.18
 30
0.0
 11
0.29
 21
-0.22
 31
0.0
  0
LINE
  5
7E
330
5F
100
AcDbEntity
  8
ASHADE
  6
Continuous
 62
     7
100
AcDbLine
 10
0.21
 20
0.26
 30
0.0
 11
0.301304347826087
 21
0.46
 31
0.0
  0
LINE
  5
7F
330
5F
100
AcDbEntity
  8
ASHADE
  6
Continuous
 62
     7
100
AcDbLine
 10
0.1045454545454545
 20
0.26
 30
0.0
 11
0.15
 21
0.46
 31
0.0
  0
LINE
  5
80
330
5F
100
AcDbEntity
  8
ASHADE
  6
Continuous
 62
     7
100
AcDbLine
 10
0.0
 20
0.26
 30
0.0
 11
0.0
 21
0.46
 31
0.0
  0
LINE
  5
81
330
5F
100
AcDbEntity
  8
ASHADE
  6
Continuous
 62
     7
100
AcDbLine
 10
0.25
 20
0.13
 30
0.0
 11
0.25
 21
0.26
 31
0.0
  0
LINE
  5
82
330
5F
100
AcDbEntity
  8
ASHADE
  6
Continuous
 62
     7
100
AcDbLine
 10
0.25
 20
0.22
 30
0.0
 11
0.29
 21
0.22
 31
0.0
  0
LINE
  5
83
330
5F
100
AcDbEntity
  8
ASHADE
  6
Continuous
 62
     7
100
AcDbLine
 10
0.29
 20
0.1799999999999999
 30
0.0
 11
0.25
 21
0.1799999999999999
 31
0.0
  0
LINE
  5
84
330
5F
100
AcDbEntity
  8
ASHADE
  6
Continuous
 62
     7
100
AcDbLine
 10
0.29
 20
0.22
 30
0.0
 11
0.29
 21
0.1799999999999999
 31
0.0
  0
ENDBLK
  5
86
330
5F
100
AcDbEntity
  8
0
100
AcDbBlockEnd
  0
BLOCK
  5
92
330
91
100
AcDbEntity
  8
ASHADE
100
AcDbBlockBegin
  2
AVE_RENDER
 70
     0
 10
0.0
 20
0.0
 30
0.0
  3
AVE_RENDER
  1
AVE_RENDER
  0
ENDBLK
  5
93
330
91
100
AcDbEntity
  8
0
100
AcDbBlockEnd
  0
BLOCK
  5
A0
330
9F
100
AcDbEntity
  8
ASHADE
100
AcDbBlockBegin
  2
AVE_GLOBAL
 70
     0
 10
0.0
 20
0.0
 30
0.0
  3
AVE_GLOBAL
  1
AVE_GLOBAL
  0
ENDBLK
  5
A1
330
9F
100
AcDbEntity
  8
0
100
AcDbBlockEnd
  0
ENDSEC
  0
SECTION
  2
ENTITIES
  0
INSERT
  5
94
330
1F
100
AcDbEntity
  8
ASHADE
 62
     1
100
AcDbBlockReference
  2
AVE_RENDER
 10
0.0
 20
0.0
 30
0.0
1001
AVE_RENDER
1002
{
1070
     7
1000
Pref
1070
    30
1070
    20
1070
     1
1070
     0
1000

1070
    10
1070
     1
1070
    10
1040
1.0
1070
     1
1040
0.3
1040
0.7
1040
0.0
1040
10.0
1010
-1.0
1020
-1.0
1030
-1.0
1040
0.3
1070
    49
1070
     0
1070
     0
1010
1.0
1020
1.0
1030
1.0
1040
45.0
1070
     1
1070
     0
1000
WCS
1040
0.0
1070
     0
1040
10.0
1002
}
  0
INSERT
  5
95
330
1F
100
AcDbEntity
  8
ASHADE
 62
     3
100
AcDbBlockReference
  2
AVE_RENDER
 10
0.0
 20
0.0
 30
0.0
1001
AVE_RENDER
1002
{
1070
     0
1000
Full Opt
1070
     0
1070
     1
1070
     1
1070
     1
1070
     0
1070
     0
1070
     0
1070
     1
1070
     1
1040
0.0001
1040
0.0001
1002
}
  0
INSERT
  5
96
330
1F
100
AcDbEntity
  8
ASHADE
 62
     4
100
AcDbBlockReference
  2
AVE_RENDER
 10
0.0
 20
0.0
 30
0.0
1001
AVE_RENDER
1002
{
1070
     0
1000
Quick Opt
1070
     0
1070
     1
1070
     1
1070
     1
1070
     0
1070
     0
1070
     1
1002
}
  0
INSERT
  5
97
330
1F
100
AcDbEntity
  8
ASHADE
 62
     5
100
AcDbBlockReference
  2
AVE_RENDER
 10
0.0
 20
0.0
 30
0.0
1001
AVE_RENDER
1002
{
1070
     1
1000
Scanl Opt
1070
     2
1070
     0
1070
     2
1040
2.0
1040
4.0
1070
     0
1070
     1
1070
     0
1040
0.03
1002
}
  0
INSERT
  5
98
330
1F
100
AcDbEntity
  8
ASHADE
 62
     6
100
AcDbBlockReference
  2
AVE_RENDER
 10
0.0
 20
0.0
 30
0.0
1001
AVE_RENDER
1002
{
1070
     2
1000
Raytr Opt
1070
     2
1070
     0
1070
     2
1040
2.0
1040
4.0
1070
     0
1070
     1
1070
     1
1040
0.03
1070
     3
1040
0.03
1002
}
  0
INSERT
  5
99
330
1F
100
AcDbEntity
  8
ASHADE
 62
     7
100
AcDbBlockReference
  2
AVE_RENDER
 10
0.0
 20
0.0
 30
0.0
1001
AVE_RENDER
1002
{
1070
     0
1000
RFile Opt
1070
     1
1070
   640
1070
   480
1070
 10000
1070
     1
1070
     8
1070
     8
1070
     0
1070
     0
1070
     0
1070
     0
1070
     0
1070
     0
1070
     0
1002
}
  0
INSERT
  5
9A
330
1F
100
AcDbEntity
  8
ASHADE
 62
     8
100
AcDbBlockReference
  2
AVE_RENDER
 10
0.0
 20
0.0
 30
0.0
1001
AVE_RENDER
1002
{
1070
     0
1000
Fog Opt
1070
     0
1070
     0
1040
0.0
1040
1.0
1040
0.0
1040
1.0
1010
0.5
1020
0.5
1030
0.5
1002
}
  0
INSERT
  5
9B
330
1F
100
AcDbEntity
  8
ASHADE
 62
     9
100
AcDbBlockReference
  2
AVE_RENDER
 10
0.0
 20
0.0
 30
0.0
1001
AVE_RENDER
1002
{
1070
     0
1000
BG Opt
1070
     0
1070
     1
1010
0.0
1020
0.0
1030
0.0
1010
1.0
1020
0.0
1030
0.0
1010
0.0
1020
1.0
1030
0.0
1010
0.0
1020
0.0
1030
1.0
1040
0.5
1040
0.33
1040
0.0
1000

1070
     1
1000

1070
     1
1070
     1
1040
1.0
1040
1.0
1040
0.0
1040
0.0
1070
     0
1002
}
  0
INSERT
  5
A2
330
1F
100
AcDbEntity
  8
ASHADE
 62
     1
100
AcDbBlockReference
  2
AVE_GLOBAL
 10
0.0
 20
0.0
 30
0.0
1001
AVE_MATERIAL
1002
{
1000
*GLOBAL*
1000
2
1000
Global finish.
1002
{
1002
}
1002
{
1070
    63
1002
{
1002
{
1010
-1.0
1020
-1.0
1030
-1.0
1002
}
1040
0.1000000014901161
1000

1040
0.0
1002
{
1002
}
1040
0.0
1002
{
1002
}
1040
0.0
1002
}
1002
{
1002
{
1010
-1.0
1020
-1.0
1030
-1.0
1002
}
1040
0.6999999880790711
1000

1040
0.0
1002
{
1002
}
1040
0.0
1002
{
1002
}
1040
0.0
1002
}
1002
{
1002
{
1010
-1.0
1020
-1.0
1030
-1.0
1002
}
1040
0.2000000029802322
1000

1040
0.0
1002
{
1002
}
1040
0.0
1002
{
1002
}
1040
0.0
1002
}
1002
{
1070
     0
1002
{
1070
     1
1002
{
1040
1.0
1040
1.0
1000

1040
0.0
1002
{
1002
}
1040
0.0
1002
{
1002
}
1040
0.0
1002
}
1002
}
1040
1.0
1040
0.0
1040
0.0
1002
}
1002
{
1040
1.0
1040
1.0
1000

1040
0.0
1002
{
1002
}
1040
0.0
1002
{
1002
}
1040
0.0
1002
}
1002
{
1040
0.5
1040
1.0
1000

1040
0.0
1002
{
1002
}
1040
0.0
1002
{
1002
}
1040
0.0
1002
}
1002
{
1070
     0
1040
0.0
1002
{
1002
}
1040
1.0
1002
{
1002
}
1040
0.0
1002
}
1002
{
1040
0.0
1002
{
1002
{
1010
0.0
1020
0.0
1030
0.0
1002
}
1040
1.0
1000

1040
0.0
1002
{
1002
}
1040
0.0
1002
{
1002
}
1040
0.0
1002
}
1002
}
1002
{
1002
{
1070
     1
1002
{
1040
0.0
1040
1.0
1000

1040
0.0
1002
{
1002
}
1040
0.0
1002
{
1002
}
1040
0.0
1002
}
1002
}
1040
0.0
1002
{
1002
}
1010
1.0
1020
0.0
1030
0.0
1010
0.0
1020
1.0
1030
0.0
1010
0.0
1020
0.0
1030
1.0
1070
     0
1002
}
1002
{
1002
{
1040
1.0
1040
1.0
1002
{
1070
     1
1002
{
1040
1.0
1040
1.0
1000

1040
0.0
1002
{
1002
}
1040
0.0
1002
{
1002
}
1040
0.0
1002
}
1002
}
1002
}
1070
     0
1040
0.0
1002
{
1002
}
1002
}
1002
{
1002
}
1002
}
1002
{
1071
        3
1070
     3
1070
     0
1002
{
1070
     2
1070
     0
1070
     0
1040
0.0
1002
}
1070
     0
1070
     2
1002
{
1002
}
1002
}
1002
{
1040
8030.0
1040
190.3000030517578
1040
0.3050000071525574
1040
228.0
1040
545.0
1040
14.0
1040
17.39999961853027
1040
0.4560000002384186
1002
}
1002
}
  0
POLYLINE
  5
F9
330
1F
100
AcDbEntity
  8
OracDecor_cornice_mouldings
 62
    73
420
  9429335
100
AcDb3dPolyline
 66
     1
 10
0.0
 20
0.0
 30
0.0
 70
     9
  0
VERTEX
  5
FA
330
F9
100
AcDbEntity
  8
OracDecor_cornice_mouldings
 62
    73
420
  9429335
100
AcDbVertex
100
AcDb3dPolylineVertex
 10
-0.0000972395864665
 20
204.5001983642578
 30
0.0
 70
    32
  0
VERTEX
  5
FB
330
F9
100
AcDbEntity
  8
OracDecor_cornice_mouldings
 62
    73
420
  9429335
100
AcDbVertex
100
AcDb3dPolylineVertex
 10
-0.000098304648418
 20
211.5537719726563
 30
-7.053543090820312
 70
    32
  0
VERTEX
  5
FC
330
F9
100
AcDbEntity
  8
OracDecor_cornice_mouldings
 62
    73
420
  9429335
100
AcDbVertex
100
AcDb3dPolylineVertex
 10
-0.0000983210120467
 20
211.6621551513672
 30
-7.21575927734375
 70
    32
  0
VERTEX
  5
FD
330
F9
100
AcDbEntity
  8
OracDecor_cornice_mouldings
 62
    73
420
  9429335
100
AcDbVertex
100
AcDb3dPolylineVertex
 10
-0.0000983267600532
 20
211.7002258300781
 30
-7.4071044921875
 70
    32
  0
VERTEX
  5
FE
330
F9
100
AcDbEntity
  8
OracDecor_cornice_mouldings
 62
    73
420
  9429335
100
AcDbVertex
100
AcDb3dPolylineVertex
 10
-0.0000983267600532
 20
211.7002258300781
 30
-12.39999389648437
 70
    32
  0
VERTEX
  5
FF
330
F9
100
AcDbEntity
  8
OracDecor_cornice_mouldings
 62
    73
420
  9429335
100
AcDbVertex
100
AcDb3dPolylineVertex
 10
-0.0000983166464721
 20
211.6332244873047
 30
-12.64999389648437
 70
    32
  0
VERTEX
  5
100
330
F9
100
AcDbEntity
  8
OracDecor_cornice_mouldings
 62
    73
420
  9429335
100
AcDbVertex
100
AcDb3dPolylineVertex
 10
-0.0000982890123851
 20
211.4502258300781
 30
-12.8330078125
 70
    32
  0
VERTEX
  5
101
330
F9
100
AcDbEntity
  8
OracDecor_cornice_mouldings
 62
    73
420
  9429335
100
AcDbVertex
100
AcDb3dPolylineVertex
 10
-0.000098251264717
 20
211.2002258300781
 30
-12.89999389648437
 70
    32
  0
VERTEX
  5
102
330
F9
100
AcDbEntity
  8
OracDecor_cornice_mouldings
 62
    73
420
  9429335
100
AcDbVertex
100
AcDb3dPolylineVertex
 10
-0.0001000714182737
 20
122.200210571289
 30
-12.90000915527343
 70
    32
  0
VERTEX
  5
103
330
F9
100
AcDbEntity
  8
OracDecor_cornice_mouldings
 62
    73
420
  9429335
100
AcDbVertex
100
AcDb3dPolylineVertex
 10
-0.0001000336706056
 20
121.950210571289
 30
-12.96699523925781
 70
    32
  0
VERTEX
  5
104
330
F9
100
AcDbEntity
  8
OracDecor_cornice_mouldings
 62
    73
420
  9429335
100
AcDbVertex
100
AcDb3dPolylineVertex
 10
-0.0001000060365186
 20
121.7671966552734
 30
-13.15000915527344
 70
    32
  0
VERTEX
  5
105
330
F9
100
AcDbEntity
  8
OracDecor_cornice_mouldings
 62
    73
420
  9429335
100
AcDbVertex
100
AcDb3dPolylineVertex
 10
-0.0000999959229375
 20
121.700210571289
 30
-13.40000915527344
 70
    32
  0
VERTEX
  5
106
330
F9
100
AcDbEntity
  8
OracDecor_cornice_mouldings
 62
    73
420
  9429335
100
AcDbVertex
100
AcDb3dPolylineVertex
 10
-0.0000999959229375
 20
121.7002029418945
 30
-31.19998168945313
 70
    32
  0
VERTEX
  5
107
330
F9
100
AcDbEntity
  8
OracDecor_cornice_mouldings
 62
    73
420
  9429335
100
AcDbVertex
100
AcDb3dPolylineVertex
 10
-0.0000999858093564
 20
121.6332168579101
 30
-31.44998168945313
 70
    32
  0
VERTEX
  5
108
330
F9
100
AcDbEntity
  8
OracDecor_cornice_mouldings
 62
    73
420
  9429335
100
AcDbVertex
100
AcDb3dPolylineVertex
 10
-0.0000999581752694
 20
121.4502029418945
 30
-31.63299560546875
 70
    32
  0
VERTEX
  5
109
330
F9
100
AcDbEntity
  8
OracDecor_cornice_mouldings
 62
    73
420
  9429335
100
AcDbVertex
100
AcDb3dPolylineVertex
 10
-0.0000999204276013
 20
121.2002029418945
 30
-31.69998168945312
 70
    32
  0
VERTEX
  5
10A
330
F9
100
AcDbEntity
  8
OracDecor_cornice_mouldings
 62
    73
420
  9429335
100
AcDbVertex
100
AcDb3dPolylineVertex
 10
-0.0000910116432351
 20
62.20001220703125
 30
-31.69997406005859
 70
    32
  0
VERTEX
  5
10B
330
F9
100
AcDbEntity
  8
OracDecor_cornice_mouldings
 62
    73
420
  9429335
100
AcDbVertex
100
AcDb3dPolylineVertex
 10
-0.000090973895567
 20
61.95001220703125
 30
-31.76696014404297
 70
    32
  0
VERTEX
  5
10C
330
F9
100
AcDbEntity
  8
OracDecor_cornice_mouldings
 62
    73
420
  9429335
100
AcDbVertex
100
AcDb3dPolylineVertex
 10
-0.00009094626148
 20
61.76699829101562
 30
-31.94997406005859
 70
    32
  0
VERTEX
  5
10D
330
F9
100
AcDbEntity
  8
OracDecor_cornice_mouldings
 62
    73
420
  9429335
100
AcDbVertex
100
AcDb3dPolylineVertex
 10
-0.0000909361406229
 20
61.70001220703125
 30
-32.19997406005859
 70
    32
  0
VERTEX
  5
10E
330
F9
100
AcDbEntity
  8
OracDecor_cornice_mouldings
 62
    73
420
  9429335
100
AcDbVertex
100
AcDb3dPolylineVertex
 10
-0.0000909361406229
 20
61.70001220703125
 30
-61.19997406005859
 70
    32
  0
VERTEX
  5
10F
330
F9
100
AcDbEntity
  8
OracDecor_cornice_mouldings
 62
    73
420
  9429335
100
AcDbVertex
100
AcDb3dPolylineVertex
 10
-0.0000909260270419
 20
61.63302612304687
 30
-61.4499740600586
 70
    32
  0
VERTEX
  5
110
330
F9
100
AcDbEntity
  8
OracDecor_cornice_mouldings
 62
    73
420
  9429335
100
AcDbVertex
100
AcDb3dPolylineVertex
 10
-0.0000908983929548
 20
61.45001220703125
 30
-61.63298797607422
 70
    32
  0
VERTEX
  5
111
330
F9
100
AcDbEntity
  8
OracDecor_cornice_mouldings
 62
    73
420
  9429335
100
AcDbVertex
100
AcDb3dPolylineVertex
 10
-0.0000908606452867
 20
61.20001220703125
 30
-61.69997406005859
 70
    32
  0
VERTEX
  5
112
330
F9
100
AcDbEntity
  8
OracDecor_cornice_mouldings
 62
    73
420
  9429335
100
AcDbVertex
100
AcDb3dPolylineVertex
 10
0.0001118824948207
 20
32.20001220703125
 30
-61.69996643066406
 70
    32
  0
VERTEX
  5
113
330
F9
100
AcDbEntity
  8
OracDecor_cornice_mouldings
 62
    73
420
  9429335
100
AcDbVertex
100
AcDb3dPolylineVertex
 10
0.0001119202424889
 20
31.95001220703125
 30
-61.76695251464844
 70
    32
  0
VERTEX
  5
114
330
F9
100
AcDbEntity
  8
OracDecor_cornice_mouldings
 62
    73
420
  9429335
100
AcDbVertex
100
AcDb3dPolylineVertex
 10
0.0001119478765759
 20
31.76699829101563
 30
-61.94996643066406
 70
    32
  0
VERTEX
  5
115
330
F9
100
AcDbEntity
  8
OracDecor_cornice_mouldings
 62
    73
420
  9429335
100
AcDbVertex
100
AcDb3dPolylineVertex
 10
0.000111957990157
 20
31.70001220703125
 30
-62.19996643066406
 70
    32
  0
VERTEX
  5
116
330
F9
100
AcDbEntity
  8
OracDecor_cornice_mouldings
 62
    73
420
  9429335
100
AcDbVertex
100
AcDb3dPolylineVertex
 10
0.000111957990157
 20
31.69998168945312
 30
-101.2000274658203
 70
    32
  0
VERTEX
  5
117
330
F9
100
AcDbEntity
  8
OracDecor_cornice_mouldings
 62
    73
420
  9429335
100
AcDbVertex
100
AcDb3dPolylineVertex
 10
0.000111968103738
 20
31.63299560546875
 30
-101.4500274658203
 70
    32
  0
VERTEX
  5
118
330
F9
100
AcDbEntity
  8
OracDecor_cornice_mouldings
 62
    73
420
  9429335
100
AcDbVertex
100
AcDb3dPolylineVertex
 10
0.0001119957378251
 20
31.44998168945313
 30
-101.6330413818359
 70
    32
  0
VERTEX
  5
119
330
F9
100
AcDbEntity
  8
OracDecor_cornice_mouldings
 62
    73
420
  9429335
100
AcDbVertex
100
AcDb3dPolylineVertex
 10
0.0001120334927691
 20
31.19998168945313
 30
-101.7000274658203
 70
    32
  0
VERTEX
  5
11A
330
F9
100
AcDbEntity
  8
OracDecor_cornice_mouldings
 62
    73
420
  9429335
100
AcDbVertex
100
AcDb3dPolylineVertex
 10
0.0001147212169599
 20
13.39997863769531
 30
-101.7000198364258
 70
    32
  0
VERTEX
  5
11B
330
F9
100
AcDbEntity
  8
OracDecor_cornice_mouldings
 62
    73
420
  9429335
100
AcDbVertex
100
AcDb3dPolylineVertex
 10
0.000114758964628
 20
13.14997863769531
 30
-101.7670059204101
 70
    32
  0
VERTEX
  5
11C
330
F9
100
AcDbEntity
  8
OracDecor_cornice_mouldings
 62
    73
420
  9429335
100
AcDbVertex
100
AcDb3dPolylineVertex
 10
0.000114786598715
 20
12.96696472167969
 30
-101.9500198364257
 70
    32
  0
VERTEX
  5
11D
330
F9
100
AcDbEntity
  8
OracDecor_cornice_mouldings
 62
    73
420
  9429335
100
AcDbVertex
100
AcDb3dPolylineVertex
 10
0.0001147967122961
 20
12.89997863769531
 30
-102.2000198364258
 70
    32
  0
VERTEX
  5
11E
330
F9
100
AcDbEntity
  8
OracDecor_cornice_mouldings
 62
    73
420
  9429335
100
AcDbVertex
100
AcDb3dPolylineVertex
 10
0.0001147966904682
 20
12.900146484375
 30
-151.1999816894531
 70
    32
  0
VERTEX
  5
11F
330
F9
100
AcDbEntity
  8
OracDecor_cornice_mouldings
 62
    73
420
  9429335
100
AcDbVertex
100
AcDb3dPolylineVertex
 10
0.0001148068040493
 20
12.83316040039062
 30
-151.4499816894531
 70
    32
  0
VERTEX
  5
120
330
F9
100
AcDbEntity
  8
OracDecor_cornice_mouldings
 62
    73
420
  9429335
100
AcDbVertex
100
AcDb3dPolylineVertex
 10
0.0001148344381363
 20
12.650146484375
 30
-151.6329956054687
 70
    32
  0
VERTEX
  5
121
330
F9
100
AcDbEntity
  8
OracDecor_cornice_mouldings
 62
    73
420
  9429335
100
AcDbVertex
100
AcDb3dPolylineVertex
 10
0.0001148721858044
 20
12.400146484375
 30
-151.6999816894531
 70
    32
  0
VERTEX
  5
122
330
F9
100
AcDbEntity
  8
OracDecor_cornice_mouldings
 62
    73
420
  9429335
100
AcDbVertex
100
AcDb3dPolylineVertex
 10
0.0001156260914286
 20
7.407257080078125
 30
-151.699966430664
 70
    32
  0
VERTEX
  5
123
330
F9
100
AcDbEntity
  8
OracDecor_cornice_mouldings
 62
    73
420
  9429335
100
AcDbVertex
100
AcDb3dPolylineVertex
 10
0.0001156549769803
 20
7.215911865234375
 30
-151.6618957519531
 70
    32
  0
VERTEX
  5
124
330
F9
100
AcDbEntity
  8
OracDecor_cornice_mouldings
 62
    73
420
  9429335
100
AcDbVertex
100
AcDb3dPolylineVertex
 10
0.0001156794824055
 20
7.053680419921875
 30
-151.5535278320312
 70
    32
  0
VERTEX
  5
125
330
F9
100
AcDbEntity
  8
OracDecor_cornice_mouldings
 62
    73
420
  9429335
100
AcDbVertex
100
AcDb3dPolylineVertex
 10
0.0001167445370811
 20
0.000152587890625
 30
-144.4999694824218
 70
    32
  0
VERTEX
  5
126
330
F9
100
AcDbEntity
  8
OracDecor_cornice_mouldings
 62
    73
420
  9429335
100
AcDbVertex
100
AcDb3dPolylineVertex
 10
0.0001167402006104
 20
0.0288848876953125
 30
-128.1333923339843
 70
    32
  0
VERTEX
  5
127
330
F9
100
AcDbEntity
  8
OracDecor_cornice_mouldings
 62
    73
420
  9429335
100
AcDbVertex
100
AcDb3dPolylineVertex
 10
0.0001165156791103
 20
1.515762329101562
 30
-127.5913696289062
 70
    32
  0
VERTEX
  5
128
330
F9
100
AcDbEntity
  8
OracDecor_cornice_mouldings
 62
    73
420
  9429335
100
AcDbVertex
100
AcDb3dPolylineVertex
 10
0.000116423201689
 20
2.128189086914062
 30
-127.2158203125
 70
    32
  0
VERTEX
  5
129
330
F9
100
AcDbEntity
  8
OracDecor_cornice_mouldings
 62
    73
420
  9429335
100
AcDbVertex
100
AcDb3dPolylineVertex
 10
0.0001163603374152
 20
2.544631958007812
 30
-126.6315078735351
 70
    32
  0
VERTEX
  5
12A
330
F9
100
AcDbEntity
  8
OracDecor_cornice_mouldings
 62
    73
420
  9429335
100
AcDbVertex
100
AcDb3dPolylineVertex
 10
0.0001163369088317
 20
2.699722290039062
 30
-125.9309539794922
 70
    32
  0
VERTEX
  5
12B
330
F9
100
AcDbEntity
  8
OracDecor_cornice_mouldings
 62
    73
420
  9429335
100
AcDbVertex
100
AcDb3dPolylineVertex
 10
0.0001163566703326
 20
2.568832397460937
 30
-125.2254791259765
 70
    32
  0
VERTEX
  5
12C
330
F9
100
AcDbEntity
  8
OracDecor_cornice_mouldings
 62
    73
420
  9429335
100
AcDbVertex
100
AcDb3dPolylineVertex
 10
0.0001164164787042
 20
2.172775268554687
 30
-124.6271743774414
 70
    32
  0
VERTEX
  5
12D
330
F9
100
AcDbEntity
  8
OracDecor_cornice_mouldings
 62
    73
420
  9429335
100
AcDbVertex
100
AcDb3dPolylineVertex
 10
0.0001167445661849
 20
-0.0000152587890625
 30
-122.4543838500976
 70
    32
  0
VERTEX
  5
12E
330
F9
100
AcDbEntity
  8
OracDecor_cornice_mouldings
 62
    73
420
  9429335
100
AcDbVertex
100
AcDb3dPolylineVertex
 10
0.0001167445661849
 20
-0.0000152587890625
 30
-104.2970733642578
 70
    32
  0
VERTEX
  5
12F
330
F9
100
AcDbEntity
  8
OracDecor_cornice_mouldings
 62
    73
420
  9429335
100
AcDbVertex
100
AcDb3dPolylineVertex
 10
0.0001166658403235
 20
0.5212860107421875
 30
-103.7331161499023
 70
    32
  0
VERTEX
  5
130
330
F9
100
AcDbEntity
  8
OracDecor_cornice_mouldings
 62
    73
420
  9429335
100
AcDbVertex
100
AcDb3dPolylineVertex
 10
0.0001165676439996
 20
1.171615600585937
 30
-102.7598419189453
 70
    32
  0
VERTEX
  5
131
330
F9
100
AcDbEntity
  8
OracDecor_cornice_mouldings
 62
    73
420
  9429335
100
AcDbVertex
100
AcDb3dPolylineVertex
 10
0.0001165331705124
 20
1.399978637695312
 30
-101.6117935180664
 70
    32
  0
VERTEX
  5
132
330
F9
100
AcDbEntity
  8
OracDecor_cornice_mouldings
 62
    73
420
  9429335
100
AcDbVertex
100
AcDb3dPolylineVertex
 10
0.0001165331705124
 20
1.399993896484375
 30
-94.20001983642578
 70
    32
  0
VERTEX
  5
133
330
F9
100
AcDbEntity
  8
OracDecor_cornice_mouldings
 62
    73
420
  9429335
100
AcDbVertex
100
AcDb3dPolylineVertex
 10
0.0001164962231996
 20
1.64471435546875
 30
-92.65493774414062
 70
    32
  0
VERTEX
  5
134
330
F9
100
AcDbEntity
  8
OracDecor_cornice_mouldings
 62
    73
420
  9429335
100
AcDbVertex
100
AcDb3dPolylineVertex
 10
0.0001163889755844
 20
2.35491943359375
 30
-91.26109313964844
 70
    32
  0
VERTEX
  5
135
330
F9
100
AcDbEntity
  8
OracDecor_cornice_mouldings
 62
    73
420
  9429335
100
AcDbVertex
100
AcDb3dPolylineVertex
 10
0.0001162219487014
 20
3.4610595703125
 30
-90.15493774414062
 70
    32
  0
VERTEX
  5
136
330
F9
100
AcDbEntity
  8
OracDecor_cornice_mouldings
 62
    73
420
  9429335
100
AcDbVertex
100
AcDb3dPolylineVertex
 10
0.0001160114843515
 20
4.85491943359375
 30
-89.44473266601562
 70
    32
  0
VERTEX
  5
137
330
F9
100
AcDbEntity
  8
OracDecor_cornice_mouldings
 62
    73
420
  9429335
100
AcDbVertex
100
AcDb3dPolylineVertex
 10
0.0001157781880465
 20
6.399993896484375
 30
-89.20001983642578
 70
    32
  0
VERTEX
  5
138
330
F9
100
AcDbEntity
  8
OracDecor_cornice_mouldings
 62
    73
420
  9429335
100
AcDbVertex
100
AcDb3dPolylineVertex
 10
0.0001141474349424
 20
17.19999694824219
 30
-89.20001983642578
 70
    32
  0
VERTEX
  5
139
330
F9
100
AcDbEntity
  8
OracDecor_cornice_mouldings
 62
    73
420
  9429335
100
AcDbVertex
100
AcDb3dPolylineVertex
 10
0.0001140318636317
 20
17.96536254882812
 30
-89.04777526855468
 70
    32
  0
VERTEX
  5
13A
330
F9
100
AcDbEntity
  8
OracDecor_cornice_mouldings
 62
    73
420
  9429335
100
AcDbVertex
100
AcDb3dPolylineVertex
 10
0.0001139338928624
 20
18.61421203613281
 30
-88.6142349243164
 70
    32
  0
VERTEX
  5
13B
330
F9
100
AcDbEntity
  8
OracDecor_cornice_mouldings
 62
    73
420
  9429335
100
AcDbVertex
100
AcDb3dPolylineVertex
 10
0.0001138684237958
 20
19.04776000976562
 30
-87.96538543701172
 70
    32
  0
VERTEX
  5
13C
330
F9
100
AcDbEntity
  8
OracDecor_cornice_mouldings
 62
    73
420
  9429335
100
AcDbVertex
100
AcDb3dPolylineVertex
 10
0.0001138454390457
 20
19.19999694824219
 30
-87.19996643066407
 70
    32
  0
VERTEX
  5
13D
330
F9
100
AcDbEntity
  8
OracDecor_cornice_mouldings
 62
    73
420
  9429335
100
AcDbVertex
100
AcDb3dPolylineVertex
 10
0.0001138454390457
 20
19.20001220703125
 30
-59.19997406005859
 70
    32
  0
VERTEX
  5
13E
330
F9
100
AcDbEntity
  8
OracDecor_cornice_mouldings
 62
    73
420
  9429335
100
AcDbVertex
100
AcDb3dPolylineVertex
 10
0.0001137939907494
 20
19.54075622558594
 30
-56.61178588867187
 70
    32
  0
VERTEX
  5
13F
330
F9
100
AcDbEntity
  8
OracDecor_cornice_mouldings
 62
    73
420
  9429335
100
AcDbVertex
100
AcDb3dPolylineVertex
 10
0.0001136431455961
 20
20.53976440429687
 30
-54.19997406005859
 70
    32
  0
VERTEX
  5
140
330
F9
100
AcDbEntity
  8
OracDecor_cornice_mouldings
 62
    73
420
  9429335
100
AcDbVertex
100
AcDb3dPolylineVertex
 10
0.000113403184514
 20
22.12893676757813
 30
-52.12890625
 70
    32
  0
VERTEX
  5
141
330
F9
100
AcDbEntity
  8
OracDecor_cornice_mouldings
 62
    73
420
  9429335
100
AcDbVertex
100
AcDb3dPolylineVertex
 10
0.0001130904565798
 20
24.20001220703125
 30
-50.53971862792969
 70
    32
  0
VERTEX
  5
142
330
F9
100
AcDbEntity
  8
OracDecor_cornice_mouldings
 62
    73
420
  9429335
100
AcDbVertex
100
AcDb3dPolylineVertex
 10
0.0001127262876253
 20
26.61181640625
 30
-49.54071807861328
 70
    32
  0
VERTEX
  5
143
330
F9
100
AcDbEntity
  8
OracDecor_cornice_mouldings
 62
    73
420
  9429335
100
AcDbVertex
100
AcDb3dPolylineVertex
 10
0.0001123354813899
 20
29.20001220703125
 30
-49.19997406005859
 70
    32
  0
VERTEX
  5
144
330
F9
100
AcDbEntity
  8
OracDecor_cornice_mouldings
 62
    73
420
  9429335
100
AcDbVertex
100
AcDb3dPolylineVertex
 10
-0.0000887467031134
 20
47.20001220703125
 30
-49.19997406005859
 70
    32
  0
VERTEX
  5
145
330
F9
100
AcDbEntity
  8
OracDecor_cornice_mouldings
 62
    73
420
  9429335
100
AcDbVertex
100
AcDb3dPolylineVertex
 10
-0.0000888622671482
 20
47.96537780761719
 30
-49.0477294921875
 70
    32
  0
VERTEX
  5
146
330
F9
100
AcDbEntity
  8
OracDecor_cornice_mouldings
 62
    73
420
  9429335
100
AcDbVertex
100
AcDb3dPolylineVertex
 10
-0.0000889602451934
 20
48.61422729492187
 30
-48.61418914794922
 70
    32
  0
VERTEX
  5
147
330
F9
100
AcDbEntity
  8
OracDecor_cornice_mouldings
 62
    73
420
  9429335
100
AcDbVertex
100
AcDb3dPolylineVertex
 10
-0.0000890257069841
 20
49.04777526855468
 30
-47.96533966064453
 70
    32
  0
VERTEX
  5
148
330
F9
100
AcDbEntity
  8
OracDecor_cornice_mouldings
 62
    73
420
  9429335
100
AcDbVertex
100
AcDb3dPolylineVertex
 10
-0.0000890486917342
 20
49.20001220703125
 30
-47.19997406005859
 70
    32
  0
VERTEX
  5
149
330
F9
100
AcDbEntity
  8
OracDecor_cornice_mouldings
 62
    73
420
  9429335
100
AcDbVertex
100
AcDb3dPolylineVertex
 10
-0.0000890486917342
 20
49.20001220703125
 30
-29.1999740600586
 70
    32
  0
VERTEX
  5
14A
330
F9
100
AcDbEntity
  8
OracDecor_cornice_mouldings
 62
    73
420
  9429335
100
AcDbVertex
100
AcDb3dPolylineVertex
 10
-0.0000891001473065
 20
49.54074096679687
 30
-26.61178588867187
 70
    32
  0
VERTEX
  5
14B
330
F9
100
AcDbEntity
  8
OracDecor_cornice_mouldings
 62
    73
420
  9429335
100
AcDbVertex
100
AcDb3dPolylineVertex
 10
-0.0000892509924597
 20
50.53976440429687
 30
-24.19997406005859
 70
    32
  0
VERTEX
  5
14C
330
F9
100
AcDbEntity
  8
OracDecor_cornice_mouldings
 62
    73
420
  9429335
100
AcDbVertex
100
AcDb3dPolylineVertex
 10
-0.0000894909535418
 20
52.12893676757812
 30
-22.12908935546875
 70
    32
  0
VERTEX
  5
14D
330
F9
100
AcDbEntity
  8
OracDecor_cornice_mouldings
 62
    73
420
  9429335
100
AcDbVertex
100
AcDb3dPolylineVertex
 10
-0.0000898036742001
 20
54.20001220703125
 30
-20.53973388671875
 70
    32
  0
VERTEX
  5
14E
330
F9
100
AcDbEntity
  8
OracDecor_cornice_mouldings
 62
    73
420
  9429335
100
AcDbVertex
100
AcDb3dPolylineVertex
 10
-0.0000901678504306
 20
56.61181640625
 30
-19.54074096679687
 70
    32
  0
VERTEX
  5
14F
330
F9
100
AcDbEntity
  8
OracDecor_cornice_mouldings
 62
    73
420
  9429335
100
AcDbVertex
100
AcDb3dPolylineVertex
 10
-0.000090558656666
 20
59.20001220703125
 30
-19.19998168945312
 70
    32
  0
VERTEX
  5
150
330
F9
100
AcDbEntity
  8
OracDecor_cornice_mouldings
 62
    73
420
  9429335
100
AcDbVertex
100
AcDb3dPolylineVertex
 10
-0.000097806485428
 20
107.2002029418945
 30
-19.19999694824219
 70
    32
  0
VERTEX
  5
151
330
F9
100
AcDbEntity
  8
OracDecor_cornice_mouldings
 62
    73
420
  9429335
100
AcDbVertex
100
AcDb3dPolylineVertex
 10
-0.0000979220494628
 20
107.9655685424804
 30
-19.04777526855468
 70
    32
  0
VERTEX
  5
152
330
F9
100
AcDbEntity
  8
OracDecor_cornice_mouldings
 62
    73
420
  9429335
100
AcDbVertex
100
AcDb3dPolylineVertex
 10
-0.0000980200202321
 20
108.6144180297851
 30
-18.61421203613281
 70
    32
  0
VERTEX
  5
153
330
F9
100
AcDbEntity
  8
OracDecor_cornice_mouldings
 62
    73
420
  9429335
100
AcDbVertex
100
AcDb3dPolylineVertex
 10
-0.0000980854892987
 20
109.0479583740234
 30
-17.96537780761719
 70
    32
  0
VERTEX
  5
154
330
F9
100
AcDbEntity
  8
OracDecor_cornice_mouldings
 62
    73
420
  9429335
100
AcDbVertex
100
AcDb3dPolylineVertex
 10
-0.0000981084740488
 20
109.2002029418945
 30
-17.19999694824219
 70
    32
  0
VERTEX
  5
155
330
F9
100
AcDbEntity
  8
OracDecor_cornice_mouldings
 62
    73
420
  9429335
100
AcDbVertex
100
AcDb3dPolylineVertex
 10
-0.0000981084740488
 20
109.2002029418945
 30
-6.400009155273437
 70
    32
  0
VERTEX
  5
156
330
F9
100
AcDbEntity
  8
OracDecor_cornice_mouldings
 62
    73
420
  9429335
100
AcDbVertex
100
AcDb3dPolylineVertex
 10
-0.0000981454286375
 20
109.4449234008789
 30
-4.854934692382812
 70
    32
  0
VERTEX
  5
157
330
F9
100
AcDbEntity
  8
OracDecor_cornice_mouldings
 62
    73
420
  9429335
100
AcDbVertex
100
AcDb3dPolylineVertex
 10
-0.0000982526617008
 20
110.1551208496093
 30
-3.461074829101562
 70
    32
  0
VERTEX
  5
158
330
F9
100
AcDbEntity
  8
OracDecor_cornice_mouldings
 62
    73
420
  9429335
100
AcDbVertex
100
AcDb3dPolylineVertex
 10
-0.0000984196885838
 20
111.2612686157226
 30
-2.354934692382812
 70
    32
  0
VERTEX
  5
159
330
F9
100
AcDbEntity
  8
OracDecor_cornice_mouldings
 62
    73
420
  9429335
100
AcDbVertex
100
AcDb3dPolylineVertex
 10
-0.0000986301529338
 20
112.6551284790039
 30
-1.644729614257812
 70
    32
  0
VERTEX
  5
15A
330
F9
100
AcDbEntity
  8
OracDecor_cornice_mouldings
 62
    73
420
  9429335
100
AcDbVertex
100
AcDb3dPolylineVertex
 10
-0.0000988634492387
 20
114.2002029418945
 30
-1.400009155273437
 70
    32
  0
VERTEX
  5
15B
330
F9
100
AcDbEntity
  8
OracDecor_cornice_mouldings
 62
    73
420
  9429335
100
AcDbVertex
100
AcDb3dPolylineVertex
 10
-0.0001030025159707
 20
141.6119689941406
 30
-1.399993896484375
 70
    32
  0
VERTEX
  5
15C
330
F9
100
AcDbEntity
  8
OracDecor_cornice_mouldings
 62
    73
420
  9429335
100
AcDbVertex
100
AcDb3dPolylineVertex
 10
-0.0001031758656609
 20
142.7600402832031
 30
-1.171630859375
 70
    32
  0
VERTEX
  5
15D
330
F9
100
AcDbEntity
  8
OracDecor_cornice_mouldings
 62
    73
420
  9429335
100
AcDbVertex
100
AcDb3dPolylineVertex
 10
-0.0001033228254528
 20
143.7333068847656
 30
-0.5213165283203125
 70
    32
  0
VERTEX
  5
15E
330
F9
100
AcDbEntity
  8
OracDecor_cornice_mouldings
 62
    73
420
  9429335
100
AcDbVertex
100
AcDb3dPolylineVertex
 10
-0.0001034079832607
 20
144.2972564697265
 30
0.0
 70
    32
  0
VERTEX
  5
15F
330
F9
100
AcDbEntity
  8
OracDecor_cornice_mouldings
 62
    73
420
  9429335
100
AcDbVertex
100
AcDb3dPolylineVertex
 10
-0.000105696679384
 20
159.4546203613281
 30
0.0
 70
    32
  0
VERTEX
  5
160
330
F9
100
AcDbEntity
  8
OracDecor_cornice_mouldings
 62
    73
420
  9429335
100
AcDbVertex
100
AcDb3dPolylineVertex
 10
-0.0001060247668647
 20
161.6274108886718
 30
-2.172805786132812
 70
    32
  0
VERTEX
  5
161
330
F9
100
AcDbEntity
  8
OracDecor_cornice_mouldings
 62
    73
420
  9429335
100
AcDbVertex
100
AcDb3dPolylineVertex
 10
-0.0001061150614987
 20
162.2254180908203
 30
-2.568740844726562
 70
    32
  0
VERTEX
  5
162
330
F9
100
AcDbEntity
  8
OracDecor_cornice_mouldings
 62
    73
420
  9429335
100
AcDbVertex
100
AcDb3dPolylineVertex
 10
-0.0001062215305865
 20
162.9305419921875
 30
-2.699752807617187
 70
    32
  0
VERTEX
  5
163
330
F9
100
AcDbEntity
  8
OracDecor_cornice_mouldings
 62
    73
420
  9429335
100
AcDbVertex
100
AcDb3dPolylineVertex
 10
-0.0001063272793544
 20
163.630859375
 30
-2.545028686523437
 70
    32
  0
VERTEX
  5
164
330
F9
100
AcDbEntity
  8
OracDecor_cornice_mouldings
 62
    73
420
  9429335
100
AcDbVertex
100
AcDb3dPolylineVertex
 10
-0.0001064155076165
 20
164.2151794433593
 30
-2.129165649414062
 70
    32
  0
VERTEX
  5
165
330
F9
100
AcDbEntity
  8
OracDecor_cornice_mouldings
 62
    73
420
  9429335
100
AcDbVertex
100
AcDb3dPolylineVertex
 10
-0.0001064722091542
 20
164.5907287597656
 30
-1.518173217773437
 70
    32
  0
VERTEX
  5
166
330
F9
100
AcDbEntity
  8
OracDecor_cornice_mouldings
 62
    73
420
  9429335
100
AcDbVertex
100
AcDb3dPolylineVertex
 10
-0.0001065546020982
 20
165.1363830566406
 30
-0.0282135009765625
 70
    32
  0
VERTEX
  5
167
330
F9
100
AcDbEntity
  8
OracDecor_cornice_mouldings
 62
    73
420
  9429335
100
AcDbVertex
100
AcDb3dPolylineVertex
 10
-0.0000946657746681
 20
187.4546203613281
 30
-0.0000152587890625
 70
    32
  0
VERTEX
  5
168
330
F9
100
AcDbEntity
  8
OracDecor_cornice_mouldings
 62
    73
420
  9429335
100
AcDbVertex
100
AcDb3dPolylineVertex
 10
-0.0000949938548729
 20
189.6274108886719
 30
-2.17279052734375
 70
    32
  0
VERTEX
  5
169
330
F9
100
AcDbEntity
  8
OracDecor_cornice_mouldings
 62
    73
420
  9429335
100
AcDbVertex
100
AcDb3dPolylineVertex
 10
-0.0000950841931626
 20
190.2256469726562
 30
-2.568832397460937
 70
    32
  0
VERTEX
  5
16A
330
F9
100
AcDbEntity
  8
OracDecor_cornice_mouldings
 62
    73
420
  9429335
100
AcDbVertex
100
AcDb3dPolylineVertex
 10
-0.0000951907059061
 20
190.9310607910156
 30
-2.699737548828125
 70
    32
  0
VERTEX
  5
16B
330
F9
100
AcDbEntity
  8
OracDecor_cornice_mouldings
 62
    73
420
  9429335
100
AcDbVertex
100
AcDb3dPolylineVertex
 10
-0.000095296476502
 20
191.6315612792969
 30
-2.544708251953125
 70
    32
  0
VERTEX
  5
16C
330
F9
100
AcDbEntity
  8
OracDecor_cornice_mouldings
 62
    73
420
  9429335
100
AcDbVertex
100
AcDb3dPolylineVertex
 10
-0.000095384704764
 20
192.2158813476562
 30
-2.128402709960937
 70
    32
  0
VERTEX
  5
16D
330
F9
100
AcDbEntity
  8
OracDecor_cornice_mouldings
 62
    73
420
  9429335
100
AcDbVertex
100
AcDb3dPolylineVertex
 10
-0.0000954414499574
 20
192.5916748046875
 30
-1.515594482421875
 70
    32
  0
VERTEX
  5
16E
330
F9
100
AcDbEntity
  8
OracDecor_cornice_mouldings
 62
    73
420
  9429335
100
AcDbVertex
100
AcDb3dPolylineVertex
 10
-0.0000955232826527
 20
193.1336364746093
 30
-0.028900146484375
 70
    32
  0
SEQEND
  5
16F
330
F9
100
AcDbEntity
  8
OracDecor_cornice_mouldings
 62
    73
420
  9429335
  0
MESH
  5
170
330
1F
100
AcDbEntity
  8
OracDecor_cornice_mouldings
 62
    73
420
  9429335
160
             36080
310
F08C0000EA0300000C00000013000000020000003C00000006000000020000000000004000408FC00000008066766AC000000000E4A01DC0000000C0FF3F8F400000006067766AC000000000E0A01DC00C000000130000000A0000003C0000000600000002000000000000C0FF3F8F40000000802F756AC000000000F0DC1C
310
C0000000C0FF3F8F400000006067766AC000000000E0A01DC00C00000013000000120000003C00000006000000020000000000004000408FC0000000A02E756AC000000000F4DC1CC0000000C0FF3F8F40000000802F756AC000000000F0DC1CC00C000000130000001A0000003C0000000600000002000000000000400040
310
8FC00000008066766AC000000000E4A01DC00000004000408FC0000000A02E756AC000000000F4DC1CC00C00000013000000220000003C0000000600000002000000000000C0FF3F8F40000000C0B7716AC000000000D8361CC0000000C0FF3F8F40000000802F756AC000000000F0DC1CC00C000000130000002A0000003C
310
00000006000000020000000000004000408FC0000000E0B6716AC000000000D8361CC0000000C0FF3F8F40000000C0B7716AC000000000D8361CC00C00000013000000320000003C00000006000000020000000000004000408FC0000000A02E756AC000000000F4DC1CC00000004000408FC0000000E0B6716AC000000000
310
D8361CC00C000000130000003A0000003C0000000600000002000000000000C0FF3F8F40000000E0009069C00000000000000000000000C0FF3F8F40000000C0B7716AC000000000D8361CC00C00000013000000420000003C00000006000000020000000000004000408FC000000020009069C0000000000000F0BE000000
310
C0FF3F8F40000000E0009069C000000000000000000C000000130000004A0000003C00000006000000020000000000004000408FC000000020009069C0000000000000F0BE0000004000408FC0000000E0B6716AC000000000D8361CC00C00000013000000520000003C0000000600000002000000000000C0FF3F8F400000
310
00E0009069C00000000000000000000000C0FF3F8F40000000A0452468C00000000000989DBF0C000000130000005A0000003C00000006000000020000000000004000408FC0000000A0442468C00000000000949DBF000000C0FF3F8F40000000A0452468C00000000000989DBF0C00000013000000620000003C00000006
310
000000020000000000004000408FC000000020009069C0000000000000F0BE0000004000408FC0000000A0442468C00000000000949DBF0C000000130000006A0000003C0000000600000002000000000000C0FF3F8F4000000020EE1268C000000000E03FF8BF000000C0FF3F8F40000000A0452468C00000000000989DBF
310
0C00000013000000720000003C00000006000000020000000000004000408FC000000060ED1268C000000000F03FF8BF000000C0FF3F8F4000000020EE1268C000000000E03FF8BF0C000000130000007A0000003C00000006000000020000000000004000408FC0000000A0442468C00000000000949DBF0000004000408F
310
C000000060ED1268C000000000F03FF8BF0C00000013000000820000003C0000000600000002000000000000C0FF3F8F4000000020EE1268C000000000E03FF8BF000000C0FF3F8F40000000A0E80668C000000000C00601C00C000000130000008A0000003C00000006000000020000000000004000408FC0000000C0E806
310
68C000000000880601C0000000C0FF3F8F40000000A0E80668C000000000C00601C00C00000013000000920000003C00000006000000020000000000004000408FC000000060ED1268C000000000F03FF8BF0000004000408FC0000000C0E80668C000000000880601C00C000000130000009A0000003C0000000600000002
310
000000000000C0FF3F8F40000000A0E80668C000000000C00601C0000000C0FF3F8F40000000E035F467C000000000805B04C00C00000013000000A20000003C00000006000000020000000000004000408FC00000000036F467C000000000685B04C0000000C0FF3F8F40000000E035F467C000000000805B04C00C000000
310
13000000AA0000003C00000006000000020000000000004000408FC0000000C0E80668C000000000880601C00000004000408FC00000000036F467C000000000685B04C00C00000013000000B20000003C0000000600000002000000000000C0FF3F8F40000000E035F467C000000000805B04C0000000C0FF3F8F40000000
310
20CBDD67C000000000109905C00C00000013000000BA0000003C00000006000000020000000000004000408FC000000000CBDD67C000000000189905C0000000C0FF3F8F4000000020CBDD67C000000000109905C00C00000013000000C20000003C00000006000000020000000000004000408FC00000000036F467C00000
310
0000685B04C00000004000408FC000000000CBDD67C000000000189905C00C00000013000000CA0000003C0000000600000002000000000000C0FF3F8F4000000020CBDD67C000000000109905C0000000C0FF3F8F400000000038C767C000000000008D04C00C00000013000000D20000003C000000060000000200000000
310
00004000408FC0000000A037C767C000000000088D04C0000000C0FF3F8F400000000038C767C000000000008D04C00C00000013000000DA0000003C00000006000000020000000000004000408FC000000000CBDD67C000000000189905C00000004000408FC0000000A037C767C000000000088D04C00C00000013000000
310
E20000003C0000000600000002000000000000C0FF3F8F400000000038C767C000000000008D04C0000000C0FF3F8F40000000E012B467C000000000E06101C00C00000013000000EA0000003C00000006000000020000000000004000408FC00000004012B467C000000000E86101C0000000C0FF3F8F40000000E012B467
310
C000000000E06101C00C00000013000000F20000003C00000006000000020000000000004000408FC0000000A037C767C000000000088D04C00000004000408FC00000004012B467C000000000E86101C00C00000013000000FA0000003C0000000600000002000000000000C0FF3F8F40000000608B6E67C0000000000000
310
00BF000000C0FF3F8F40000000E012B467C000000000E06101C00C00000013000000020100003C00000006000000020000000000004000408FC0000000C08A6E67C000000000000000BF000000C0FF3F8F40000000608B6E67C000000000000000BF0C000000130000000A0100003C00000006000000020000000000004000
310
408FC00000004012B467C000000000E86101C00000004000408FC0000000C08A6E67C000000000000000BF0C00000013000000120100003C0000000600000002000000000000C0FF3F8F40000000005CA464C00000000000E09CBF000000C0FF3F8F40000000608B6E67C000000000000000BF0C000000130000001A010000
310
3C00000006000000020000000000004000408FC0000000005BA464C00000000000E09CBF000000C0FF3F8F40000000005CA464C00000000000E09CBF0C00000013000000220100003C00000006000000020000000000004000408FC0000000C08A6E67C000000000000000BF0000004000408FC0000000005BA464C0000000
310
0000E09CBF0C000000130000002A0100003C0000000600000002000000000000C0FF3F8F4000000060E69264C000000000804AF8BF000000C0FF3F8F40000000005CA464C00000000000E09CBF0C00000013000000320100003C00000006000000020000000000004000408FC0000000C0E59264C000000000804AF8BF0000
310
00C0FF3F8F4000000060E69264C000000000804AF8BF0C000000130000003A0100003C00000006000000020000000000004000408FC0000000005BA464C00000000000E09CBF0000004000408FC0000000C0E59264C000000000804AF8BF0C00000013000000420100003C0000000600000002000000000000C0FF3F8F4000
310
000060E69264C000000000804AF8BF000000C0FF3F8F40000000A0E28664C000000000500801C00C000000130000004A0100003C00000006000000020000000000004000408FC0000000C0E28664C000000000200801C0000000C0FF3F8F40000000A0E28664C000000000500801C00C00000013000000520100003C000000
310
06000000020000000000004000408FC0000000C0E59264C000000000804AF8BF0000004000408FC0000000C0E28664C000000000200801C00C000000130000005A0100003C0000000600000002000000000000C0FF3F8F40000000A0E28664C000000000500801C0000000C0FF3F8F40000000E02F7464C000000000205C04
310
C00C00000013000000620100003C00000006000000020000000000004000408FC000000000307464C000000000105C04C0000000C0FF3F8F40000000E02F7464C000000000205C04C00C000000130000006A0100003C00000006000000020000000000004000408FC0000000C0E28664C000000000200801C0000000400040
310
8FC000000000307464C000000000105C04C00C00000013000000720100003C0000000600000002000000000000C0FF3F8F40000000E02F7464C000000000205C04C0000000C0FF3F8F40000000C0C65D64C000000000209905C00C000000130000007A0100003C00000006000000020000000000004000408FC0000000C0C6
310
5D64C000000000209905C0000000C0FF3F8F40000000C0C65D64C000000000209905C00C00000013000000820100003C00000006000000020000000000004000408FC000000000307464C000000000105C04C00000004000408FC0000000C0C65D64C000000000209905C00C000000130000008A0100003C00000006000000
310
02000000000000C0FF3F8F4000000000364764C000000000D08C04C0000000C0FF3F8F40000000C0C65D64C000000000209905C00C00000013000000920100003C00000006000000020000000000004000408FC000000080354764C000000000E08C04C0000000C0FF3F8F4000000000364764C000000000D08C04C00C0000
310
00130000009A0100003C00000006000000020000000000004000408FC0000000C0C65D64C000000000209905C00000004000408FC000000080354764C000000000E08C04C00C00000013000000A20100003C0000000600000002000000000000C0FF3F8F40000000E0123464C000000000F06101C0000000C0FF3F8F400000
310
0000364764C000000000D08C04C00C00000013000000AA0100003C00000006000000020000000000004000408FC000000040123464C000000000F06101C0000000C0FF3F8F40000000E0123464C000000000F06101C00C00000013000000B20100003C00000006000000020000000000004000408FC000000080354764C000
310
000000E08C04C00000004000408FC000000040123464C000000000F06101C00C00000013000000BA0100003C0000000600000002000000000000C0FF3F8F40000000608BEE63C000000000000000BF000000C0FF3F8F40000000E0123464C000000000F06101C00C00000013000000C20100003C0000000600000002000000
310
0000004000408FC0000000C08AEE63C000000000000000BF000000C0FF3F8F40000000608BEE63C000000000000000BF0C00000013000000CA0100003C00000006000000020000000000004000408FC000000040123464C000000000F06101C00000004000408FC0000000C08AEE63C000000000000000BF0C000000130000
310
00D20100003C0000000600000002000000000000C0FF3F8F4000000040820962C000000000000000BF000000C0FF3F8F40000000608BEE63C000000000000000BF0C00000013000000DA0100003C00000006000000020000000000004000408FC0000000C0810962C000000000000000BF000000C0FF3F8F40000000408209
310
62C000000000000000BF0C00000013000000E20100003C00000006000000020000000000004000408FC0000000C08AEE63C000000000000000BF0000004000408FC0000000C0810962C000000000000000BF0C00000013000000EA0100003C0000000600000002000000000000C0FF3F8F400000006076F761C00000000000
310
AFE0BF000000C0FF3F8F4000000040820962C000000000000000BF0C00000013000000F20100003C00000006000000020000000000004000408FC0000000C075F761C00000000000AFE0BF000000C0FF3F8F400000006076F761C00000000000AFE0BF0C00000013000000FA0100003C000000060000000200000000000040
310
00408FC0000000C0810962C000000000000000BF0000004000408FC0000000C075F761C00000000000AFE0BF0C00000013000000020200003C0000000600000002000000000000C0FF3F8F400000006076F761C00000000000AFE0BF000000C0FF3F8F400000004051D861C00000000030BFF2BF0C000000130000000A0200
310
003C00000006000000020000000000004000408FC0000000A050D861C00000000030BFF2BF000000C0FF3F8F400000004051D861C00000000030BFF2BF0C00000013000000120200003C00000006000000020000000000004000408FC0000000C075F761C00000000000AFE0BF0000004000408FC0000000A050D861C00000
310
000030BFF2BF0C000000130000001A0200003C0000000600000002000000000000C0FF3F8F400000004051D861C00000000030BFF2BF000000C0FF3F8F400000008094B361C0000000009066F6BF0C00000013000000220200003C00000006000000020000000000004000408FC0000000C093B361C0000000009066F6BF00
310
0000C0FF3F8F400000008094B361C0000000009066F6BF0C000000130000002A0200003C00000006000000020000000000004000408FC0000000A050D861C00000000030BFF2BF0000004000408FC0000000C093B361C0000000009066F6BF0C00000013000000320200003C0000000600000002000000000000C0FF3F8F40
310
000000A0CE8C5CC0000000007066F6BF000000C0FF3F8F400000008094B361C0000000009066F6BF0C000000130000003A0200003C00000006000000020000000000004000408FC000000040CD8C5CC0000000007066F6BF000000C0FF3F8F40000000A0CE8C5CC0000000007066F6BF0C00000013000000420200003C0000
310
0006000000020000000000004000408FC0000000C093B361C0000000009066F6BF0000004000408FC000000040CD8C5CC0000000007066F6BF0C000000130000004A0200003C0000000600000002000000000000C0FF3F8F40000000A0CE8C5CC0000000007066F6BF000000C0FF3F8F4000000020EC295CC000000000D050
310
FABF0C00000013000000520200003C00000006000000020000000000004000408FC0000000A0EA295CC000000000D050FABF000000C0FF3F8F4000000020EC295CC000000000D050FABF0C000000130000005A0200003C00000006000000020000000000004000408FC000000040CD8C5CC0000000007066F6BF0000004000
310
408FC0000000A0EA295CC000000000D050FABF0C00000013000000620200003C0000000600000002000000000000C0FF3F8F4000000020EC295CC000000000D050FABF000000C0FF3F8F4000000020B7D05BC000000000E8D602C00C000000130000006A0200003C00000006000000020000000000004000408FC0000000E0
310
B5D05BC000000000E8D602C0000000C0FF3F8F4000000020B7D05BC000000000E8D602C00C00000013000000720200003C00000006000000020000000000004000408FC0000000A0EA295CC000000000D050FABF0000004000408FC0000000E0B5D05BC000000000E8D602C00C000000130000007A0200003C000000060000
310
0002000000000000C0FF3F8F4000000020B7D05BC000000000E8D602C0000000C0FF3F8F4000000020EC895BC00000000048B00BC00C00000013000000820200003C00000006000000020000000000004000408FC0000000C0EA895BC00000000048B00BC0000000C0FF3F8F4000000020EC895BC00000000048B00BC00C00
310
0000130000008A0200003C00000006000000020000000000004000408FC0000000E0B5D05BC000000000E8D602C00000004000408FC0000000C0EA895BC00000000048B00BC00C00000013000000920200003C0000000600000002000000000000C0FF3F8F4000000020EC895BC00000000048B00BC0000000C0FF3F8F4000
310
000020785C5BC000000000746B13C00C000000130000009A0200003C00000006000000020000000000004000408FC0000000C0765C5BC000000000746B13C0000000C0FF3F8F4000000020785C5BC000000000746B13C00C00000013000000A20200003C00000006000000020000000000004000408FC0000000C0EA895BC0
310
0000000048B00BC00000004000408FC0000000C0765C5BC000000000746B13C00C00000013000000AA0200003C0000000600000002000000000000C0FF3F8F40000000A0CE4C5BC0000000009C9919C0000000C0FF3F8F4000000020785C5BC000000000746B13C00C00000013000000B20200003C00000006000000020000
310
000000004000408FC000000040CD4C5BC0000000009C9919C0000000C0FF3F8F40000000A0CE4C5BC0000000009C9919C00C00000013000000BA0200003C00000006000000020000000000004000408FC0000000C0765C5BC000000000746B13C00000004000408FC000000040CD4C5BC0000000009C9919C00C0000001300
310
0000C20200003C0000000600000002000000000000C0FF3F8F40000000A0CE4C5BC000000000333331C0000000C0FF3F8F40000000A0CE4C5BC0000000009C9919C00C00000013000000CA0200003C00000006000000020000000000004000408FC000000040CD4C5BC000000000333331C0000000C0FF3F8F40000000A0CE
310
4C5BC000000000333331C00C00000013000000D20200003C00000006000000020000000000004000408FC000000040CD4C5BC0000000009C9919C00000004000408FC000000040CD4C5BC000000000333331C00C00000013000000DA0200003C0000000600000002000000000000C0FF3F8F40000000A0CE4C5BC000000000
310
333331C0000000C0FF3F8F400000006010435BC00000000023F731C00C00000013000000E20200003C00000006000000020000000000004000408FC0000000000F435BC00000000023F731C0000000C0FF3F8F400000006010435BC00000000023F731C00C00000013000000EA0200003C0000000600000002000000000000
310
4000408FC000000040CD4C5BC000000000333331C00000004000408FC0000000000F435BC00000000023F731C00C00000013000000F20200003C0000000600000002000000000000C0FF3F8F400000006010435BC00000000023F731C0000000C0FF3F8F400000002051275BC0000000003D9D32C00C00000013000000FA02
310
00003C00000006000000020000000000004000408FC0000000C04F275BC0000000003D9D32C0000000C0FF3F8F400000002051275BC0000000003D9D32C00C00000013000000020300003C00000006000000020000000000004000408FC0000000000F435BC00000000023F731C00000004000408FC0000000C04F275BC000
310
0000003D9D32C00C000000130000000A0300003C0000000600000002000000000000C0FF3F8F400000002051275BC0000000003D9D32C0000000C0FF3F8F4000000060CAFD5AC0000000003B0C33C00C00000013000000120300003C00000006000000020000000000004000408FC000000000C9FD5AC0000000003B0C33C0
310
000000C0FF3F8F4000000060CAFD5AC0000000003B0C33C00C000000130000001A0300003C00000006000000020000000000004000408FC0000000C04F275BC0000000003D9D32C00000004000408FC000000000C9FD5AC0000000003B0C33C00C00000013000000220300003C0000000600000002000000000000C0FF3F8F
310
40000000A0CECC5AC000000000333333C0000000C0FF3F8F4000000060CAFD5AC0000000003B0C33C00C000000130000002A0300003C00000006000000020000000000004000408FC000000040CDCC5AC000000000333333C0000000C0FF3F8F40000000A0CECC5AC000000000333333C00C00000013000000320300003C00
310
000006000000020000000000004000408FC000000000C9FD5AC0000000003B0C33C00000004000408FC000000040CDCC5AC000000000333333C00C000000130000003A0300003C0000000600000002000000000000C0FF3F8F40000000009A994DC000000000333333C0000000C0FF3F8F40000000A0CECC5AC00000000033
310
3333C00C00000013000000420300003C00000006000000020000000000004000408FC00000008099994DC000000000333333C0000000C0FF3F8F40000000009A994DC000000000333333C00C000000130000004A0300003C00000006000000020000000000004000408FC000000040CDCC5AC000000000333333C000000040
310
00408FC00000008099994DC000000000333333C00C00000013000000520300003C0000000600000002000000000000C0FF3F8F40000000009A994DC000000000333333C0000000C0FF3F8F4000000000504E4CC0000000006F8A33C00C000000130000005A0300003C00000006000000020000000000004000408FC0000000
310
804F4E4CC0000000006F8A33C0000000C0FF3F8F4000000000504E4CC0000000006F8A33C00C00000013000000620300003C00000006000000020000000000004000408FC00000008099994DC000000000333333C00000004000408FC0000000804F4E4CC0000000006F8A33C00C000000130000006A0300003C0000000600
310
000002000000000000C0FF3F8F4000000000504E4CC0000000006F8A33C0000000C0FF3F8F40000000809A194BC0000000002D8A34C00C00000013000000720300003C00000006000000020000000000004000408FC0000000009A194BC0000000002D8A34C0000000C0FF3F8F40000000809A194BC0000000002D8A34C00C
310
000000130000007A0300003C00000006000000020000000000004000408FC0000000804F4E4CC0000000006F8A33C00000004000408FC0000000009A194BC0000000002D8A34C00C00000013000000820300003C0000000600000002000000000000C0FF3F8F400000008081104AC000000000072136C0000000C0FF3F8F40
310
000000809A194BC0000000002D8A34C00C000000130000008A0300003C00000006000000020000000000004000408FC00000000081104AC000000000022136C0000000C0FF3F8F400000008081104AC000000000072136C00C00000013000000920300003C00000006000000020000000000004000408FC0000000009A194B
310
C0000000002D8A34C00000004000408FC00000000081104AC000000000022136C00C000000130000009A0300003C0000000600000002000000000000C0FF3F8F400000008081104AC000000000072136C0000000C0FF3F8F4000000080174549C000000080323338C00C00000013000000A20300003C000000060000000200
310
00000000004000408FC000000000174549C000000000333338C0000000C0FF3F8F4000000080174549C000000080323338C00C00000013000000AA0300003C00000006000000020000000000004000408FC00000000081104AC000000000022136C00000004000408FC000000000174549C000000000333338C00C00000013
310
000000B20300003C0000000600000002000000000000C0FF3F8F400000000038C548C0000000009F9C3AC0000000C0FF3F8F4000000080174549C000000080323338C00C00000013000000BA0300003C00000006000000020000000000004000408FC00000008037C548C0000000809F9C3AC0000000C0FF3F8F4000000000
310
38C548C0000000009F9C3AC00C00000013000000C20300003C00000006000000020000000000004000408FC000000000174549C000000000333338C00000004000408FC00000008037C548C0000000809F9C3AC00C00000013000000CA0300003C0000000600000002000000000000C0FF3F8F40000000809A9948C0000000
310
8032333DC0000000C0FF3F8F400000000038C548C0000000009F9C3AC00C00000013000000D20300003C00000006000000020000000000004000408FC0000000009A9948C00000000033333DC0000000C0FF3F8F40000000809A9948C00000008032333DC00C00000013000000DA0300003C00000006000000020000000000
310
004000408FC00000008037C548C0000000809F9C3AC00000004000408FC0000000009A9948C00000000033333DC00C00000013000000E20300003C0000000600000002000000000000C0FF3F8F40000000809A9948C000000040999947C0000000C0FF3F8F40000000809A9948C00000008032333DC00C00000013000000EA
310
0300003C00000006000000020000000000004000408FC0000000009A9948C000000080999947C0000000C0FF3F8F40000000809A9948C000000040999947C00C00000013000000F20300003C00000006000000020000000000004000408FC0000000009A9948C00000000033333DC00000004000408FC0000000009A9948C0
310
00000080999947C00C00000013000000FA0300003C0000000600000002000000000000C0FF3F8F40000000809A9948C000000040999947C0000000C0FF3F8F40000000001E8648C0000000C090FB47C00C00000013000000020400003C00000006000000020000000000004000408FC0000000801D8648C00000000091FB47
310
C0000000C0FF3F8F40000000001E8648C0000000C090FB47C00C000000130000000A0400003C00000006000000020000000000004000408FC0000000009A9948C000000080999947C00000004000408FC0000000801D8648C00000000091FB47C00C00000013000000120400003C0000000600000002000000000000C0FF3F
310
8F40000000001E8648C0000000C090FB47C0000000C0FF3F8F40000000809F4E48C0000000409E4E48C00C000000130000001A0400003C00000006000000020000000000004000408FC0000000009F4E48C0000000809E4E48C0000000C0FF3F8F40000000809F4E48C0000000409E4E48C00C00000013000000220400003C
310
00000006000000020000000000004000408FC0000000801D8648C00000000091FB47C00000004000408FC0000000009F4E48C0000000809E4E48C00C000000130000002A0400003C0000000600000002000000000000C0FF3F8F40000000809F4E48C0000000409E4E48C0000000C0FF3F8F400000000092FB47C000000080
310
1C8648C00C00000013000000320400003C00000006000000020000000000004000408FC00000008091FB47C0000000C01C8648C0000000C0FF3F8F400000000092FB47C0000000801C8648C00C000000130000003A0400003C00000006000000020000000000004000408FC0000000009F4E48C0000000809E4E48C0000000
310
4000408FC00000008091FB47C0000000C01C8648C00C00000013000000420400003C0000000600000002000000000000C0FF3F8F40000000809A9947C000000040999948C0000000C0FF3F8F400000000092FB47C0000000801C8648C00C000000130000004A0400003C00000006000000020000000000004000408FC00000
310
00009A9947C000000080999948C0000000C0FF3F8F40000000809A9947C000000040999948C00C00000013000000520400003C00000006000000020000000000004000408FC00000008091FB47C0000000C01C8648C00000004000408FC0000000009A9947C000000080999948C00C000000130000005A0400003C00000006
310
000000020000000000000000408F400000000035333DC0000000C0999948C0000000C0FF3F8F40000000809A9947C000000040999948C00C00000013000000620400003C00000006000000020000000000004000408FC00000000034333DC0000000009A9948C00000000000408F400000000035333DC0000000C0999948C0
310
0C000000130000006A0400003C00000006000000020000000000004000408FC0000000009A9947C000000080999948C00000004000408FC00000000034333DC0000000009A9948C00C00000013000000720400003C00000006000000020000000000000000408F400000000035333DC0000000C0999948C00000000000408F
310
4000000000A19C3AC00000008037C548C00C000000130000007A0400003C00000006000000020000000000004000408FC000000000A09C3AC00000008037C548C00000000000408F4000000000A19C3AC00000008037C548C00C00000013000000820400003C00000006000000020000000000004000408FC0000000003433
310
3DC0000000009A9948C00000004000408FC000000000A09C3AC00000008037C548C00C000000130000008A0400003C00000006000000020000000000000000408F4000000000A19C3AC00000008037C548C00000000000408F4000000000353338C0000000C0164549C00C00000013000000920400003C0000000600000002
310
0000000000004000408FC000000000343338C0000000C0164549C00000000000408F4000000000353338C0000000C0164549C00C000000130000009A0400003C00000006000000020000000000004000408FC000000000A09C3AC00000008037C548C00000004000408FC000000000343338C0000000C0164549C00C000000
310
13000000A20400003C00000006000000020000000000000000408F4000000000032136C00000004081104AC00000000000408F4000000000353338C0000000C0164549C00C00000013000000AA0400003C00000006000000020000000000004000408FC000000000022136C00000004081104AC00000000000408F40000000
310
00032136C00000004081104AC00C00000013000000B20400003C00000006000000020000000000004000408FC000000000343338C0000000C0164549C00000004000408FC000000000022136C00000004081104AC00C00000013000000BA0400003C00000006000000020000000000000000408F40000000002F8A34C00000
310
00009A194BC00000000000408F4000000000032136C00000004081104AC00C00000013000000C20400003C00000006000000020000000000004000408FC0000000002E8A34C0000000009A194BC00000000000408F40000000002F8A34C0000000009A194BC00C00000013000000CA0400003C000000060000000200000000
310
00004000408FC000000000022136C00000004081104AC00000004000408FC0000000002E8A34C0000000009A194BC00C00000013000000D20400003C00000006000000020000000000000000408F4000000000708A33C000000040504E4CC00000000000408F40000000002F8A34C0000000009A194BC00C00000013000000
310
DA0400003C00000006000000020000000000004000408FC0000000006F8A33C000000040504E4CC00000000000408F4000000000708A33C000000040504E4CC00C00000013000000E20400003C00000006000000020000000000004000408FC0000000002E8A34C0000000009A194BC00000004000408FC0000000006F8A33
310
C000000040504E4CC00C00000013000000EA0400003C00000006000000020000000000000000408F4000000000353333C0000000009A994DC00000000000408F4000000000708A33C000000040504E4CC00C00000013000000F20400003C00000006000000020000000000004000408FC000000000343333C0000000009A99
310
4DC00000000000408F4000000000353333C0000000009A994DC00C00000013000000FA0400003C00000006000000020000000000004000408FC0000000006F8A33C000000040504E4CC00000004000408FC000000000343333C0000000009A994DC00C00000013000000020500003C00000006000000020000000000000000
310
408F4000000000323333C0000000C0CCCC55C00000000000408F4000000000353333C0000000009A994DC00C000000130000000A0500003C00000006000000020000000000004000408FC000000000323333C0000000C0CCCC55C00000000000408F4000000000323333C0000000C0CCCC55C00C0000001300000012050000
310
3C00000006000000020000000000004000408FC000000000343333C0000000009A994DC00000004000408FC000000000323333C0000000C0CCCC55C00C000000130000001A0500003C00000006000000020000000000000000408F4000000000323333C0000000C0CCCC55C00000000000408F4000000000390C33C0000000
310
00C9FD55C00C00000013000000220500003C00000006000000020000000000004000408FC000000000380C33C0000000C0C8FD55C00000000000408F4000000000390C33C000000000C9FD55C00C000000130000002A0500003C00000006000000020000000000004000408FC000000000323333C0000000C0CCCC55C00000
310
004000408FC000000000380C33C0000000C0C8FD55C00C00000013000000320500003C00000006000000020000000000000000408F4000000000390C33C000000000C9FD55C00000000000408F40000000003C9D32C0000000C04F2756C00C000000130000003A0500003C00000006000000020000000000004000408FC000
310
0000003C9D32C0000000804F2756C00000000000408F40000000003C9D32C0000000C04F2756C00C00000013000000420500003C00000006000000020000000000004000408FC000000000380C33C0000000C0C8FD55C00000004000408FC0000000003C9D32C0000000804F2756C00C000000130000004A0500003C000000
310
06000000020000000000000000408F400000000021F731C0000000000F4356C00000000000408F40000000003C9D32C0000000C04F2756C00C00000013000000520500003C00000006000000020000000000004000408FC00000000020F731C0000000A00E4356C00000000000408F400000000021F731C0000000000F4356
310
C00C000000130000005A0500003C00000006000000020000000000004000408FC0000000003C9D32C0000000804F2756C00000004000408FC00000000020F731C0000000A00E4356C00C00000013000000620500003C00000006000000020000000000000000408F4000000000323331C000000040CD4C56C0000000000040
310
8F400000000021F731C0000000000F4356C00C000000130000006A0500003C00000006000000020000000000004000408FC000000000323331C000000000CD4C56C00000000000408F4000000000323331C000000040CD4C56C00C00000013000000720500003C00000006000000020000000000004000408FC00000000020
310
F731C0000000A00E4356C00000004000408FC000000000323331C000000000CD4C56C00C000000130000007A0500003C00000006000000020000000000000000408F4000000000909919C000000040CD4C56C00000000000408F4000000000323331C000000040CD4C56C00C00000013000000820500003C00000006000000
310
020000000000004000408FC000000000909919C0000000E0CC4C56C00000000000408F4000000000909919C000000040CD4C56C00C000000130000008A0500003C00000006000000020000000000004000408FC000000000323331C000000000CD4C56C00000004000408FC000000000909919C0000000E0CC4C56C00C0000
310
0013000000920500003C00000006000000020000000000000000408F4000000000909919C000000040CD4C56C00000000000408F4000000000686B13C0000000A0765C56C00C000000130000009A0500003C00000006000000020000000000004000408FC000000000686B13C000000040765C56C00000000000408F400000
310
0000686B13C0000000A0765C56C00C00000013000000A20500003C00000006000000020000000000004000408FC000000000909919C0000000E0CC4C56C00000004000408FC000000000686B13C000000040765C56C00C00000013000000AA0500003C00000006000000020000000000000000408F4000000000686B13C000
310
0000A0765C56C00000000000408F400000000038B00BC000000080EA8956C00C00000013000000B20500003C00000006000000020000000000004000408FC00000000040B00BC000000040EA8956C00000000000408F400000000038B00BC000000080EA8956C00C00000013000000BA0500003C0000000600000002000000
310
0000004000408FC000000000686B13C000000040765C56C00000004000408FC00000000040B00BC000000040EA8956C00C00000013000000C20500003C00000006000000020000000000000000408F400000000038B00BC000000080EA8956C00000000000408F4000000000D0D602C0000000C0B5D056C00C000000130000
310
00CA0500003C00000006000000020000000000004000408FC000000000D0D602C000000080B5D056C00000000000408F4000000000D0D602C0000000C0B5D056C00C00000013000000D20500003C00000006000000020000000000004000408FC00000000040B00BC000000040EA8956C00000004000408FC000000000D0D6
310
02C000000080B5D056C00C00000013000000DA0500003C00000006000000020000000000000000408F4000000000D0D602C0000000C0B5D056C00000000000408F4000000000A050FABF00000080EA2957C00C00000013000000E20500003C00000006000000020000000000004000408FC000000000A050FABF00000040EA
310
2957C00000000000408F4000000000A050FABF00000080EA2957C00C00000013000000EA0500003C00000006000000020000000000004000408FC000000000D0D602C000000080B5D056C00000004000408FC000000000A050FABF00000040EA2957C00C00000013000000F20500003C000000060000000200000000000000
310
00408F40000000004066F6BF00000040CD8C57C00000000000408F4000000000A050FABF00000080EA2957C00C00000013000000FA0500003C00000006000000020000000000004000408FC0000000004066F6BF000000E0CC8C57C00000000000408F40000000004066F6BF00000040CD8C57C00C00000013000000020600
310
003C00000006000000020000000000004000408FC000000000A050FABF00000040EA2957C00000004000408FC0000000004066F6BF000000E0CC8C57C00C000000130000000A0600003C00000006000000020000000000000000408F40000000006066F6BF000000C0276759C00000000000408F40000000004066F6BF0000
310
0040CD8C57C00C00000013000000120600003C00000006000000020000000000004000408FC0000000006066F6BF00000060276759C00000000000408F40000000006066F6BF000000C0276759C00C000000130000001A0600003C00000006000000020000000000004000408FC0000000004066F6BF000000E0CC8C57C000
310
00004000408FC0000000006066F6BF00000060276759C00C00000013000000220600003C00000006000000020000000000000000408F40000000006066F6BF000000C0276759C00000000000408F400000000000BFF2BF00000040A1B059C00C000000130000002A0600003C00000006000000020000000000004000408FC0
310
0000000000BFF2BF00000000A1B059C00000000000408F400000000000BFF2BF00000040A1B059C00C00000013000000320600003C00000006000000020000000000004000408FC0000000006066F6BF00000060276759C00000004000408FC00000000000BFF2BF00000000A1B059C00C000000130000003A0600003C0000
310
0006000000020000000000000000408F400000000080AEE0BF00000080EBEE59C00000000000408F400000000000BFF2BF00000040A1B059C00C00000013000000420600003C00000006000000020000000000004000408FC00000000080AEE0BF00000020EBEE59C00000000000408F400000000080AEE0BF00000080EBEE
310
59C00C000000130000004A0600003C00000006000000020000000000004000408FC00000000000BFF2BF00000000A1B059C00000004000408FC00000000080AEE0BF00000020EBEE59C00C00000013000000520600003C00000006000000020000000000000000408F400000000080AEE0BF00000080EBEE59C00000000000
310
408F4000000000000000000000006003135AC00C000000130000005A0600003C00000006000000020000000000004000408FC000000000000000000000000003135AC00000000000408F4000000000000000000000006003135AC00C00000013000000620600003C00000006000000020000000000004000408FC000000000
310
80AEE0BF00000020EBEE59C00000004000408FC000000000000000000000000003135AC00C000000130000006A0600003C00000006000000020000000000000000408F40000000000000000000000000159D5EC00000000000408F4000000000000000000000006003135AC00C00000013000000720600003C000000060000
310
00020000000000004000408FC0000000000000000000000040159D5EC00000000000408F40000000000000000000000000159D5EC00C000000130000007A0600003C00000006000000020000000000004000408FC000000000000000000000000003135AC00000004000408FC0000000000000000000000040159D5EC00C00
310
000013000000820600003C00000006000000020000000000000000408F4000000000E06101C00000004024285FC00000000000408F40000000000000000000000000159D5EC00C000000130000008A0600003C00000006000000020000000000004000408FC000000000E06101C00000004024285FC00000000000408F4000
310
000000E06101C00000004024285FC00C00000013000000920600003C00000006000000020000000000004000408FC0000000000000000000000040159D5EC00000004000408FC000000000E06101C00000004024285FC00C000000130000009A0600003C00000006000000020000000000000000408F4000000000E06101C0
310
0000004024285FC00000000000408F4000000000008D04C0000000406E4E5FC00C00000013000000A20600003C00000006000000020000000000004000408FC000000000F08C04C0000000C06D4E5FC00000000000408F4000000000008D04C0000000406E4E5FC00C00000013000000AA0600003C00000006000000020000
310
000000004000408FC000000000E06101C00000004024285FC00000004000408FC000000000F08C04C0000000C06D4E5FC00C00000013000000B20600003C00000006000000020000000000000000408F4000000000109905C000000000947B5FC00000000000408F4000000000008D04C0000000406E4E5FC00C0000001300
310
0000BA0600003C00000006000000020000000000004000408FC000000000109905C0000000C0927B5FC00000000000408F4000000000109905C000000000947B5FC00C00000013000000C20600003C00000006000000020000000000004000408FC000000000F08C04C0000000C06D4E5FC00000004000408FC00000000010
310
9905C0000000C0927B5FC00C00000013000000CA0600003C00000006000000020000000000000000408F4000000000109905C000000000947B5FC00000000000408F4000000000905B04C00000008069A85FC00C00000013000000D20600003C00000006000000020000000000004000408FC000000000A05B04C0000000C0
310
67A85FC00000000000408F4000000000905B04C00000008069A85FC00C00000013000000DA0600003C00000006000000020000000000004000408FC000000000109905C0000000C0927B5FC00000004000408FC000000000A05B04C0000000C067A85FC00C00000013000000E20600003C0000000600000002000000000000
310
0000408F4000000000905B04C00000008069A85FC00000000000408F4000000000D00601C0000000C0CECD5FC00C00000013000000EA0600003C00000006000000020000000000004000408FC000000000100701C000000040CDCD5FC00000000000408F4000000000D00601C0000000C0CECD5FC00C00000013000000F206
310
00003C00000006000000020000000000004000408FC000000000A05B04C0000000C067A85FC00000004000408FC000000000100701C000000040CDCD5FC00C00000013000000FA0600003C00000006000000020000000000000000408F4000000000D00601C0000000C0CECD5FC00000000000408F4000000000A040F8BF00
310
000080D9E55FC00C00000013000000020700003C00000006000000020000000000004000408FC000000000A040F8BF00000080D9E55FC00000000000408F4000000000A040F8BF00000080D9E55FC00C000000130000000A0700003C00000006000000020000000000004000408FC000000000100701C000000040CDCD5FC0
310
0000004000408FC000000000A040F8BF00000080D9E55FC00C00000013000000120700003C00000006000000020000000000000000408F4000000000A040F8BF00000080D9E55FC00000000000408F400000000000989DBF000000C0440460C00C000000130000001A0700003C00000006000000020000000000004000408F
310
C00000000000909DBF00000080440460C00000000000408F400000000000989DBF000000C0440460C00C00000013000000220700003C00000006000000020000000000004000408FC000000000A040F8BF00000080D9E55FC00000004000408FC00000000000909DBF00000080440460C00C000000130000002A0700003C00
310
000006000000020000000000000000408F4000000000000018BF00000000001062C00000000000408F400000000000989DBF000000C0440460C00C00000013000000320700003C00000006000000020000000000004000408FC0000000000000000000000000001062C00000000000408F4000000000000018BF0000000000
310
1062C00C000000130000003A0700003C00000006000000020000000000004000408FC00000000000909DBF00000080440460C00000004000408FC0000000000000000000000000001062C00C00000013000000420700003C00000006000000020000000000000000408F4000000000E8361CC0000000C0B6F162C000000000
310
00408F4000000000000018BF00000000001062C00C000000130000004A0700003C00000006000000020000000000004000408FC000000000D0361CC0000000C0B6F162C00000000000408F4000000000E8361CC0000000C0B6F162C00C00000013000000520700003C00000006000000020000000000004000408FC0000000
310
000000000000000000001062C00000004000408FC000000000D0361CC0000000C0B6F162C00C000000130000005A0700003C00000006000000020000000000000000408F400000000008DD1CC0000000A02EF562C00000000000408F4000000000E8361CC0000000C0B6F162C00C00000013000000620700003C0000000600
310
0000020000000000004000408FC000000000F0DC1CC0000000A02EF562C00000000000408F400000000008DD1CC0000000A02EF562C00C000000130000006A0700003C00000006000000020000000000004000408FC000000000D0361CC0000000C0B6F162C00000004000408FC000000000F0DC1CC0000000A02EF562C00C
310
00000013000000720700003C00000006000000020000000000000000408F4000000000F8A01DC00000008066F662C00000000000408F400000000008DD1CC0000000A02EF562C00C000000130000007A0700003C00000006000000020000000000004000408FC000000000E0A01DC00000008066F662C00000000000408F40
310
00000000F8A01DC00000008066F662C00C00000013000000820700003C00000006000000020000000000004000408FC000000000F0DC1CC0000000A02EF562C00000004000408FC000000000E0A01DC00000008066F662C00C000000130000008A0700003C00000006000000020000000000000000408F4000000000D8CC28
310
C00000008066F662C00000000000408F4000000000F8A01DC00000008066F662C00C00000013000000920700003C00000006000000020000000000004000408FC000000000CCCC28C00000008066F662C00000000000408F4000000000D8CC28C00000008066F662C00C000000130000009A0700003C000000060000000200
310
00000000004000408FC000000000E0A01DC00000008066F662C00000004000408FC000000000CCCC28C00000008066F662C00C00000013000000A20700003C00000006000000020000000000000000408F4000000000D84C29C0000000C041F462C00000000000408F4000000000D8CC28C00000008066F662C00C00000013
310
000000AA0700003C00000006000000020000000000004000408FC000000000CC4C29C0000000C041F462C00000000000408F4000000000D84C29C0000000C041F462C00C00000013000000B20700003C00000006000000020000000000004000408FC000000000CCCC28C00000008066F662C00000004000408FC000000000
310
CC4C29C0000000C041F462C00C00000013000000BA0700003C00000006000000020000000000000000408F40000000008CAA29C00000008066EE62C00000000000408F4000000000D84C29C0000000C041F462C00C00000013000000C20700003C00000006000000020000000000004000408FC00000000080AA29C0000000
310
8066EE62C00000000000408F40000000008CAA29C00000008066EE62C00C00000013000000CA0700003C00000006000000020000000000004000408FC000000000CC4C29C0000000C041F462C00000004000408FC00000000080AA29C00000008066EE62C00C00000013000000D20700003C00000006000000020000000000
310
000000408F4000000000D8CC29C00000008066E662C00000000000408F40000000008CAA29C00000008066EE62C00C00000013000000DA0700003C00000006000000020000000000004000408FC000000000CCCC29C00000008066E662C00000000000408F4000000000D8CC29C00000008066E662C00C00000013000000E2
310
0700003C00000006000000020000000000004000408FC00000000080AA29C00000008066EE62C00000004000408FC000000000CCCC29C00000008066E662C00C00000013000000EA0700003C00000006000000020000000000000000408F4000000000CCCC29C000000000CD8C59C00000000000408F4000000000D8CC29C0
310
0000008066E662C00C00000013000000F20700003C00000006000000020000000000004000408FC000000000CCCC29C0000000C0CC8C59C00000000000408F4000000000CCCC29C000000000CD8C59C00C00000013000000FA0700003C00000006000000020000000000004000408FC000000000CCCC29C00000008066E662
310
C00000004000408FC000000000CCCC29C0000000C0CC8C59C00C00000013000000020800003C00000006000000020000000000000000408F4000000000CCCC29C000000000CD8C59C00000000000408F400000000018EF29C000000000CD7C59C00C000000130000000A0800003C0000000600000002000000000000400040
310
8FC00000000018EF29C0000000C0CC7C59C00000000000408F400000000018EF29C000000000CD7C59C00C00000013000000120800003C00000006000000020000000000004000408FC000000000CCCC29C0000000C0CC8C59C00000004000408FC00000000018EF29C0000000C0CC7C59C00C000000130000001A0800003C
310
00000006000000020000000000000000408F4000000000CC4C2AC000000080167159C00000000000408F400000000018EF29C000000000CD7C59C00C00000013000000220800003C00000006000000020000000000004000408FC000000000CC4C2AC000000040167159C00000000000408F4000000000CC4C2AC000000080
310
167159C00C000000130000002A0800003C00000006000000020000000000004000408FC00000000018EF29C0000000C0CC7C59C00000004000408FC000000000CC4C2AC000000040167159C00C00000013000000320800003C00000006000000020000000000000000408F4000000000CCCC2AC000000000CD6C59C0000000
310
0000408F4000000000CC4C2AC000000080167159C00C000000130000003A0800003C00000006000000020000000000004000408FC000000000CCCC2AC0000000C0CC6C59C00000000000408F4000000000CCCC2AC000000000CD6C59C00C00000013000000420800003C00000006000000020000000000004000408FC00000
310
0000CC4C2AC000000040167159C00000004000408FC000000000CCCC2AC0000000C0CC6C59C00C000000130000004A0800003C00000006000000020000000000000000408F400000000032333FC000000040CD6C59C00000000000408F4000000000CCCC2AC000000000CD6C59C00C00000013000000520800003C00000006
310
000000020000000000004000408FC00000000032333FC000000000CD6C59C00000000000408F400000000032333FC000000040CD6C59C00C000000130000005A0800003C00000006000000020000000000004000408FC000000000CCCC2AC0000000C0CC6C59C00000004000408FC00000000032333FC000000000CD6C59C0
310
0C00000013000000620800003C00000006000000020000000000000000408F400000000032333FC000000040CD6C59C00000000000408F400000000032733FC0000000C0836859C00C000000130000006A0800003C00000006000000020000000000004000408FC00000000032733FC000000080836859C00000000000408F
310
400000000032733FC0000000C0836859C00C00000013000000720800003C00000006000000020000000000004000408FC00000000032333FC000000000CD6C59C00000004000408FC00000000032733FC000000080836859C00C000000130000007A0800003C00000006000000020000000000000000408F40000000000CA2
310
3FC000000040CD5C59C00000000000408F400000000032733FC0000000C0836859C00C00000013000000820800003C00000006000000020000000000004000408FC0000000000CA23FC000000000CD5C59C00000000000408F40000000000CA23FC000000040CD5C59C00C000000130000008A0800003C0000000600000002
310
0000000000004000408FC00000000032733FC000000080836859C00000004000408FC0000000000CA23FC000000000CD5C59C00C00000013000000920800003C00000006000000020000000000000000408F400000000032B33FC000000040CD4C59C00000000000408F40000000000CA23FC000000040CD5C59C00C000000
310
130000009A0800003C00000006000000020000000000004000408FC00000000032B33FC000000000CD4C59C00000000000408F400000000032B33FC000000040CD4C59C00C00000013000000A20800003C00000006000000020000000000004000408FC0000000000CA23FC000000000CD5C59C00000004000408FC0000000
310
0032B33FC000000000CD4C59C00C00000013000000AA0800003C00000006000000020000000000000000408F400000000035B33FC00000008099194FC00000000000408F400000000032B33FC000000040CD4C59C00C00000013000000B20800003C00000006000000020000000000004000408FC00000000034B33FC00000
310
008099194FC00000000000408F400000000035B33FC00000008099194FC00C00000013000000BA0800003C00000006000000020000000000004000408FC00000000032B33FC000000000CD4C59C00000004000408FC00000000034B33FC00000008099194FC00C00000013000000C20800003C000000060000000200000000
310
00000000408F400000000035B33FC00000008099194FC00000000000408F40000000005BC43FC00000008099F94EC00C00000013000000CA0800003C00000006000000020000000000004000408FC0000000005AC43FC00000008099F94EC00000000000408F40000000005BC43FC00000008099F94EC00C00000013000000
310
D20800003C00000006000000020000000000004000408FC00000000034B33FC00000008099194FC00000004000408FC0000000005AC43FC00000008099F94EC00C00000013000000DA0800003C00000006000000020000000000000000408F400000000035F33FC0000000802CE24EC00000000000408F40000000005BC43F
310
C00000008099F94EC00C00000013000000E20800003C00000006000000020000000000004000408FC00000000034F33FC0000000802CE24EC00000000000408F400000000035F33FC0000000802CE24EC00C00000013000000EA0800003C00000006000000020000000000004000408FC0000000005AC43FC00000008099F9
310
4EC00000004000408FC00000000034F33FC0000000802CE24EC00C00000013000000F20800003C00000006000000020000000000000000408F40000000809A1940C00000008099D94EC00000000000408F400000000035F33FC0000000802CE24EC00C00000013000000FA0800003C00000006000000020000000000004000
310
408FC0000000009A1940C00000008099D94EC00000000000408F40000000809A1940C00000008099D94EC00C00000013000000020900003C00000006000000020000000000004000408FC00000000034F33FC0000000802CE24EC00000004000408FC0000000009A1940C00000008099D94EC00C000000130000000A090000
310
3C0000000600000002000000000000C0FF3F8F40000000809A994EC00000004099D94EC00000000000408F40000000809A1940C00000008099D94EC00C00000013000000120900003C00000006000000020000000000004000408FC0000000009A994EC00000008099D94EC0000000C0FF3F8F40000000809A994EC0000000
310
4099D94EC00C000000130000001A0900003C00000006000000020000000000004000408FC0000000009A1940C00000008099D94EC00000004000408FC0000000009A994EC00000008099D94EC00C00000013000000220900003C0000000600000002000000000000C0FF3F8F40000000809A994EC00000004099D94EC00000
310
00C0FF3F8F40000000809AB94EC00000004006D14EC00C000000130000002A0900003C00000006000000020000000000004000408FC0000000009AB94EC00000008006D14EC0000000C0FF3F8F40000000809AB94EC00000004006D14EC00C00000013000000320900003C00000006000000020000000000004000408FC000
310
0000009A994EC00000008099D94EC00000004000408FC0000000009AB94EC00000008006D14EC00C000000130000003A0900003C0000000600000002000000000000C0FF3F8F400000008007D14EC00000004099B94EC0000000C0FF3F8F40000000809AB94EC00000004006D14EC00C00000013000000420900003C000000
310
06000000020000000000004000408FC00000000007D14EC00000008099B94EC0000000C0FF3F8F400000008007D14EC00000004099B94EC00C000000130000004A0900003C00000006000000020000000000004000408FC0000000009AB94EC00000008006D14EC00000004000408FC00000000007D14EC00000008099B94E
310
C00C00000013000000520900003C0000000600000002000000000000C0FF3F8F40000000809AD94EC00000004099994EC0000000C0FF3F8F400000008007D14EC00000004099B94EC00C000000130000005A0900003C00000006000000020000000000004000408FC0000000009AD94EC00000008099994EC0000000C0FF3F
310
8F40000000809AD94EC00000004099994EC00C00000013000000620900003C00000006000000020000000000004000408FC00000000007D14EC00000008099B94EC00000004000408FC0000000009AD94EC00000008099994EC00C000000130000006A0900003C0000000600000002000000000000C0FF3F8F40000000809A
310
D94EC000000040991940C0000000C0FF3F8F40000000809AD94EC00000004099994EC00C00000013000000720900003C00000006000000020000000000004000408FC0000000009AD94EC000000080991940C0000000C0FF3F8F40000000809AD94EC000000040991940C00C000000130000007A0900003C00000006000000
310
020000000000004000408FC0000000009AD94EC00000008099994EC00000004000408FC0000000009AD94EC000000080991940C00C00000013000000820900003C0000000600000002000000000000C0FF3F8F40000000809AD94EC000000040991940C0000000C0FF3F8F40000000802DE24EC00000008032F33FC00C0000
310
00130000008A0900003C00000006000000020000000000004000408FC0000000002DE24EC00000000033F33FC0000000C0FF3F8F40000000802DE24EC00000008032F33FC00C00000013000000920900003C00000006000000020000000000004000408FC0000000009AD94EC000000080991940C00000004000408FC00000
310
00002DE24EC00000000033F33FC00C000000130000009A0900003C0000000600000002000000000000C0FF3F8F40000000809AF94EC00000008058C43FC0000000C0FF3F8F40000000802DE24EC00000008032F33FC00C00000013000000A20900003C00000006000000020000000000004000408FC0000000009AF94EC000
310
00000059C43FC0000000C0FF3F8F40000000809AF94EC00000008058C43FC00C00000013000000AA0900003C00000006000000020000000000004000408FC0000000002DE24EC00000000033F33FC00000004000408FC0000000009AF94EC00000000059C43FC00C00000013000000B20900003C0000000600000002000000
310
000000C0FF3F8F40000000809A194FC00000008032B33FC0000000C0FF3F8F40000000809AF94EC00000008058C43FC00C00000013000000BA0900003C00000006000000020000000000004000408FC0000000009A194FC00000000033B33FC0000000C0FF3F8F40000000809A194FC00000008032B33FC00C000000130000
310
00C20900003C00000006000000020000000000004000408FC0000000009AF94EC00000000059C43FC00000004000408FC0000000009A194FC00000000033B33FC00C00000013000000CA0900003C0000000600000002000000000000C0FF3F8F4000000060CE4C5EC00000008033B33FC0000000C0FF3F8F40000000809A19
310
4FC00000008032B33FC00C00000013000000D20900003C00000006000000020000000000004000408FC000000000CD4C5EC00000008033B33FC0000000C0FF3F8F4000000060CE4C5EC00000008033B33FC00C00000013000000DA0900003C00000006000000020000000000004000408FC0000000009A194FC00000000033
310
B33FC00000004000408FC000000000CD4C5EC00000008033B33FC00C00000013000000E20900003C0000000600000002000000000000C0FF3F8F4000000060CE4C5EC00000008033B33FC0000000C0FF3F8F4000000060CE5C5EC0000000800DA23FC00C00000013000000EA0900003C000000060000000200000000000040
310
00408FC000000000CD5C5EC0000000800DA23FC0000000C0FF3F8F4000000060CE5C5EC0000000800DA23FC00C00000013000000F20900003C00000006000000020000000000004000408FC000000000CD4C5EC00000008033B33FC00000004000408FC000000000CD5C5EC0000000800DA23FC00C00000013000000FA0900
310
003C0000000600000002000000000000C0FF3F8F40000000E084685EC00000008033733FC0000000C0FF3F8F4000000060CE5C5EC0000000800DA23FC00C00000013000000020A00003C00000006000000020000000000004000408FC00000008083685EC00000008033733FC0000000C0FF3F8F40000000E084685EC00000
310
008033733FC00C000000130000000A0A00003C00000006000000020000000000004000408FC000000000CD5C5EC0000000800DA23FC00000004000408FC00000008083685EC00000008033733FC00C00000013000000120A00003C0000000600000002000000000000C0FF3F8F4000000040CE6C5EC00000008033333FC000
310
0000C0FF3F8F40000000E084685EC00000008033733FC00C000000130000001A0A00003C00000006000000020000000000004000408FC000000000CD6C5EC00000008033333FC0000000C0FF3F8F4000000040CE6C5EC00000008033333FC00C00000013000000220A00003C00000006000000020000000000004000408FC0
310
0000008083685EC00000008033733FC00000004000408FC000000000CD6C5EC00000008033333FC00C000000130000002A0A00003C0000000600000002000000000000C0FF3F8F40000000A0CE6C5EC000000000CECC2AC0000000C0FF3F8F4000000040CE6C5EC00000008033333FC00C00000013000000320A00003C0000
310
0006000000020000000000004000408FC000000040CD6C5EC000000000CECC2AC0000000C0FF3F8F40000000A0CE6C5EC000000000CECC2AC00C000000130000003A0A00003C00000006000000020000000000004000408FC000000000CD6C5EC00000008033333FC00000004000408FC000000040CD6C5EC000000000CECC
310
2AC00C00000013000000420A00003C0000000600000002000000000000C0FF3F8F40000000A0CE6C5EC000000000CECC2AC0000000C0FF3F8F400000002018715EC000000000CE4C2AC00C000000130000004A0A00003C00000006000000020000000000004000408FC0000000C016715EC000000000CE4C2AC0000000C0FF
310
3F8F400000002018715EC000000000CE4C2AC00C00000013000000520A00003C00000006000000020000000000004000408FC000000040CD6C5EC000000000CECC2AC00000004000408FC0000000C016715EC000000000CE4C2AC00C000000130000005A0A00003C0000000600000002000000000000C0FF3F8F40000000A0
310
CE7C5EC0000000001AEF29C0000000C0FF3F8F400000002018715EC000000000CE4C2AC00C00000013000000620A00003C00000006000000020000000000004000408FC000000040CD7C5EC0000000001AEF29C0000000C0FF3F8F40000000A0CE7C5EC0000000001AEF29C00C000000130000006A0A00003C000000060000
310
00020000000000004000408FC0000000C016715EC000000000CE4C2AC00000004000408FC000000040CD7C5EC0000000001AEF29C00C00000013000000720A00003C0000000600000002000000000000C0FF3F8F40000000A0CE8C5EC000000000CECC29C0000000C0FF3F8F40000000A0CE7C5EC0000000001AEF29C00C00
310
0000130000007A0A00003C00000006000000020000000000004000408FC000000040CD8C5EC000000000CECC29C0000000C0FF3F8F40000000A0CE8C5EC000000000CECC29C00C00000013000000820A00003C00000006000000020000000000004000408FC000000040CD7C5EC0000000001AEF29C00000004000408FC000
310
000040CD8C5EC000000000CECC29C00C000000130000008A0A00003C0000000600000002000000000000C0FF3F8F400000006067666AC000000000CCCC29C0000000C0FF3F8F40000000A0CE8C5EC000000000CECC29C00C00000013000000920A00003C00000006000000020000000000004000408FC00000008066666AC0
310
00000000CECC29C0000000C0FF3F8F400000006067666AC000000000CCCC29C00C000000130000009A0A00003C00000006000000020000000000004000408FC000000040CD8C5EC000000000CECC29C00000004000408FC00000008066666AC000000000CECC29C00C00000013000000A20A00003C00000006000000020000
310
00000000C0FF3F8F4000000060676E6AC00000000080AA29C0000000C0FF3F8F400000006067666AC000000000CCCC29C00C00000013000000AA0A00003C00000006000000020000000000004000408FC000000080666E6AC00000000082AA29C0000000C0FF3F8F4000000060676E6AC00000000080AA29C00C0000001300
310
0000B20A00003C00000006000000020000000000004000408FC00000008066666AC000000000CECC29C00000004000408FC000000080666E6AC00000000082AA29C00C00000013000000BA0A00003C0000000600000002000000000000C0FF3F8F40000000A042746AC000000000CC4C29C0000000C0FF3F8F400000006067
310
6E6AC00000000080AA29C00C00000013000000C20A00003C00000006000000020000000000004000408FC0000000C041746AC000000000CE4C29C0000000C0FF3F8F40000000A042746AC000000000CC4C29C00C00000013000000CA0A00003C00000006000000020000000000004000408FC000000080666E6AC000000000
310
82AA29C00000004000408FC0000000C041746AC000000000CE4C29C00C00000013000000D20A00003C0000000600000002000000000000C0FF3F8F400000006067766AC000000000CCCC28C0000000C0FF3F8F40000000A042746AC000000000CC4C29C00C00000013000000DA0A00003C0000000600000002000000000000
310
4000408FC00000008066766AC000000000CECC28C0000000C0FF3F8F400000006067766AC000000000CCCC28C00C00000013000000E20A00003C00000006000000020000000000004000408FC0000000C041746AC000000000CE4C29C00000004000408FC00000008066766AC000000000CECC28C00C00000013000000EA0A
310
00003C0000000600000002000000000000C0FF3F8F400000006067766AC000000000E0A01DC0000000C0FF3F8F400000006067766AC000000000CCCC28C00C00000013000000F20A00003C00000006000000020000000000004000408FC00000008066766AC000000000CECC28C00000004000408FC00000008066766AC000
310
000000E4A01DC00C00000013000000FA0A00003C00000006000000020000000000004000408FC000000060ED1268C000000000F03FF8BF0000004000408FC0000000E0B6716AC000000000D8361CC00C00000013000000020B00003C00000006000000020000000000004000408FC0000000C041746AC000000000CE4C29C0
310
0000004000408FC0000000A02E756AC000000000F4DC1CC00C000000130000000A0B00003C00000006000000020000000000004000408FC0000000C0E80668C000000000880601C00000004000408FC0000000A02E756AC000000000F4DC1CC00C00000013000000120B00003C00000006000000020000000000004000408F
310
C00000000036F467C000000000685B04C00000004000408FC0000000C041746AC000000000CE4C29C00C000000130000001A0B00003C00000006000000020000000000004000408FC000000000CBDD67C000000000189905C00000004000408FC000000080666E6AC00000000082AA29C00C00000013000000220B00003C00
310
000006000000020000000000004000408FC0000000A037C767C000000000088D04C00000004000408FC00000008066666AC000000000CECC29C00C000000130000002A0B00003C00000006000000020000000000004000408FC0000000A037C767C000000000088D04C00000004000408FC000000040CD8C5EC000000000CE
310
CC29C00C00000013000000320B00003C00000006000000020000000000004000408FC00000004012B467C000000000E86101C00000004000408FC0000000C0E59264C000000000804AF8BF0C000000130000003A0B00003C00000006000000020000000000004000408FC0000000A037C767C000000000088D04C000000040
310
00408FC0000000C0E28664C000000000200801C00C00000013000000420B00003C00000006000000020000000000004000408FC0000000A037C767C000000000088D04C00000004000408FC000000000307464C000000000105C04C00C000000130000004A0B00003C00000006000000020000000000004000408FC0000000
310
40123464C000000000F06101C00000004000408FC0000000C075F761C00000000000AFE0BF0C00000013000000520B00003C00000006000000020000000000004000408FC000000080354764C000000000E08C04C00000004000408FC0000000A050D861C00000000030BFF2BF0C000000130000005A0B00003C0000000600
310
0000020000000000004000408FC0000000C093B361C0000000009066F6BF0000004000408FC000000040CD8C5EC000000000CECC29C00C00000013000000620B00003C00000006000000020000000000004000408FC000000040CD8C5CC0000000007066F6BF0000004000408FC000000040CD8C5EC000000000CECC29C00C
310
000000130000006A0B00003C00000006000000020000000000004000408FC0000000A050D861C00000000030BFF2BF0000004000408FC000000040CD8C5EC000000000CECC29C00C00000013000000720B00003C00000006000000020000000000004000408FC0000000C0C65D64C000000000209905C00000004000408FC0
310
00000040CD8C5EC000000000CECC29C00C000000130000007A0B00003C00000006000000020000000000004000408FC0000000A0EA295CC000000000D050FABF0000004000408FC000000040CD7C5EC0000000001AEF29C00C00000013000000820B00003C00000006000000020000000000004000408FC000000040CD4C5B
310
C0000000009C9919C00000004000408FC000000040CD6C5EC000000000CECC2AC00C000000130000008A0B00003C00000006000000020000000000004000408FC000000040CD4C5BC000000000333331C00000004000408FC000000000CD6C5EC00000008033333FC00C00000013000000920B00003C000000060000000200
310
00000000004000408FC0000000E0B5D05BC000000000E8D602C00000004000408FC000000040CD7C5EC0000000001AEF29C00C000000130000009A0B00003C00000006000000020000000000004000408FC0000000C0EA895BC00000000048B00BC00000004000408FC0000000C016715EC000000000CE4C2AC00C00000013
310
000000A20B00003C00000006000000020000000000004000408FC0000000C0765C5BC000000000746B13C00000004000408FC0000000C016715EC000000000CE4C2AC00C00000013000000AA0B00003C00000006000000020000000000004000408FC000000040CDCC5AC000000000333333C00000004000408FC000000000
310
CD4C5EC00000008033B33FC00C00000013000000B20B00003C00000006000000020000000000004000408FC00000008099994DC000000000333333C00000004000408FC0000000009A194FC00000000033B33FC00C00000013000000BA0B00003C00000006000000020000000000004000408FC0000000000F435BC0000000
310
0023F731C00000004000408FC00000008083685EC00000008033733FC00C00000013000000C20B00003C00000006000000020000000000004000408FC0000000C04F275BC0000000003D9D32C00000004000408FC00000008083685EC00000008033733FC00C00000013000000CA0B00003C00000006000000020000000000
310
004000408FC0000000C04F275BC0000000003D9D32C00000004000408FC000000000CD5C5EC0000000800DA23FC00C00000013000000D20B00003C00000006000000020000000000004000408FC000000000C9FD5AC0000000003B0C33C00000004000408FC000000000CD5C5EC0000000800DA23FC00C00000013000000DA
310
0B00003C00000006000000020000000000004000408FC0000000009A9948C00000000033333DC00000004000408FC0000000009AD94EC000000080991940C00C00000013000000E20B00003C00000006000000020000000000004000408FC0000000009A9948C000000080999947C00000004000408FC0000000009AD94EC0
310
0000008099994EC00C00000013000000EA0B00003C00000006000000020000000000004000408FC0000000804F4E4CC0000000006F8A33C00000004000408FC0000000009AF94EC00000000059C43FC00C00000013000000F20B00003C00000006000000020000000000004000408FC0000000009A194BC0000000002D8A34
310
C00000004000408FC0000000009AF94EC00000000059C43FC00C00000013000000FA0B00003C00000006000000020000000000004000408FC00000000081104AC000000000022136C00000004000408FC0000000009AF94EC00000000059C43FC00C00000013000000020C00003C0000000600000002000000000000400040
310
8FC00000008037C548C0000000809F9C3AC00000004000408FC0000000002DE24EC00000000033F33FC00C000000130000000A0C00003C00000006000000020000000000004000408FC000000000174549C000000000333338C00000004000408FC0000000002DE24EC00000000033F33FC00C00000013000000120C00003C
310
00000006000000020000000000004000408FC00000000081104AC000000000022136C00000004000408FC0000000002DE24EC00000000033F33FC00C000000130000001A0C00003C00000006000000020000000000004000408FC0000000009A9947C000000080999948C00000004000408FC0000000009A994EC000000080
310
99D94EC00C00000013000000220C00003C00000006000000020000000000004000408FC00000000034333DC0000000009A9948C00000004000408FC0000000009A1940C00000008099D94EC00C000000130000002A0C00003C00000006000000020000000000004000408FC0000000801D8648C00000000091FB47C0000000
310
4000408FC00000000007D14EC00000008099B94EC00C00000013000000320C00003C00000006000000020000000000004000408FC0000000009F4E48C0000000809E4E48C00000004000408FC00000000007D14EC00000008099B94EC00C000000130000003A0C00003C00000006000000020000000000004000408FC00000
310
00009F4E48C0000000809E4E48C00000004000408FC0000000009AB94EC00000008006D14EC00C00000013000000420C00003C00000006000000020000000000004000408FC00000008091FB47C0000000C01C8648C00000004000408FC0000000009AB94EC00000008006D14EC00C000000130000004A0C00003C00000006
310
000000020000000000004000408FC000000000A09C3AC00000008037C548C00000004000408FC00000000034F33FC0000000802CE24EC00C00000013000000520C00003C00000006000000020000000000004000408FC000000000343333C0000000009A994DC00000004000408FC00000000034B33FC00000008099194FC0
310
0C000000130000005A0C00003C00000006000000020000000000004000408FC000000000323333C0000000C0CCCC55C00000004000408FC00000000032B33FC000000000CD4C59C00C00000013000000620C00003C00000006000000020000000000004000408FC0000000006F8A33C000000040504E4CC00000004000408F
310
C0000000005AC43FC00000008099F94EC00C000000130000006A0C00003C00000006000000020000000000004000408FC0000000002E8A34C0000000009A194BC00000004000408FC0000000005AC43FC00000008099F94EC00C00000013000000720C00003C00000006000000020000000000004000408FC0000000003433
310
38C0000000C0164549C00000004000408FC00000000034F33FC0000000802CE24EC00C000000130000007A0C00003C00000006000000020000000000004000408FC000000000022136C00000004081104AC00000004000408FC00000000034F33FC0000000802CE24EC00C00000013000000820C00003C0000000600000002
310
0000000000004000408FC000000000022136C00000004081104AC00000004000408FC0000000005AC43FC00000008099F94EC00C000000130000008A0C00003C00000006000000020000000000004000408FC000000000323331C000000000CD4C56C00000004000408FC00000000032333FC000000000CD6C59C00C000000
310
13000000920C00003C00000006000000020000000000004000408FC000000000909919C0000000E0CC4C56C00000004000408FC000000000CCCC2AC0000000C0CC6C59C00C000000130000009A0C00003C00000006000000020000000000004000408FC000000000380C33C0000000C0C8FD55C00000004000408FC0000000
310
000CA23FC000000000CD5C59C00C00000013000000A20C00003C00000006000000020000000000004000408FC00000000020F731C0000000A00E4356C00000004000408FC00000000032733FC000000080836859C00C00000013000000AA0C00003C00000006000000020000000000004000408FC0000000003C9D32C00000
310
00804F2756C00000004000408FC00000000032733FC000000080836859C00C00000013000000B20C00003C00000006000000020000000000004000408FC0000000003C9D32C0000000804F2756C00000004000408FC0000000000CA23FC000000000CD5C59C00C00000013000000BA0C00003C000000060000000200000000
310
00004000408FC0000000004066F6BF000000E0CC8C57C00000004000408FC000000000CCCC29C0000000C0CC8C59C00C00000013000000C20C00003C00000006000000020000000000004000408FC0000000006066F6BF00000060276759C00000004000408FC000000000CCCC29C0000000C0CC8C59C00C00000013000000
310
CA0C00003C00000006000000020000000000004000408FC000000000686B13C000000040765C56C00000004000408FC000000000CC4C2AC000000040167159C00C00000013000000D20C00003C00000006000000020000000000004000408FC00000000040B00BC000000040EA8956C00000004000408FC000000000CC4C2A
310
C000000040167159C00C00000013000000DA0C00003C00000006000000020000000000004000408FC000000000D0D602C000000080B5D056C00000004000408FC00000000018EF29C0000000C0CC7C59C00C00000013000000E20C00003C00000006000000020000000000004000408FC000000000A050FABF00000040EA29
310
57C00000004000408FC00000000018EF29C0000000C0CC7C59C00C00000013000000EA0C00003C00000006000000020000000000004000408FC00000000000BFF2BF00000000A1B059C00000004000408FC000000000CCCC29C0000000C0CC8C59C00C00000013000000F20C00003C00000006000000020000000000004000
310
408FC00000000080AEE0BF00000020EBEE59C00000004000408FC000000000CCCC29C0000000C0CC8C59C00C00000013000000FA0C00003C00000006000000020000000000004000408FC000000000000000000000000003135AC00000004000408FC000000000CCCC29C0000000C0CC8C59C00C00000013000000020D0000
310
3C00000006000000020000000000004000408FC000000000E06101C00000004024285FC00000004000408FC000000000CCCC29C0000000C0CC8C59C00C000000130000000A0D00003C00000006000000020000000000004000408FC000000000F08C04C0000000C06D4E5FC00000004000408FC000000000CCCC29C0000000
310
C0CC8C59C00C00000013000000120D00003C00000006000000020000000000004000408FC000000000109905C0000000C0927B5FC00000004000408FC000000000CCCC29C0000000C0CC8C59C00C000000130000001A0D00003C00000006000000020000000000004000408FC000000000109905C0000000C0927B5FC00000
310
004000408FC000000000CCCC29C00000008066E662C00C00000013000000220D00003C00000006000000020000000000004000408FC000000000A05B04C0000000C067A85FC00000004000408FC00000000080AA29C00000008066EE62C00C000000130000002A0D00003C00000006000000020000000000004000408FC000
310
000000100701C000000040CDCD5FC00000004000408FC000000000CC4C29C0000000C041F462C00C00000013000000320D00003C00000006000000020000000000004000408FC000000000A040F8BF00000080D9E55FC00000004000408FC000000000CCCC28C00000008066F662C00C000000130000003A0D00003C000000
310
06000000020000000000004000408FC000000000A040F8BF00000080D9E55FC00000004000408FC000000000E0A01DC00000008066F662C00C00000013000000420D00003C00000006000000020000000000004000408FC000000000A040F8BF00000080D9E55FC00000004000408FC000000000F0DC1CC0000000A02EF562
310
C00C000000130000004A0D00003C00000006000000020000000000004000408FC000000000A040F8BF00000080D9E55FC00000004000408FC000000000D0361CC0000000C0B6F162C00C00000013000000520D00003C0000000600000002000000000000C0FF3F8F40000000C0B7716AC000000000D8361CC0000000C0FF3F
310
8F4000000020EE1268C000000000E03FF8BF0C000000130000005A0D00003C0000000600000002000000000000C0FF3F8F40000000802F756AC000000000F0DC1CC0000000C0FF3F8F40000000A042746AC000000000CC4C29C00C00000013000000620D00003C0000000600000002000000000000C0FF3F8F40000000802F
310
756AC000000000F0DC1CC0000000C0FF3F8F40000000A0E80668C000000000C00601C00C000000130000006A0D00003C0000000600000002000000000000C0FF3F8F40000000A042746AC000000000CC4C29C0000000C0FF3F8F40000000E035F467C000000000805B04C00C00000013000000720D00003C00000006000000
310
02000000000000C0FF3F8F4000000060676E6AC00000000080AA29C0000000C0FF3F8F4000000020CBDD67C000000000109905C00C000000130000007A0D00003C0000000600000002000000000000C0FF3F8F400000006067666AC000000000CCCC29C0000000C0FF3F8F400000000038C767C000000000008D04C00C0000
310
0013000000820D00003C0000000600000002000000000000C0FF3F8F400000000038C767C000000000008D04C0000000C0FF3F8F40000000A0CE8C5EC000000000CECC29C00C000000130000008A0D00003C0000000600000002000000000000C0FF3F8F4000000060E69264C000000000804AF8BF000000C0FF3F8F400000
310
00E012B467C000000000E06101C00C00000013000000920D00003C0000000600000002000000000000C0FF3F8F400000000038C767C000000000008D04C0000000C0FF3F8F40000000A0E28664C000000000500801C00C000000130000009A0D00003C0000000600000002000000000000C0FF3F8F400000000038C767C000
310
000000008D04C0000000C0FF3F8F40000000E02F7464C000000000205C04C00C00000013000000A20D00003C0000000600000002000000000000C0FF3F8F400000006076F761C00000000000AFE0BF000000C0FF3F8F40000000E0123464C000000000F06101C00C00000013000000AA0D00003C0000000600000002000000
310
000000C0FF3F8F400000004051D861C00000000030BFF2BF000000C0FF3F8F4000000000364764C000000000D08C04C00C00000013000000B20D00003C0000000600000002000000000000C0FF3F8F40000000A0CE8C5EC000000000CECC29C0000000C0FF3F8F40000000A0CE8C5CC0000000007066F6BF0C000000130000
310
00BA0D00003C0000000600000002000000000000C0FF3F8F40000000A0CE8C5EC000000000CECC29C0000000C0FF3F8F400000008094B361C0000000009066F6BF0C00000013000000C20D00003C0000000600000002000000000000C0FF3F8F40000000A0CE8C5EC000000000CECC29C0000000C0FF3F8F400000004051D8
310
61C00000000030BFF2BF0C00000013000000CA0D00003C0000000600000002000000000000C0FF3F8F40000000A0CE8C5EC000000000CECC29C0000000C0FF3F8F40000000C0C65D64C000000000209905C00C00000013000000D20D00003C0000000600000002000000000000C0FF3F8F40000000A0CE7C5EC0000000001A
310
EF29C0000000C0FF3F8F4000000020EC295CC000000000D050FABF0C00000013000000DA0D00003C0000000600000002000000000000C0FF3F8F4000000040CE6C5EC00000008033333FC0000000C0FF3F8F40000000A0CE4C5BC000000000333331C00C00000013000000E20D00003C0000000600000002000000000000C0
310
FF3F8F40000000A0CE6C5EC000000000CECC2AC0000000C0FF3F8F40000000A0CE4C5BC0000000009C9919C00C00000013000000EA0D00003C0000000600000002000000000000C0FF3F8F40000000A0CE7C5EC0000000001AEF29C0000000C0FF3F8F4000000020B7D05BC000000000E8D602C00C00000013000000F20D00
310
003C0000000600000002000000000000C0FF3F8F400000002018715EC000000000CE4C2AC0000000C0FF3F8F4000000020EC895BC00000000048B00BC00C00000013000000FA0D00003C0000000600000002000000000000C0FF3F8F400000002018715EC000000000CE4C2AC0000000C0FF3F8F4000000020785C5BC00000
310
0000746B13C00C00000013000000020E00003C0000000600000002000000000000C0FF3F8F40000000809A194FC00000008032B33FC0000000C0FF3F8F40000000009A994DC000000000333333C00C000000130000000A0E00003C0000000600000002000000000000C0FF3F8F4000000060CE4C5EC00000008033B33FC000
310
0000C0FF3F8F40000000A0CECC5AC000000000333333C00C00000013000000120E00003C0000000600000002000000000000C0FF3F8F40000000E084685EC00000008033733FC0000000C0FF3F8F400000006010435BC00000000023F731C00C000000130000001A0E00003C0000000600000002000000000000C0FF3F8F40
310
00000060CE5C5EC0000000800DA23FC0000000C0FF3F8F400000002051275BC0000000003D9D32C00C00000013000000220E00003C0000000600000002000000000000C0FF3F8F40000000E084685EC00000008033733FC0000000C0FF3F8F400000002051275BC0000000003D9D32C00C000000130000002A0E00003C0000
310
000600000002000000000000C0FF3F8F4000000060CE5C5EC0000000800DA23FC0000000C0FF3F8F4000000060CAFD5AC0000000003B0C33C00C00000013000000320E00003C0000000600000002000000000000C0FF3F8F40000000809AD94EC00000004099994EC0000000C0FF3F8F40000000809A9948C0000000409999
310
47C00C000000130000003A0E00003C0000000600000002000000000000C0FF3F8F40000000809AD94EC000000040991940C0000000C0FF3F8F40000000809A9948C00000008032333DC00C00000013000000420E00003C0000000600000002000000000000C0FF3F8F40000000809AF94EC00000008058C43FC0000000C0FF
310
3F8F4000000000504E4CC0000000006F8A33C00C000000130000004A0E00003C0000000600000002000000000000C0FF3F8F40000000809AF94EC00000008058C43FC0000000C0FF3F8F400000008081104AC000000000072136C00C00000013000000520E00003C0000000600000002000000000000C0FF3F8F4000000080
310
9AF94EC00000008058C43FC0000000C0FF3F8F40000000809A194BC0000000002D8A34C00C000000130000005A0E00003C0000000600000002000000000000C0FF3F8F40000000802DE24EC00000008032F33FC0000000C0FF3F8F400000000038C548C0000000009F9C3AC00C00000013000000620E00003C000000060000
310
0002000000000000C0FF3F8F40000000802DE24EC00000008032F33FC0000000C0FF3F8F4000000080174549C000000080323338C00C000000130000006A0E00003C0000000600000002000000000000C0FF3F8F400000008081104AC000000000072136C0000000C0FF3F8F40000000802DE24EC00000008032F33FC00C00
310
000013000000720E00003C00000006000000020000000000000000408F40000000809A1940C00000008099D94EC00000000000408F400000000035333DC0000000C0999948C00C000000130000007A0E00003C0000000600000002000000000000C0FF3F8F40000000809A994EC00000004099D94EC0000000C0FF3F8F4000
310
0000809A9947C000000040999948C00C00000013000000820E00003C0000000600000002000000000000C0FF3F8F400000008007D14EC00000004099B94EC0000000C0FF3F8F40000000001E8648C0000000C090FB47C00C000000130000008A0E00003C0000000600000002000000000000C0FF3F8F40000000809AB94EC0
310
0000004006D14EC0000000C0FF3F8F40000000809F4E48C0000000409E4E48C00C00000013000000920E00003C0000000600000002000000000000C0FF3F8F400000008007D14EC00000004099B94EC0000000C0FF3F8F40000000809F4E48C0000000409E4E48C00C000000130000009A0E00003C00000006000000020000
310
00000000C0FF3F8F40000000809AB94EC00000004006D14EC0000000C0FF3F8F400000000092FB47C0000000801C8648C00C00000013000000A20E00003C00000006000000020000000000000000408F400000000035F33FC0000000802CE24EC00000000000408F4000000000A19C3AC00000008037C548C00C0000001300
310
0000AA0E00003C00000006000000020000000000000000408F400000000032B33FC000000040CD4C59C00000000000408F4000000000323333C0000000C0CCCC55C00C00000013000000B20E00003C00000006000000020000000000000000408F400000000035B33FC00000008099194FC00000000000408F400000000035
310
3333C0000000009A994DC00C00000013000000BA0E00003C00000006000000020000000000000000408F40000000005BC43FC00000008099F94EC00000000000408F4000000000708A33C000000040504E4CC00C00000013000000C20E00003C00000006000000020000000000000000408F40000000005BC43FC000000080
310
99F94EC00000000000408F40000000002F8A34C0000000009A194BC00C00000013000000CA0E00003C00000006000000020000000000000000408F400000000035F33FC0000000802CE24EC00000000000408F4000000000032136C00000004081104AC00C00000013000000D20E00003C0000000600000002000000000000
310
0000408F400000000035F33FC0000000802CE24EC00000000000408F4000000000353338C0000000C0164549C00C00000013000000DA0E00003C00000006000000020000000000000000408F40000000005BC43FC00000008099F94EC00000000000408F4000000000032136C00000004081104AC00C00000013000000E20E
310
00003C00000006000000020000000000000000408F4000000000CCCC2AC000000000CD6C59C00000000000408F4000000000909919C000000040CD4C56C00C00000013000000EA0E00003C00000006000000020000000000000000408F400000000032333FC000000040CD6C59C00000000000408F4000000000323331C000
310
000040CD4C56C00C00000013000000F20E00003C00000006000000020000000000000000408F40000000000CA23FC000000040CD5C59C00000000000408F4000000000390C33C000000000C9FD55C00C00000013000000FA0E00003C00000006000000020000000000000000408F400000000032733FC0000000C0836859C0
310
0000000000408F400000000021F731C0000000000F4356C00C00000013000000020F00003C00000006000000020000000000000000408F400000000032733FC0000000C0836859C00000000000408F40000000003C9D32C0000000C04F2756C00C000000130000000A0F00003C00000006000000020000000000000000408F
310
40000000000CA23FC000000040CD5C59C00000000000408F40000000003C9D32C0000000C04F2756C00C00000013000000120F00003C00000006000000020000000000000000408F4000000000CCCC29C000000000CD8C59C00000000000408F40000000006066F6BF000000C0276759C00C000000130000001A0F00003C00
310
000006000000020000000000000000408F4000000000CCCC29C000000000CD8C59C00000000000408F40000000004066F6BF00000040CD8C57C00C00000013000000220F00003C00000006000000020000000000000000408F4000000000CC4C2AC000000080167159C00000000000408F4000000000686B13C0000000A076
310
5C56C00C000000130000002A0F00003C00000006000000020000000000000000408F4000000000CC4C2AC000000080167159C00000000000408F400000000038B00BC000000080EA8956C00C00000013000000320F00003C00000006000000020000000000000000408F400000000018EF29C000000000CD7C59C000000000
310
00408F4000000000D0D602C0000000C0B5D056C00C000000130000003A0F00003C00000006000000020000000000000000408F400000000018EF29C000000000CD7C59C00000000000408F4000000000A050FABF00000080EA2957C00C00000013000000420F00003C00000006000000020000000000000000408F40000000
310
00CCCC29C000000000CD8C59C00000000000408F400000000080AEE0BF00000080EBEE59C00C000000130000004A0F00003C00000006000000020000000000000000408F4000000000CCCC29C000000000CD8C59C00000000000408F400000000000BFF2BF00000040A1B059C00C00000013000000520F00003C0000000600
310
0000020000000000000000408F4000000000CCCC29C000000000CD8C59C00000000000408F4000000000E06101C00000004024285FC00C000000130000005A0F00003C00000006000000020000000000000000408F4000000000CCCC29C000000000CD8C59C00000000000408F4000000000000000000000006003135AC00C
310
00000013000000620F00003C00000006000000020000000000000000408F4000000000CCCC29C000000000CD8C59C00000000000408F4000000000109905C000000000947B5FC00C000000130000006A0F00003C00000006000000020000000000000000408F4000000000CCCC29C000000000CD8C59C00000000000408F40
310
00000000008D04C0000000406E4E5FC00C00000013000000720F00003C00000006000000020000000000000000408F4000000000109905C000000000947B5FC00000000000408F4000000000D8CC29C00000008066E662C00C000000130000007A0F00003C00000006000000020000000000000000408F40000000008CAA29
310
C00000008066EE62C00000000000408F4000000000905B04C00000008069A85FC00C00000013000000820F00003C00000006000000020000000000000000408F4000000000D84C29C0000000C041F462C00000000000408F4000000000D00601C0000000C0CECD5FC00C000000130000008A0F00003C000000060000000200
310
00000000000000408F4000000000D8CC28C00000008066F662C00000000000408F4000000000A040F8BF00000080D9E55FC00C00000013000000920F00003C00000006000000020000000000000000408F4000000000A040F8BF00000080D9E55FC00000000000408F4000000000F8A01DC00000008066F662C00C00000013
310
0000009A0F00003C00000006000000020000000000000000408F4000000000A040F8BF00000080D9E55FC00000000000408F400000000008DD1CC0000000A02EF562C00C00000013000000A20F00003C00000006000000020000000000000000408F4000000000A040F8BF00000080D9E55FC00000000000408F4000000000
310
E8361CC0000000C0B6F162C0
100
AcDbSubDMesh
 71
     2
 72
     0
 91
        0
 92
      234
 10
-1000.000122070312
 20
-204.5000152587891
 30
-0.0000152587890625
 10
-1000.000122070312
 20
-193.1333770751953
 30
-0.0288848876953125
 10
-1000.000122070312
 20
-192.5914764404297
 30
-1.515609741210937
 10
-1000.000122070312
 20
-192.2159118652344
 30
-2.128189086914062
 10
-1000.000122070312
 20
-191.631591796875
 30
-2.544631958007812
 10
-1000.000122070312
 20
-190.9310302734375
 30
-2.699752807617187
 10
-1000.000122070312
 20
-190.2255401611328
 30
-2.568862915039062
 10
-1000.000122070312
 20
-189.6272277832031
 30
-2.172805786132812
 10
-1000.000122070312
 20
-187.4544372558593
 30
-0.000030517578125
 10
-1000.000122070312
 20
-165.1361083984375
 30
-0.0281982421875
 10
-1000.000122070312
 20
-164.5905456542968
 30
-1.5181884765625
 10
-1000.000122070312
 20
-164.2151794433593
 30
-2.12896728515625
 10
-1000.000122070312
 20
-163.630859375
 30
-2.544952392578125
 10
-1000.000122070312
 20
-162.9305114746093
 30
-2.69976806640625
 10
-1000.000122070312
 20
-162.2252807617187
 30
-2.56878662109375
 10
-1000.000122070312
 20
-161.6272277832031
 30
-2.172821044921875
 10
-1000.000122070312
 20
-159.4544372558593
 30
-0.000030517578125
 10
-1000.000122070312
 20
-144.2970886230469
 30
-0.000030517578125
 10
-1000.000122070312
 20
-143.7331237792968
 30
-0.5213623046875
 10
-1000.000122070312
 20
-142.7598419189453
 30
-1.171676635742187
 10
-1000.000122070312
 20
-141.6117858886718
 30
-1.400039672851562
 10
-1000.000122070312
 20
-114.2000274658203
 30
-1.400009155273437
 10
-1000.000122070312
 20
-112.6549453735351
 30
-1.644729614257812
 10
-1000.000122070312
 20
-111.2611007690429
 30
-2.354934692382812
 10
-1000.000122070312
 20
-110.1549530029297
 30
-3.461074829101562
 10
-1000.000122070312
 20
-109.4447479248047
 30
-4.854934692382812
 10
-1000.000122070312
 20
-109.2000274658203
 30
-6.400009155273437
 10
-1000.000122070312
 20
-109.2000274658203
 30
-17.19999694824219
 10
-1000.000122070312
 20
-109.0477905273437
 30
-17.96537780761719
 10
-1000.000122070312
 20
-108.6142425537109
 30
-18.61421203613281
 10
-1000.000122070312
 20
-107.9653930664062
 30
-19.04777526855468
 10
-1000.000122070312
 20
-107.2000274658203
 30
-19.19999694824219
 10
-1000.000122070312
 20
-59.19999694824219
 30
-19.19999694824219
 10
-1000.000122070312
 20
-56.61180114746094
 30
-19.54075622558594
 10
-1000.000122070312
 20
-54.20001220703125
 30
-20.53974914550781
 10
-1000.000122070312
 20
-52.12893676757812
 30
-22.12893676757813
 10
-1000.000122070312
 20
-50.53976440429687
 30
-24.19999694824219
 10
-1000.000122070312
 20
-49.54075622558594
 30
-26.61180877685547
 10
-1000.000122070312
 20
-49.20001220703125
 30
-29.19999694824219
 10
-1000.000122070312
 20
-49.20001220703125
 30
-47.19999694824219
 10
-1000.000122070312
 20
-49.04777526855468
 30
-47.96536254882812
 10
-1000.000122070312
 20
-48.61422729492187
 30
-48.61421203613281
 10
-1000.000122070312
 20
-47.96537780761719
 30
-49.04775238037109
 10
-1000.000122070312
 20
-47.20001220703125
 30
-49.19999694824219
 10
-1000.000122070312
 20
-29.20001220703125
 30
-49.20001220703125
 10
-1000.000122070312
 20
-26.61181640625
 30
-49.54075622558594
 10
-1000.000122070312
 20
-24.20001220703125
 30
-50.53975677490234
 10
-1000.000122070312
 20
-22.12893676757813
 30
-52.12894439697265
 10
-1000.000122070312
 20
-20.53976440429687
 30
-54.20001220703125
 10
-1000.000122070312
 20
-19.54075622558594
 30
-56.61182403564453
 10
-1000.000122070312
 20
-19.20001220703125
 30
-59.20001220703125
 10
-1000.000122070312
 20
-19.19998168945312
 30
-87.19999694824219
 10
-1000.000122070312
 20
-19.0477294921875
 30
-87.96537780761719
 10
-1000.000122070312
 20
-18.61419677734375
 30
-88.61422729492188
 10
-1000.000122070312
 20
-17.96533203125
 30
-89.04776763916016
 10
-1000.000122070312
 20
-17.19998168945312
 30
-89.20001220703126
 10
-1000.000122070312
 20
-6.39996337890625
 30
-89.20000457763672
 10
-1000.000122070312
 20
-4.854888916015625
 30
-89.44471740722656
 10
-1000.000122070312
 20
-3.4610595703125
 30
-90.15492248535156
 10
-1000.000122070312
 20
-2.354888916015625
 30
-91.26107788085937
 10
-1000.000122070312
 20
-1.644683837890625
 30
-92.65492248535156
 10
-1000.000122070312
 20
-1.39996337890625
 30
-94.20000457763672
 10
-1000.000122070312
 20
-1.399993896484375
 30
-101.6117782592773
 10
-1000.000122070312
 20
-1.171630859375
 30
-102.7598266601562
 10
-1000.000122070312
 20
-0.52130126953125
 30
-103.7331008911132
 10
-1000.000122070312
 20
0.0
 30
-104.2970581054687
 10
-1000.000122070312
 20
0.0
 30
-122.4544219970703
 10
-1000.000122070312
 20
-2.17279052734375
 30
-124.627212524414
 10
-1000.000122070312
 20
-2.568817138671875
 30
-125.2254486083984
 10
-1000.000122070312
 20
-2.699737548828125
 30
-125.9308319091797
 10
-1000.000122070312
 20
-2.54473876953125
 30
-126.6313323974609
 10
-1000.000122070312
 20
-2.128448486328125
 30
-127.2156524658203
 10
-1000.000122070312
 20
-1.515777587890625
 30
-127.5914001464844
 10
-1000.000122070312
 20
-0.02886962890625
 30
-128.1333618164062
 10
-1000.000122070312
 20
0.0
 30
-144.5
 10
-1000.000122070312
 20
-7.05352783203125
 30
-151.5535583496093
 10
-1000.000122070312
 20
-7.21575927734375
 30
-151.6619415283203
 10
-1000.000122070312
 20
-7.4071044921875
 30
-151.7000122070312
 10
-1000.000122070312
 20
-12.39999389648437
 30
-151.7000122070312
 10
-1000.000122070312
 20
-12.64999389648437
 30
-151.6330261230469
 10
-1000.000122070312
 20
-12.8330078125
 30
-151.4500122070312
 10
-1000.000122070312
 20
-12.89999389648437
 30
-151.2000122070312
 10
-1000.000122070312
 20
-12.89999389648437
 30
-102.1999969482422
 10
-1000.000122070312
 20
-12.96697998046875
 30
-101.9499969482422
 10
-1000.000122070312
 20
-13.14999389648437
 30
-101.7669830322265
 10
-1000.000122070312
 20
-13.39999389648437
 30
-101.6999969482422
 10
-1000.000122070312
 20
-31.19998168945313
 30
-101.7000122070312
 10
-1000.000122070312
 20
-31.44998168945313
 30
-101.6330261230468
 10
-1000.000122070312
 20
-31.63299560546875
 30
-101.4500122070312
 10
-1000.000122070312
 20
-31.69998168945312
 30
-101.2000122070312
 10
-1000.000122070312
 20
-31.70001220703125
 30
-62.19999694824219
 10
-1000.000122070312
 20
-31.76699829101563
 30
-61.94999694824218
 10
-1000.000122070312
 20
-31.95001220703125
 30
-61.76698303222656
 10
-1000.000122070312
 20
-32.20001220703125
 30
-61.69999694824219
 10
-1000.000122070312
 20
-61.20001220703125
 30
-61.69999694824219
 10
-1000.000122070312
 20
-61.45001220703125
 30
-61.63301086425781
 10
-1000.000122070312
 20
-61.63302612304687
 30
-61.44999694824218
 10
-1000.000122070312
 20
-61.70001220703125
 30
-61.19999694824219
 10
-1000.000122070312
 20
-61.70001220703125
 30
-32.19999694824219
 10
-1000.000122070312
 20
-61.76699829101562
 30
-31.94999694824219
 10
-1000.000122070312
 20
-61.95001220703125
 30
-31.76698303222656
 10
-1000.000122070312
 20
-62.20001220703125
 30
-31.69999694824219
 10
-1000.000122070312
 20
-121.2000122070312
 30
-31.70000457763672
 10
-1000.000122070312
 20
-121.4500122070312
 30
-31.63301849365235
 10
-1000.000122070312
 20
-121.6330261230468
 30
-31.45000457763672
 10
-1000.000122070312
 20
-121.7000122070312
 30
-31.20000457763672
 10
-1000.000122070312
 20
-121.7000274658203
 30
-13.40000915527344
 10
-1000.000122070312
 20
-121.7670135498047
 30
-13.15000915527344
 10
-1000.000122070312
 20
-121.9500274658203
 30
-12.96699523925781
 10
-1000.000122070312
 20
-122.2000274658203
 30
-12.90000915527343
 10
-1000.000122070312
 20
-211.2000122070313
 30
-12.90000915527343
 10
-1000.000122070312
 20
-211.4500122070313
 30
-12.83302307128906
 10
-1000.000122070312
 20
-211.6330261230469
 30
-12.65000915527344
 10
-1000.000122070312
 20
-211.7000122070312
 30
-12.40000915527344
 10
-1000.000122070312
 20
-211.7000122070312
 30
-7.407119750976562
 10
-1000.000122070312
 20
-211.6619415283203
 30
-7.215774536132812
 10
-1000.000122070312
 20
-211.5535736083984
 30
-7.053558349609375
 10
999.9998779296875
 20
-204.5001068115234
 30
0.0
 10
999.9998779296875
 20
-211.5536804199219
 30
-7.053558349609375
 10
999.9998779296875
 20
-192.591567993164
 30
-1.515594482421875
 10
999.9998779296875
 20
-193.1334991455078
 30
-0.028900146484375
 10
999.9998779296875
 20
-211.6620483398437
 30
-7.21575927734375
 10
999.9998779296875
 20
-211.7001190185547
 30
-7.4071044921875
 10
999.9998779296875
 20
-211.7001190185547
 30
-12.39999389648437
 10
999.9998779296875
 20
-211.6331329345703
 30
-12.64999389648437
 10
999.9998779296875
 20
-192.2158966064453
 30
-2.1282958984375
 10
999.9998779296875
 20
-191.6315765380859
 30
-2.544677734375
 10
999.9998779296875
 20
-211.4501190185547
 30
-12.8330078125
 10
999.9998779296875
 20
-190.9310455322265
 30
-2.699737548828125
 10
999.9998779296875
 20
-211.2001190185547
 30
-12.89999389648437
 10
999.9998779296875
 20
-190.2255859375
 30
-2.56884765625
 10
999.9998779296875
 20
-122.2001113891601
 30
-12.90000915527343
 10
999.9998779296875
 20
-164.5906219482422
 30
-1.5181884765625
 10
999.9998779296875
 20
-165.13623046875
 30
-0.0281982421875
 10
999.9998779296875
 20
-187.4545135498047
 30
-0.000030517578125
 10
999.9998779296875
 20
-189.6273040771484
 30
-2.17279052734375
 10
999.9998779296875
 20
-164.2151641845703
 30
-2.129058837890625
 10
999.9998779296875
 20
-163.6308441162109
 30
-2.54498291015625
 10
999.9998779296875
 20
-143.7332000732422
 30
-0.5213623046875
 10
999.9998779296875
 20
-144.2971496582031
 30
-0.000030517578125
 10
999.9998779296875
 20
-159.4545135498047
 30
-0.000030517578125
 10
999.9998779296875
 20
-161.6273040771484
 30
-2.172821044921875
 10
999.9998779296875
 20
-142.7599182128906
 30
-1.171676635742187
 10
999.9998779296875
 20
-162.225341796875
 30
-2.568756103515625
 10
999.9998779296875
 20
-114.2001113891601
 30
-1.400009155273437
 10
999.9998779296875
 20
-141.6118774414062
 30
-1.400039672851562
 10
999.9998779296875
 20
-162.9305114746093
 30
-2.69976806640625
 10
999.9998779296875
 20
-121.9501113891601
 30
-12.96699523925781
 10
999.9998779296875
 20
-112.6550369262695
 30
-1.644729614257812
 10
999.9998779296875
 20
-121.7001113891601
 30
-13.40000915527344
 10
999.9998779296875
 20
-121.7000885009765
 30
-31.20000457763672
 10
999.9998779296875
 20
-109.2001113891601
 30
-17.19999694824219
 10
999.9998779296875
 20
-109.2001113891601
 30
-6.400009155273437
 10
999.9998779296875
 20
-111.2611770629883
 30
-2.354934692382812
 10
999.9998779296875
 20
-121.7670974731445
 30
-13.15000915527344
 10
999.9998779296875
 20
-110.1550369262695
 30
-3.461074829101562
 10
999.9998779296875
 20
-109.4448318481445
 30
-4.854934692382812
 10
999.9998779296875
 20
-121.2000961303711
 30
-31.70000457763672
 10
999.9998779296875
 20
-62.20002746582031
 30
-31.69998931884766
 10
999.9998779296875
 20
-59.20001220703125
 30
-19.19999694824219
 10
999.9998779296875
 20
-107.2001113891601
 30
-19.19999694824219
 10
999.9998779296875
 20
-121.6331100463867
 30
-31.45000457763672
 10
999.9998779296875
 20
-109.0478744506836
 30
-17.96537780761719
 10
999.9998779296875
 20
-121.4500961303711
 30
-31.63301849365235
 10
999.9998779296875
 20
-108.6143264770508
 30
-18.61421203613281
 10
999.9998779296875
 20
-107.9654769897461
 30
-19.04777526855468
 10
999.9998779296875
 20
-61.70002746582031
 30
-32.19998931884766
 10
999.9998779296875
 20
-61.70002746582031
 30
-61.19998931884765
 10
999.9998779296875
 20
-49.20002746582031
 30
-47.19998931884766
 10
999.9998779296875
 20
-49.20002746582031
 30
-29.19998931884766
 10
999.9998779296875
 20
-61.95002746582031
 30
-31.76697540283203
 10
999.9998779296875
 20
-56.61181640625
 30
-19.54075622558594
 10
999.9998779296875
 20
-52.12895202636719
 30
-22.12901306152344
 10
999.9998779296875
 20
-54.20002746582031
 30
-20.53974914550781
 10
999.9998779296875
 20
-61.76701354980469
 30
-31.94998931884766
 10
999.9998779296875
 20
-49.540771484375
 30
-26.61180114746094
 10
999.9998779296875
 20
-50.53977966308593
 30
-24.19998931884766
 10
999.9998779296875
 20
-61.20002746582031
 30
-61.69998931884766
 10
1000.0
 20
-32.20002746582031
 30
-61.69999694824219
 10
1000.0
 20
-29.20002746582031
 30
-49.20000457763672
 10
999.9998779296875
 20
-47.20002746582031
 30
-49.19998931884766
 10
999.9998779296875
 20
-61.63304138183594
 30
-61.44998931884765
 10
999.9998779296875
 20
-49.04779052734375
 30
-47.96535491943359
 10
999.9998779296875
 20
-61.45002746582031
 30
-61.63300323486328
 10
999.9998779296875
 20
-48.61424255371094
 30
-48.61420440673828
 10
999.9998779296875
 20
-47.96539306640625
 30
-49.04774475097656
 10
1000.0
 20
-31.95002746582031
 30
-61.76698303222656
 10
1000.0
 20
-26.61183166503906
 30
-49.54075622558594
 10
1000.0
 20
-31.70002746582031
 30
-62.19999694824219
 10
1000.0
 20
-31.69998168945312
 30
-101.2000274658203
 10
1000.0
 20
-19.19998168945312
 30
-87.19999694824219
 10
1000.0
 20
-19.20002746582031
 30
-59.20001220703125
 10
1000.0
 20
-31.76701354980469
 30
-61.94999694824218
 10
1000.0
 20
-19.540771484375
 30
-56.61182403564453
 10
1000.0
 20
-20.53977966308594
 30
-54.20001220703125
 10
1000.0
 20
-22.12895202636719
 30
-52.12894439697265
 10
1000.0
 20
-24.20002746582031
 30
-50.53975677490234
 10
1000.0
 20
-31.19998168945313
 30
-101.7000274658203
 10
1000.0
 20
-13.39999389648437
 30
-101.7000122070312
 10
1000.0
 20
-6.39996337890625
 30
-89.20002746582031
 10
1000.0
 20
-17.19998168945312
 30
-89.20002746582031
 10
1000.0
 20
-31.63299560546875
 30
-101.4500274658203
 10
1000.0
 20
-19.04774475097656
 30
-87.96539306640625
 10
1000.0
 20
-31.44998168945313
 30
-101.6330413818359
 10
1000.0
 20
-17.96534729003906
 30
-89.04779052734374
 10
1000.0
 20
-18.61419677734375
 30
-88.61424255371094
 10
1000.0
 20
-12.89999389648437
 30
-102.2000122070312
 10
1000.0
 20
-1.399993896484375
 30
-101.6118011474609
 10
1000.0
 20
-1.39996337890625
 30
-94.20002746582031
 10
1000.0
 20
-13.14999389648437
 30
-101.7669982910156
 10
1000.0
 20
-4.854888916015625
 30
-89.44474029541016
 10
1000.0
 20
-3.461044311523437
 30
-90.15493774414062
 10
1000.0
 20
-12.96697998046875
 30
-101.9500122070312
 10
1000.0
 20
-2.354888916015625
 30
-91.26109313964844
 10
1000.0
 20
-1.644683837890625
 30
-92.65493774414062
 10
1000.0
 20
-0.52130126953125
 30
-103.7331237792969
 10
1000.0
 20
-1.171630859375
 30
-102.7598419189453
 10
1000.0
 20
-2.17279052734375
 30
-124.627212524414
 10
1000.0
 20
0.0
 30
-122.4544067382812
 10
1000.0
 20
0.0
 30
-104.2970809936523
 10
1000.0
 20
-2.699737548828125
 30
-125.930908203125
 10
1000.0
 20
-2.56884765625
 30
-125.2254791259765
 10
1000.0
 20
-12.90008544921875
 30
-151.2000122070312
 10
1000.0
 20
-12.83309936523437
 30
-151.4500122070312
 10
1000.0
 20
-2.544708251953125
 30
-126.6314392089844
 10
1000.0
 20
-12.65008544921875
 30
-151.6330261230469
 10
1000.0
 20
-2.128326416015625
 30
-127.2157440185547
 10
1000.0
 20
-12.40008544921875
 30
-151.7000122070312
 10
1000.0
 20
-1.515777587890625
 30
-127.5914001464844
 10
1000.0
 20
-7.407196044921875
 30
-151.7000122070312
 10
1000.0
 20
-7.215850830078125
 30
-151.6619415283203
 10
1000.0
 20
-7.053619384765625
 30
-151.5535583496093
 10
1000.0
 20
-0.000091552734375
 30
-144.5
 10
1000.0
 20
-0.028900146484375
 30
-128.1333923339843
 93
     1271
 90
        4
 90
      114
 90
      122
 90
      121
 90
      115
 90
        4
 90
      115
 90
      121
 90
      118
 90
      116
 90
        4
 90
      116
 90
      118
 90
      117
 90
        0
 90
        4
 90
        0
 90
      117
 90
      120
 90
        1
 90
        4
 90
        1
 90
      120
 90
      119
 90
        2
 90
        4
 90
        2
 90
      119
 90
      125
 90
        3
 90
        4
 90
        3
 90
      125
 90
      126
 90
        4
 90
        4
 90
        4
 90
      126
 90
      128
 90
        5
 90
        4
 90
        5
 90
      128
 90
      130
 90
        6
 90
        4
 90
        6
 90
      130
 90
      135
 90
        7
 90
        4
 90
        7
 90
      135
 90
      134
 90
        8
 90
        4
 90
        8
 90
      134
 90
      133
 90
        9
 90
        4
 90
        9
 90
      133
 90
      132
 90
       10
 90
        4
 90
       10
 90
      132
 90
      136
 90
       11
 90
        4
 90
       11
 90
      136
 90
      137
 90
       12
 90
        4
 90
       12
 90
      137
 90
      146
 90
       13
 90
        4
 90
       13
 90
      146
 90
      143
 90
       14
 90
        4
 90
       14
 90
      143
 90
      141
 90
       15
 90
        4
 90
       15
 90
      141
 90
      140
 90
       16
 90
        4
 90
       16
 90
      140
 90
      139
 90
       17
 90
        4
 90
       17
 90
      139
 90
      138
 90
       18
 90
        4
 90
       18
 90
      138
 90
      142
 90
       19
 90
        4
 90
       19
 90
      142
 90
      145
 90
       20
 90
        4
 90
       20
 90
      145
 90
      144
 90
       21
 90
        4
 90
       21
 90
      144
 90
      148
 90
       22
 90
        4
 90
       22
 90
      148
 90
      153
 90
       23
 90
        4
 90
       23
 90
      153
 90
      155
 90
       24
 90
        4
 90
       24
 90
      155
 90
      156
 90
       25
 90
        4
 90
       25
 90
      156
 90
      152
 90
       26
 90
        4
 90
       26
 90
      152
 90
      151
 90
       27
 90
        4
 90
       27
 90
      151
 90
      162
 90
       28
 90
        4
 90
       28
 90
      162
 90
      164
 90
       29
 90
        4
 90
       29
 90
      164
 90
      165
 90
       30
 90
        4
 90
       30
 90
      165
 90
      160
 90
       31
 90
        4
 90
       31
 90
      160
 90
      159
 90
       32
 90
        4
 90
       32
 90
      159
 90
      171
 90
       33
 90
        4
 90
       33
 90
      171
 90
      173
 90
       34
 90
        4
 90
       34
 90
      173
 90
      172
 90
       35
 90
        4
 90
       35
 90
      172
 90
      176
 90
       36
 90
        4
 90
       36
 90
      176
 90
      175
 90
       37
 90
        4
 90
       37
 90
      175
 90
      169
 90
       38
 90
        4
 90
       38
 90
      169
 90
      168
 90
       39
 90
        4
 90
       39
 90
      168
 90
      182
 90
       40
 90
        4
 90
       40
 90
      182
 90
      184
 90
       41
 90
        4
 90
       41
 90
      184
 90
      185
 90
       42
 90
        4
 90
       42
 90
      185
 90
      180
 90
       43
 90
        4
 90
       43
 90
      180
 90
      179
 90
       44
 90
        4
 90
       44
 90
      179
 90
      187
 90
       45
 90
        4
 90
       45
 90
      187
 90
      196
 90
       46
 90
        4
 90
       46
 90
      196
 90
      195
 90
       47
 90
        4
 90
       47
 90
      195
 90
      194
 90
       48
 90
        4
 90
       48
 90
      194
 90
      193
 90
       49
 90
        4
 90
       49
 90
      193
 90
      191
 90
       50
 90
        4
 90
       50
 90
      191
 90
      190
 90
       51
 90
        4
 90
       51
 90
      190
 90
      202
 90
       52
 90
        4
 90
       52
 90
      202
 90
      205
 90
       53
 90
        4
 90
       53
 90
      205
 90
      204
 90
       54
 90
        4
 90
       54
 90
      204
 90
      200
 90
       55
 90
        4
 90
       55
 90
      200
 90
      199
 90
       56
 90
        4
 90
       56
 90
      199
 90
      210
 90
       57
 90
        4
 90
       57
 90
      210
 90
      211
 90
       58
 90
        4
 90
       58
 90
      211
 90
      213
 90
       59
 90
        4
 90
       59
 90
      213
 90
      214
 90
       60
 90
        4
 90
       60
 90
      214
 90
      208
 90
       61
 90
        4
 90
       61
 90
      208
 90
      207
 90
       62
 90
        4
 90
       62
 90
      207
 90
      216
 90
       63
 90
        4
 90
       63
 90
      216
 90
      215
 90
       64
 90
        4
 90
       64
 90
      215
 90
      219
 90
       65
 90
        4
 90
       65
 90
      219
 90
      218
 90
       66
 90
        4
 90
       66
 90
      218
 90
      217
 90
       67
 90
        4
 90
       67
 90
      217
 90
      221
 90
       68
 90
        4
 90
       68
 90
      221
 90
      220
 90
       69
 90
        4
 90
       69
 90
      220
 90
      224
 90
       70
 90
        4
 90
       70
 90
      224
 90
      226
 90
       71
 90
        4
 90
       71
 90
      226
 90
      228
 90
       72
 90
        4
 90
       72
 90
      228
 90
      233
 90
       73
 90
        4
 90
       73
 90
      233
 90
      232
 90
       74
 90
        4
 90
       74
 90
      232
 90
      231
 90
       75
 90
        4
 90
       75
 90
      231
 90
      230
 90
       76
 90
        4
 90
       76
 90
      230
 90
      229
 90
       77
 90
        4
 90
       77
 90
      229
 90
      227
 90
       78
 90
        4
 90
       78
 90
      227
 90
      225
 90
       79
 90
        4
 90
       79
 90
      225
 90
      223
 90
       80
 90
        4
 90
       80
 90
      223
 90
      222
 90
       81
 90
        4
 90
       81
 90
      222
 90
      206
 90
       82
 90
        4
 90
       82
 90
      206
 90
      212
 90
       83
 90
        4
 90
       83
 90
      212
 90
      209
 90
       84
 90
        4
 90
       84
 90
      209
 90
      198
 90
       85
 90
        4
 90
       85
 90
      198
 90
      197
 90
       86
 90
        4
 90
       86
 90
      197
 90
      203
 90
       87
 90
        4
 90
       87
 90
      203
 90
      201
 90
       88
 90
        4
 90
       88
 90
      201
 90
      189
 90
       89
 90
        4
 90
       89
 90
      189
 90
      188
 90
       90
 90
        4
 90
       90
 90
      188
 90
      192
 90
       91
 90
        4
 90
       91
 90
      192
 90
      186
 90
       92
 90
        4
 90
       92
 90
      186
 90
      178
 90
       93
 90
        4
 90
       93
 90
      178
 90
      177
 90
       94
 90
        4
 90
       94
 90
      177
 90
      183
 90
       95
 90
        4
 90
       95
 90
      183
 90
      181
 90
       96
 90
        4
 90
       96
 90
      181
 90
      167
 90
       97
 90
        4
 90
       97
 90
      167
 90
      166
 90
       98
 90
        4
 90
       98
 90
      166
 90
      174
 90
       99
 90
        4
 90
       99
 90
      174
 90
      170
 90
      100
 90
        4
 90
      100
 90
      170
 90
      158
 90
      101
 90
        4
 90
      101
 90
      158
 90
      157
 90
      102
 90
        4
 90
      102
 90
      157
 90
      163
 90
      103
 90
        4
 90
      103
 90
      163
 90
      161
 90
      104
 90
        4
 90
      104
 90
      161
 90
      150
 90
      105
 90
        4
 90
      105
 90
      150
 90
      149
 90
      106
 90
        4
 90
      106
 90
      149
 90
      154
 90
      107
 90
        4
 90
      107
 90
      154
 90
      147
 90
      108
 90
        4
 90
      108
 90
      147
 90
      131
 90
      109
 90
        4
 90
      109
 90
      131
 90
      129
 90
      110
 90
        4
 90
      110
 90
      129
 90
      127
 90
      111
 90
        4
 90
      111
 90
      127
 90
      124
 90
      112
 90
        4
 90
      112
 90
      124
 90
      123
 90
      113
 90
        4
 90
      113
 90
      123
 90
      122
 90
      114
 90
        4
 90
        0
 90
        1
 90
        2
 90
      116
 90
        4
 90
      115
 90
      112
 90
      113
 90
      114
 90
        4
 90
      116
 90
        2
 90
        3
 90
      115
 90
        4
 90
      115
 90
        3
 90
        4
 90
      112
 90
        4
 90
      112
 90
        4
 90
        5
 90
      111
 90
        4
 90
      111
 90
        5
 90
        6
 90
      110
 90
        3
 90
      110
 90
        6
 90
      109
 90
        4
 90
       10
 90
        7
 90
        8
 90
        9
 90
        4
 90
       11
 90
        6
 90
        7
 90
       10
 90
        3
 90
       12
 90
        6
 90
       11
 90
        4
 90
       18
 90
       15
 90
       16
 90
       17
 90
        4
 90
       19
 90
       14
 90
       15
 90
       18
 90
        3
 90
      109
 90
       20
 90
       21
 90
        3
 90
      109
 90
       19
 90
       20
 90
        4
 90
      109
 90
       13
 90
       14
 90
       19
 90
        4
 90
      109
 90
        6
 90
       12
 90
       13
 90
        4
 90
      109
 90
       21
 90
       22
 90
      108
 90
        4
 90
      106
 90
       26
 90
       27
 90
      105
 90
        3
 90
      108
 90
       22
 90
       23
 90
        4
 90
      108
 90
       23
 90
       24
 90
      107
 90
        3
 90
      107
 90
       24
 90
       25
 90
        4
 90
      107
 90
       25
 90
       26
 90
      106
 90
        4
 90
      102
 90
       31
 90
       32
 90
      101
 90
        4
 90
      105
 90
       27
 90
       28
 90
      104
 90
        3
 90
      104
 90
       29
 90
      103
 90
        3
 90
      104
 90
       28
 90
       29
 90
        4
 90
      103
 90
       30
 90
       31
 90
      102
 90
        3
 90
      103
 90
       29
 90
       30
 90
        4
 90
       98
 90
       38
 90
       39
 90
       97
 90
        4
 90
      101
 90
       32
 90
       33
 90
      100
 90
        3
 90
      100
 90
       34
 90
       35
 90
        3
 90
      100
 90
       33
 90
       34
 90
        4
 90
       99
 90
       37
 90
       38
 90
       98
 90
        3
 90
       99
 90
       36
 90
       37
 90
        3
 90
      100
 90
       35
 90
       99
 90
        3
 90
       99
 90
       35
 90
       36
 90
        4
 90
       94
 90
       43
 90
       44
 90
       93
 90
        4
 90
       97
 90
       39
 90
       40
 90
       96
 90
        3
 90
       96
 90
       41
 90
       95
 90
        3
 90
       96
 90
       40
 90
       41
 90
        4
 90
       95
 90
       42
 90
       43
 90
       94
 90
        3
 90
       95
 90
       41
 90
       42
 90
        4
 90
       93
 90
       44
 90
       45
 90
       92
 90
        4
 90
       90
 90
       50
 90
       51
 90
       89
 90
        4
 90
       91
 90
       49
 90
       50
 90
       90
 90
        3
 90
       91
 90
       48
 90
       49
 90
        3
 90
       92
 90
       46
 90
       47
 90
        3
 90
       92
 90
       45
 90
       46
 90
        3
 90
       92
 90
       47
 90
       91
 90
        3
 90
       91
 90
       47
 90
       48
 90
        4
 90
       86
 90
       55
 90
       56
 90
       85
 90
        4
 90
       89
 90
       51
 90
       52
 90
       88
 90
        4
 90
       87
 90
       54
 90
       55
 90
       86
 90
        3
 90
       87
 90
       53
 90
       54
 90
        3
 90
       88
 90
       53
 90
       87
 90
        3
 90
       88
 90
       52
 90
       53
 90
        3
 90
       82
 90
       61
 90
       62
 90
        4
 90
       85
 90
       56
 90
       57
 90
       84
 90
        3
 90
       84
 90
       57
 90
       58
 90
        4
 90
       84
 90
       58
 90
       59
 90
       83
 90
        3
 90
       83
 90
       59
 90
       60
 90
        4
 90
       83
 90
       60
 90
       61
 90
       82
 90
        3
 90
       82
 90
       63
 90
       64
 90
        3
 90
       82
 90
       62
 90
       63
 90
        4
 90
       82
 90
       65
 90
       66
 90
       67
 90
        3
 90
       82
 90
       64
 90
       65
 90
        3
 90
       82
 90
       68
 90
       69
 90
        3
 90
       82
 90
       67
 90
       68
 90
        3
 90
       82
 90
       69
 90
       81
 90
        4
 90
       81
 90
       69
 90
       70
 90
       80
 90
        4
 90
       80
 90
       70
 90
       71
 90
       79
 90
        4
 90
       79
 90
       71
 90
       72
 90
       78
 90
        3
 90
       78
 90
       72
 90
       77
 90
        3
 90
       77
 90
       72
 90
       76
 90
        4
 90
       75
 90
       72
 90
       73
 90
       74
 90
        3
 90
       76
 90
       72
 90
       75
 90
        4
 90
      117
 90
      118
 90
      119
 90
      120
 90
        4
 90
      121
 90
      122
 90
      123
 90
      124
 90
        4
 90
      118
 90
      121
 90
      125
 90
      119
 90
        4
 90
      121
 90
      124
 90
      126
 90
      125
 90
        4
 90
      124
 90
      127
 90
      128
 90
      126
 90
        4
 90
      127
 90
      129
 90
      130
 90
      128
 90
        3
 90
      129
 90
      131
 90
      130
 90
        4
 90
      132
 90
      133
 90
      134
 90
      135
 90
        4
 90
      136
 90
      132
 90
      135
 90
      130
 90
        3
 90
      137
 90
      136
 90
      130
 90
        4
 90
      138
 90
      139
 90
      140
 90
      141
 90
        4
 90
      142
 90
      138
 90
      141
 90
      143
 90
        3
 90
      131
 90
      144
 90
      145
 90
        3
 90
      131
 90
      145
 90
      142
 90
        4
 90
      131
 90
      142
 90
      143
 90
      146
 90
        4
 90
      131
 90
      146
 90
      137
 90
      130
 90
        4
 90
      131
 90
      147
 90
      148
 90
      144
 90
        4
 90
      149
 90
      150
 90
      151
 90
      152
 90
        3
 90
      147
 90
      153
 90
      148
 90
        4
 90
      147
 90
      154
 90
      155
 90
      153
 90
        3
 90
      154
 90
      156
 90
      155
 90
        4
 90
      154
 90
      149
 90
      152
 90
      156
 90
        4
 90
      157
 90
      158
 90
      159
 90
      160
 90
        4
 90
      150
 90
      161
 90
      162
 90
      151
 90
        3
 90
      161
 90
      163
 90
      164
 90
        3
 90
      161
 90
      164
 90
      162
 90
        4
 90
      163
 90
      157
 90
      160
 90
      165
 90
        3
 90
      163
 90
      165
 90
      164
 90
        4
 90
      166
 90
      167
 90
      168
 90
      169
 90
        4
 90
      158
 90
      170
 90
      171
 90
      159
 90
        3
 90
      170
 90
      172
 90
      173
 90
        3
 90
      170
 90
      173
 90
      171
 90
        4
 90
      174
 90
      166
 90
      169
 90
      175
 90
        3
 90
      174
 90
      175
 90
      176
 90
        3
 90
      170
 90
      174
 90
      172
 90
        3
 90
      174
 90
      176
 90
      172
 90
        4
 90
      177
 90
      178
 90
      179
 90
      180
 90
        4
 90
      167
 90
      181
 90
      182
 90
      168
 90
        3
 90
      181
 90
      183
 90
      184
 90
        3
 90
      181
 90
      184
 90
      182
 90
        4
 90
      183
 90
      177
 90
      180
 90
      185
 90
        3
 90
      183
 90
      185
 90
      184
 90
        4
 90
      178
 90
      186
 90
      187
 90
      179
 90
        4
 90
      188
 90
      189
 90
      190
 90
      191
 90
        4
 90
      192
 90
      188
 90
      191
 90
      193
 90
        3
 90
      192
 90
      193
 90
      194
 90
        3
 90
      186
 90
      195
 90
      196
 90
        3
 90
      186
 90
      196
 90
      187
 90
        3
 90
      186
 90
      192
 90
      195
 90
        3
 90
      192
 90
      194
 90
      195
 90
        4
 90
      197
 90
      198
 90
      199
 90
      200
 90
        4
 90
      189
 90
      201
 90
      202
 90
      190
 90
        4
 90
      203
 90
      197
 90
      200
 90
      204
 90
        3
 90
      203
 90
      204
 90
      205
 90
        3
 90
      201
 90
      203
 90
      205
 90
        3
 90
      201
 90
      205
 90
      202
 90
        3
 90
      206
 90
      207
 90
      208
 90
        4
 90
      198
 90
      209
 90
      210
 90
      199
 90
        3
 90
      209
 90
      211
 90
      210
 90
        4
 90
      209
 90
      212
 90
      213
 90
      211
 90
        3
 90
      212
 90
      214
 90
      213
 90
        4
 90
      212
 90
      206
 90
      208
 90
      214
 90
        3
 90
      206
 90
      215
 90
      216
 90
        3
 90
      206
 90
      216
 90
      207
 90
        4
 90
      206
 90
      217
 90
      218
 90
      219
 90
        3
 90
      206
 90
      219
 90
      215
 90
        3
 90
      206
 90
      220
 90
      221
 90
        3
 90
      206
 90
      221
 90
      217
 90
        3
 90
      206
 90
      222
 90
      220
 90
        4
 90
      222
 90
      223
 90
      224
 90
      220
 90
        4
 90
      223
 90
      225
 90
      226
 90
      224
 90
        4
 90
      225
 90
      227
 90
      228
 90
      226
 90
        3
 90
      227
 90
      229
 90
      228
 90
        3
 90
      229
 90
      230
 90
      228
 90
        4
 90
      231
 90
      232
 90
      233
 90
      228
 90
        3
 90
      230
 90
      231
 90
      228
 94
      501
 90
      114
 90
      122
 90
      121
 90
      122
 90
      115
 90
      121
 90
      114
 90
      115
 90
      118
 90
      121
 90
      116
 90
      118
 90
      115
 90
      116
 90
      117
 90
      118
 90
        0
 90
      117
 90
        0
 90
      116
 90
      117
 90
      120
 90
        1
 90
      120
 90
        0
 90
        1
 90
      119
 90
      120
 90
        2
 90
      119
 90
        1
 90
        2
 90
      119
 90
      125
 90
        3
 90
      125
 90
        2
 90
        3
 90
      125
 90
      126
 90
        4
 90
      126
 90
        3
 90
        4
 90
      126
 90
      128
 90
        5
 90
      128
 90
        4
 90
        5
 90
      128
 90
      130
 90
        6
 90
      130
 90
        5
 90
        6
 90
      130
 90
      135
 90
        7
 90
      135
 90
        6
 90
        7
 90
      134
 90
      135
 90
        8
 90
      134
 90
        7
 90
        8
 90
      133
 90
      134
 90
        9
 90
      133
 90
        8
 90
        9
 90
      132
 90
      133
 90
       10
 90
      132
 90
        9
 90
       10
 90
      132
 90
      136
 90
       11
 90
      136
 90
       10
 90
       11
 90
      136
 90
      137
 90
       12
 90
      137
 90
       11
 90
       12
 90
      137
 90
      146
 90
       13
 90
      146
 90
       12
 90
       13
 90
      143
 90
      146
 90
       14
 90
      143
 90
       13
 90
       14
 90
      141
 90
      143
 90
       15
 90
      141
 90
       14
 90
       15
 90
      140
 90
      141
 90
       16
 90
      140
 90
       15
 90
       16
 90
      139
 90
      140
 90
       17
 90
      139
 90
       16
 90
       17
 90
      138
 90
      139
 90
       18
 90
      138
 90
       17
 90
       18
 90
      138
 90
      142
 90
       19
 90
      142
 90
       18
 90
       19
 90
      142
 90
      145
 90
       20
 90
      145
 90
       19
 90
       20
 90
      144
 90
      145
 90
       21
 90
      144
 90
       20
 90
       21
 90
      144
 90
      148
 90
       22
 90
      148
 90
       21
 90
       22
 90
      148
 90
      153
 90
       23
 90
      153
 90
       22
 90
       23
 90
      153
 90
      155
 90
       24
 90
      155
 90
       23
 90
       24
 90
      155
 90
      156
 90
       25
 90
      156
 90
       24
 90
       25
 90
      152
 90
      156
 90
       26
 90
      152
 90
       25
 90
       26
 90
      151
 90
      152
 90
       27
 90
      151
 90
       26
 90
       27
 90
      151
 90
      162
 90
       28
 90
      162
 90
       27
 90
       28
 90
      162
 90
      164
 90
       29
 90
      164
 90
       28
 90
       29
 90
      164
 90
      165
 90
       30
 90
      165
 90
       29
 90
       30
 90
      160
 90
      165
 90
       31
 90
      160
 90
       30
 90
       31
 90
      159
 90
      160
 90
       32
 90
      159
 90
       31
 90
       32
 90
      159
 90
      171
 90
       33
 90
      171
 90
       32
 90
       33
 90
      171
 90
      173
 90
       34
 90
      173
 90
       33
 90
       34
 90
      172
 90
      173
 90
       35
 90
      172
 90
       34
 90
       35
 90
      172
 90
      176
 90
       36
 90
      176
 90
       35
 90
       36
 90
      175
 90
      176
 90
       37
 90
      175
 90
       36
 90
       37
 90
      169
 90
      175
 90
       38
 90
      169
 90
       37
 90
       38
 90
      168
 90
      169
 90
       39
 90
      168
 90
       38
 90
       39
 90
      168
 90
      182
 90
       40
 90
      182
 90
       39
 90
       40
 90
      182
 90
      184
 90
       41
 90
      184
 90
       40
 90
       41
 90
      184
 90
      185
 90
       42
 90
      185
 90
       41
 90
       42
 90
      180
 90
      185
 90
       43
 90
      180
 90
       42
 90
       43
 90
      179
 90
      180
 90
       44
 90
      179
 90
       43
 90
       44
 90
      179
 90
      187
 90
       45
 90
      187
 90
       44
 90
       45
 90
      187
 90
      196
 90
       46
 90
      196
 90
       45
 90
       46
 90
      195
 90
      196
 90
       47
 90
      195
 90
       46
 90
       47
 90
      194
 90
      195
 90
       48
 90
      194
 90
       47
 90
       48
 90
      193
 90
      194
 90
       49
 90
      193
 90
       48
 90
       49
 90
      191
 90
      193
 90
       50
 90
      191
 90
       49
 90
       50
 90
      190
 90
      191
 90
       51
 90
      190
 90
       50
 90
       51
 90
      190
 90
      202
 90
       52
 90
      202
 90
       51
 90
       52
 90
      202
 90
      205
 90
       53
 90
      205
 90
       52
 90
       53
 90
      204
 90
      205
 90
       54
 90
      204
 90
       53
 90
       54
 90
      200
 90
      204
 90
       55
 90
      200
 90
       54
 90
       55
 90
      199
 90
      200
 90
       56
 90
      199
 90
       55
 90
       56
 90
      199
 90
      210
 90
       57
 90
      210
 90
       56
 90
       57
 90
      210
 90
      211
 90
       58
 90
      211
 90
       57
 90
       58
 90
      211
 90
      213
 90
       59
 90
      213
 90
       58
 90
       59
 90
      213
 90
      214
 90
       60
 90
      214
 90
       59
 90
       60
 90
      208
 90
      214
 90
       61
 90
      208
 90
       60
 90
       61
 90
      207
 90
      208
 90
       62
 90
      207
 90
       61
 90
       62
 90
      207
 90
      216
 90
       63
 90
      216
 90
       62
 90
       63
 90
      215
 90
      216
 90
       64
 90
      215
 90
       63
 90
       64
 90
      215
 90
      219
 90
       65
 90
      219
 90
       64
 90
       65
 90
      218
 90
      219
 90
       66
 90
      218
 90
       65
 90
       66
 90
      217
 90
      218
 90
       67
 90
      217
 90
       66
 90
       67
 90
      217
 90
      221
 90
       68
 90
      221
 90
       67
 90
       68
 90
      220
 90
      221
 90
       69
 90
      220
 90
       68
 90
       69
 90
      220
 90
      224
 90
       70
 90
      224
 90
       69
 90
       70
 90
      224
 90
      226
 90
       71
 90
      226
 90
       70
 90
       71
 90
      226
 90
      228
 90
       72
 90
      228
 90
       71
 90
       72
 90
      228
 90
      233
 90
       73
 90
      233
 90
       72
 90
       73
 90
      232
 90
      233
 90
       74
 90
      232
 90
       73
 90
       74
 90
      231
 90
      232
 90
       75
 90
      231
 90
       74
 90
       75
 90
      230
 90
      231
 90
       76
 90
      230
 90
       75
 90
       76
 90
      229
 90
      230
 90
       77
 90
      229
 90
       76
 90
       77
 90
      227
 90
      229
 90
       78
 90
      227
 90
       77
 90
       78
 90
      225
 90
      227
 90
       79
 90
      225
 90
       78
 90
       79
 90
      223
 90
      225
 90
       80
 90
      223
 90
       79
 90
       80
 90
      222
 90
      223
 90
       81
 90
      222
 90
       80
 90
       81
 90
      206
 90
      222
 90
       82
 90
      206
 90
       81
 90
       82
 90
      206
 90
      212
 90
       83
 90
      212
 90
       82
 90
       83
 90
      209
 90
      212
 90
       84
 90
      209
 90
       83
 90
       84
 90
      198
 90
      209
 90
       85
 90
      198
 90
       84
 90
       85
 90
      197
 90
      198
 90
       86
 90
      197
 90
       85
 90
       86
 90
      197
 90
      203
 90
       87
 90
      203
 90
       86
 90
       87
 90
      201
 90
      203
 90
       88
 90
      201
 90
       87
 90
       88
 90
      189
 90
      201
 90
       89
 90
      189
 90
       88
 90
       89
 90
      188
 90
      189
 90
       90
 90
      188
 90
       89
 90
       90
 90
      188
 90
      192
 90
       91
 90
      192
 90
       90
 90
       91
 90
      186
 90
      192
 90
       92
 90
      186
 90
       91
 90
       92
 90
      178
 90
      186
 90
       93
 90
      178
 90
       92
 90
       93
 90
      177
 90
      178
 90
       94
 90
      177
 90
       93
 90
       94
 90
      177
 90
      183
 90
       95
 90
      183
 90
       94
 90
       95
 90
      181
 90
      183
 90
       96
 90
      181
 90
       95
 90
       96
 90
      167
 90
      181
 90
       97
 90
      167
 90
       96
 90
       97
 90
      166
 90
      167
 90
       98
 90
      166
 90
       97
 90
       98
 90
      166
 90
      174
 90
       99
 90
      174
 90
       98
 90
       99
 90
      170
 90
      174
 90
      100
 90
      170
 90
       99
 90
      100
 90
      158
 90
      170
 90
      101
 90
      158
 90
      100
 90
      101
 90
      157
 90
      158
 90
      102
 90
      157
 90
      101
 90
      102
 90
      157
 90
      163
 90
      103
 90
      163
 90
      102
 90
      103
 90
      161
 90
      163
 90
      104
 90
      161
 90
      103
 90
      104
 90
      150
 90
      161
 90
      105
 90
      150
 90
      104
 90
      105
 90
      149
 90
      150
 90
      106
 90
      149
 90
      105
 90
      106
 90
      149
 90
      154
 90
      107
 90
      154
 90
      106
 90
      107
 90
      147
 90
      154
 90
      108
 90
      147
 90
      107
 90
      108
 90
      131
 90
      147
 90
      109
 90
      131
 90
      108
 90
      109
 90
      129
 90
      131
 90
      110
 90
      129
 90
      109
 90
      110
 90
      127
 90
      129
 90
      111
 90
      127
 90
      110
 90
      111
 90
      124
 90
      127
 90
      112
 90
      124
 90
      111
 90
      112
 90
      123
 90
      124
 90
      113
 90
      123
 90
      112
 90
      113
 90
      122
 90
      123
 90
      113
 90
      114
 90
        2
 90
      116
 90
      112
 90
      115
 90
        3
 90
      115
 90
        4
 90
      112
 90
        5
 90
      111
 90
        6
 90
      110
 90
        6
 90
      109
 90
        7
 90
       10
 90
        6
 90
       11
 90
        6
 90
       12
 90
       15
 90
       18
 90
       14
 90
       19
 90
       20
 90
      109
 90
       21
 90
      109
 90
       19
 90
      109
 90
       13
 90
      109
 90
       22
 90
      108
 90
       26
 90
      106
 90
       27
 90
      105
 90
       23
 90
      108
 90
       24
 90
      107
 90
       25
 90
      107
 90
       31
 90
      102
 90
       32
 90
      101
 90
       28
 90
      104
 90
       29
 90
      104
 90
       29
 90
      103
 90
       30
 90
      103
 90
       38
 90
       98
 90
       39
 90
       97
 90
       33
 90
      100
 90
       34
 90
      100
 90
       35
 90
      100
 90
       37
 90
       99
 90
       36
 90
       99
 90
       35
 90
       99
 90
       43
 90
       94
 90
       44
 90
       93
 90
       40
 90
       96
 90
       41
 90
       96
 90
       41
 90
       95
 90
       42
 90
       95
 90
       45
 90
       92
 90
       50
 90
       90
 90
       51
 90
       89
 90
       49
 90
       91
 90
       48
 90
       91
 90
       46
 90
       92
 90
       47
 90
       92
 90
       47
 90
       91
 90
       55
 90
       86
 90
       56
 90
       85
 90
       52
 90
       88
 90
       54
 90
       87
 90
       53
 90
       87
 90
       53
 90
       88
 90
       61
 90
       82
 90
       62
 90
       82
 90
       57
 90
       84
 90
       58
 90
       84
 90
       59
 90
       83
 90
       60
 90
       83
 90
       63
 90
       82
 90
       64
 90
       82
 90
       65
 90
       82
 90
       67
 90
       82
 90
       68
 90
       82
 90
       69
 90
       82
 90
       69
 90
       81
 90
       70
 90
       80
 90
       71
 90
       79
 90
       72
 90
       78
 90
       72
 90
       77
 90
       72
 90
       76
 90
       72
 90
       75
 90
      118
 90
      119
 90
      121
 90
      124
 90
      121
 90
      125
 90
      124
 90
      126
 90
      127
 90
      128
 90
      129
 90
      130
 90
      130
 90
      131
 90
      132
 90
      135
 90
      130
 90
      136
 90
      130
 90
      137
 90
      138
 90
      141
 90
      142
 90
      143
 90
      131
 90
      144
 90
      131
 90
      145
 90
      131
 90
      142
 90
      131
 90
      146
 90
      147
 90
      148
 90
      150
 90
      151
 90
      149
 90
      152
 90
      147
 90
      153
 90
      154
 90
      155
 90
      154
 90
      156
 90
      158
 90
      159
 90
      157
 90
      160
 90
      161
 90
      162
 90
      163
 90
      164
 90
      161
 90
      164
 90
      163
 90
      165
 90
      167
 90
      168
 90
      166
 90
      169
 90
      170
 90
      171
 90
      170
 90
      172
 90
      170
 90
      173
 90
      174
 90
      175
 90
      174
 90
      176
 90
      172
 90
      174
 90
      178
 90
      179
 90
      177
 90
      180
 90
      181
 90
      182
 90
      183
 90
      184
 90
      181
 90
      184
 90
      183
 90
      185
 90
      186
 90
      187
 90
      189
 90
      190
 90
      188
 90
      191
 90
      192
 90
      193
 90
      192
 90
      194
 90
      186
 90
      195
 90
      186
 90
      196
 90
      192
 90
      195
 90
      198
 90
      199
 90
      197
 90
      200
 90
      201
 90
      202
 90
      203
 90
      204
 90
      203
 90
      205
 90
      201
 90
      205
 90
      206
 90
      207
 90
      206
 90
      208
 90
      209
 90
      210
 90
      209
 90
      211
 90
      212
 90
      213
 90
      212
 90
      214
 90
      206
 90
      215
 90
      206
 90
      216
 90
      206
 90
      217
 90
      206
 90
      219
 90
      206
 90
      220
 90
      206
 90
      221
 90
      220
 90
      222
 90
      223
 90
      224
 90
      225
 90
      226
 90
      227
 90
      228
 90
      228
 90
      229
 90
      228
 90
      230
 90
      228
 90
      231
 95
      501
140
0.0
140
0.0
140
0.0
140
0.0
140
0.0
140
0.0
140
0.0
140
0.0
140
0.0
140
0.0
140
0.0
140
0.0
140
0.0
140
0.0
140
0.0
140
0.0
140
0.0
140
0.0
140
0.0
140
0.0
140
0.0
140
0.0
140
0.0
140
0.0
140
0.0
140
0.0
140
0.0
140
0.0
140
0.0
140
0.0
140
0.0
140
0.0
140
0.0
140
0.0
140
0.0
140
0.0
140
0.0
140
0.0
140
0.0
140
0.0
140
0.0
140
0.0
140
0.0
140
0.0
140
0.0
140
0.0
140
0.0
140
0.0
140
0.0
140
0.0
140
0.0
140
0.0
140
0.0
140
0.0
140
0.0
140
0.0
140
0.0
140
0.0
140
0.0
140
0.0
140
0.0
140
0.0
140
0.0
140
0.0
140
0.0
140
0.0
140
0.0
140
0.0
140
0.0
140
0.0
140
0.0
140
0.0
140
0.0
140
0.0
140
0.0
140
0.0
140
0.0
140
0.0
140
0.0
140
0.0
140
0.0
140
0.0
140
0.0
140
0.0
140
0.0
140
0.0
140
0.0
140
0.0
140
0.0
140
0.0
140
0.0
140
0.0
140
0.0
140
0.0
140
0.0
140
0.0
140
0.0
140
0.0
140
0.0
140
0.0
140
0.0
140
0.0
140
0.0
140
0.0
140
0.0
140
0.0
140
0.0
140
0.0
140
0.0
140
0.0
140
0.0
140
0.0
140
0.0
140
0.0
140
0.0
140
0.0
140
0.0
140
0.0
140
0.0
140
0.0
140
0.0
140
0.0
140
0.0
140
0.0
140
0.0
140
0.0
140
0.0
140
0.0
140
0.0
140
0.0
140
0.0
140
0.0
140
0.0
140
0.0
140
0.0
140
0.0
140
0.0
140
0.0
140
0.0
140
0.0
140
0.0
140
0.0
140
0.0
140
0.0
140
0.0
140
0.0
140
0.0
140
0.0
140
0.0
140
0.0
140
0.0
140
0.0
140
0.0
140
0.0
140
0.0
140
0.0
140
0.0
140
0.0
140
0.0
140
0.0
140
0.0
140
0.0
140
0.0
140
0.0
140
0.0
140
0.0
140
0.0
140
0.0
140
0.0
140
0.0
140
0.0
140
0.0
140
0.0
140
0.0
140
0.0
140
0.0
140
0.0
140
0.0
140
0.0
140
0.0
140
0.0
140
0.0
140
0.0
140
0.0
140
0.0
140
0.0
140
0.0
140
0.0
140
0.0
140
0.0
140
0.0
140
0.0
140
0.0
140
0.0
140
0.0
140
0.0
140
0.0
140
0.0
140
0.0
140
0.0
140
0.0
140
0.0
140
0.0
140
0.0
140
0.0
140
0.0
140
0.0
140
0.0
140
0.0
140
0.0
140
0.0
140
0.0
140
0.0
140
0.0
140
0.0
140
0.0
140
0.0
140
0.0
140
0.0
140
0.0
140
0.0
140
0.0
140
0.0
140
0.0
140
0.0
140
0.0
140
0.0
140
0.0
140
0.0
140
0.0
140
0.0
140
0.0
140
0.0
140
0.0
140
0.0
140
0.0
140
0.0
140
0.0
140
0.0
140
0.0
140
0.0
140
0.0
140
0.0
140
0.0
140
0.0
140
0.0
140
0.0
140
0.0
140
0.0
140
0.0
140
0.0
140
0.0
140
0.0
140
0.0
140
0.0
140
0.0
140
0.0
140
0.0
140
0.0
140
0.0
140
0.0
140
0.0
140
0.0
140
0.0
140
0.0
140
0.0
140
0.0
140
0.0
140
0.0
140
0.0
140
0.0
140
0.0
140
0.0
140
0.0
140
0.0
140
0.0
140
0.0
140
0.0
140
0.0
140
0.0
140
0.0
140
0.0
140
0.0
140
0.0
140
0.0
140
0.0
140
0.0
140
0.0
140
0.0
140
0.0
140
0.0
140
0.0
140
0.0
140
0.0
140
0.0
140
0.0
140
0.0
140
0.0
140
0.0
140
0.0
140
0.0
140
0.0
140
0.0
140
0.0
140
0.0
140
0.0
140
0.0
140
0.0
140
0.0
140
0.0
140
0.0
140
0.0
140
0.0
140
0.0
140
0.0
140
0.0
140
0.0
140
0.0
140
0.0
140
0.0
140
0.0
140
0.0
140
0.0
140
0.0
140
0.0
140
0.0
140
0.0
140
0.0
140
0.0
140
0.0
140
0.0
140
0.0
140
0.0
140
0.0
140
0.0
140
0.0
140
0.0
140
0.0
140
0.0
140
0.0
140
0.0
140
0.0
140
0.0
140
0.0
140
0.0
140
0.0
140
0.0
140
0.0
140
0.0
140
0.0
140
0.0
140
0.0
140
0.0
140
0.0
140
0.0
140
0.0
140
0.0
140
0.0
140
0.0
140
0.0
140
0.0
140
0.0
140
0.0
140
0.0
140
0.0
140
0.0
140
0.0
140
0.0
140
0.0
140
0.0
140
0.0
140
0.0
140
0.0
140
0.0
140
0.0
140
0.0
140
0.0
140
0.0
140
0.0
140
0.0
140
0.0
140
0.0
140
0.0
140
0.0
140
0.0
140
0.0
140
0.0
140
0.0
140
0.0
140
0.0
140
0.0
140
0.0
140
0.0
140
0.0
140
0.0
140
0.0
140
0.0
140
0.0
140
0.0
140
0.0
140
0.0
140
0.0
140
0.0
140
0.0
140
0.0
140
0.0
140
0.0
140
0.0
140
0.0
140
0.0
140
0.0
140
0.0
140
0.0
140
0.0
140
0.0
140
0.0
140
0.0
140
0.0
140
0.0
140
0.0
140
0.0
140
0.0
140
0.0
140
0.0
140
0.0
140
0.0
140
0.0
140
0.0
140
0.0
140
0.0
140
0.0
140
0.0
140
0.0
140
0.0
140
0.0
140
0.0
140
0.0
140
0.0
140
0.0
140
0.0
140
0.0
140
0.0
140
0.0
140
0.0
140
0.0
140
0.0
140
0.0
140
0.0
140
0.0
140
0.0
140
0.0
140
0.0
140
0.0
140
0.0
140
0.0
140
0.0
140
0.0
140
0.0
140
0.0
140
0.0
140
0.0
140
0.0
140
0.0
140
0.0
140
0.0
140
0.0
140
0.0
140
0.0
140
0.0
140
0.0
140
0.0
140
0.0
140
0.0
140
0.0
140
0.0
140
0.0
140
0.0
140
0.0
140
0.0
140
0.0
140
0.0
140
0.0
140
0.0
140
0.0
140
0.0
140
0.0
140
0.0
140
0.0
140
0.0
140
0.0
140
0.0
140
0.0
140
0.0
140
0.0
140
0.0
140
0.0
140
0.0
140
0.0
140
0.0
140
0.0
140
0.0
 90
        0
  0
ENDSEC
  0
SECTION
  2
OBJECTS
  0
DICTIONARY
  5
C
330
0
100
AcDbDictionary
281
     1
  3
ACAD_COLOR
350
DC
  3
ACAD_DETAILVIEWSTYLE
350
F5
  3
ACAD_GROUP
350
D
  3
ACAD_LAYOUT
350
1A
  3
ACAD_MATERIAL
350
AA
  3
ACAD_MLEADERSTYLE
350
F1
  3
ACAD_MLINESTYLE
350
17
  3
ACAD_PLOTSETTINGS
350
19
  3
ACAD_PLOTSTYLENAME
350
E
  3
ACAD_SCALELIST
350
DF
  3
ACAD_SECTIONVIEWSTYLE
350
F3
  3
ACAD_TABLESTYLE
350
DD
  3
ACAD_VISUALSTYLE
350
C3
  3
ACDB_RECOMPOSE_DATA
350
17D
  3
AcDbVariableDictionary
350
171
  0
DICTIONARY
  5
DC
102
{ACAD_REACTORS
330
C
102
}
330
C
100
AcDbDictionary
281
     1
  0
DICTIONARY
  5
F5
102
{ACAD_REACTORS
330
C
102
}
330
C
100
AcDbDictionary
281
     1
  3
Imperial24
350
F6
  0
DICTIONARY
  5
D
102
{ACAD_REACTORS
330
C
102
}
330
C
100
AcDbDictionary
281
     1
  0
DICTIONARY
  5
1A
102
{ACAD_REACTORS
330
C
102
}
330
C
100
AcDbDictionary
281
     1
  3
Layout1
350
1E
  3
Layout2
350
26
  3
Model
350
22
  0
DICTIONARY
  5
AA
102
{ACAD_REACTORS
330
C
102
}
330
C
100
AcDbDictionary
281
     1
  3
ByBlock
350
B3
  3
ByLayer
350
AB
  3
Global
350
BB
  0
DICTIONARY
  5
F1
102
{ACAD_REACTORS
330
C
102
}
330
C
100
AcDbDictionary
281
     1
  3
Standard
350
F2
  0
DICTIONARY
  5
17
102
{ACAD_REACTORS
330
C
102
}
330
C
100
AcDbDictionary
281
     1
  3
Standard
350
18
  0
DICTIONARY
  5
19
102
{ACAD_REACTORS
330
C
102
}
330
C
100
AcDbDictionary
281
     1
  0
ACDBDICTIONARYWDFLT
  5
E
102
{ACAD_REACTORS
330
C
102
}
330
C
100
AcDbDictionary
281
     1
  3
ByLayer
350
2D
  3
Normal
350
F
100
AcDbDictionaryWithDefault
340
F
  0
DICTIONARY
  5
DF
102
{ACAD_REACTORS
330
C
102
}
330
C
100
AcDbDictionary
281
     1
  3
A0
350
E0
  3
A1
350
E1
  3
A2
350
E2
  3
A3
350
E3
  3
A4
350
E4
  3
A5
350
E5
  3
A6
350
E6
  3
A7
350
E7
  3
A8
350
E8
  3
A9
350
E9
  3
B0
350
EA
  3
B1
350
EB
  3
B2
350
EC
  3
B3
350
ED
  3
B4
350
EE
  3
B5
350
EF
  3
B6
350
F0
  0
DICTIONARY
  5
F3
102
{ACAD_REACTORS
330
C
102
}
330
C
100
AcDbDictionary
281
     1
  3
Imperial24
350
F4
  0
DICTIONARY
  5
DD
102
{ACAD_REACTORS
330
C
102
}
330
C
100
AcDbDictionary
281
     1
  3
Standard
350
DE
  0
DICTIONARY
  5
C3
102
{ACAD_REACTORS
330
C
102
}
330
C
100
AcDbDictionary
281
     1
  3
2dWireframe
350
C9
  3
Basic
350
C8
  3
Brighten
350
CF
  3
ColorChange
350
D3
  3
Conceptual
350
CC
  3
Dim
350
CE
  3
EdgeColorOff
350
DB
  3
Facepattern
350
D2
  3
Flat
350
C4
  3
FlatWithEdges
350
C5
  3
Gouraud
350
C6
  3
GouraudWithEdges
350
C7
  3
Hidden
350
CB
  3
JitterOff
350
D9
  3
Linepattern
350
D1
  3
OverhangOff
350
DA
  3
Realistic
350
CD
  3
Shaded
350
D8
  3
Shaded with edges
350
D7
  3
Shades of Gray
350
D4
  3
Sketchy
350
D5
  3
Thicken
350
D0
  3
Wireframe
350
CA
  3
X-Ray
350
D6
  0
XRECORD
  5
17D
102
{ACAD_REACTORS
330
C
102
}
330
C
100
AcDbXrecord
280
     1
 90
        1
330
DE
  0
DICTIONARY
  5
171
102
{ACAD_REACTORS
330
C
102
}
330
C
100
AcDbDictionary
281
     1
  3
CANNOSCALE
350
177
  3
CMLEADERSTYLE
350
173
  3
CTABLESTYLE
350
172
  3
CVIEWDETAILSTYLE
350
174
  3
CVIEWSECTIONSTYLE
350
175
  3
LAYEREVAL
350
179
  3
LAYERNOTIFY
350
17A
  3
LIGHTINGUNITS
350
178
  3
MSLTSCALE
350
176
  0
ACDBDETAILVIEWSTYLE
  5
F6
102
{ACAD_XDICTIONARY
360
1B2
102
}
102
{ACAD_REACTORS
330
F5
102
}
330
F5
100
AcDbModelDocViewStyle
 70
     0
  3
Imperial24
290
     0
100
AcDbDetailViewStyle
 70
     0
 71
     0
 90
        3
 71
     1
340
11
 62
   256
 40
0.24
340
0
 62
   256
 40
0.24
300

 40
0.36
280
     3
 71
     2
340
16
 90
       25
 62
   256
 71
     3
340
11
 62
   256
 40
0.24
 90
        1
 40
0.75
 90
        1
300
%<\AcVar ViewType \f "%tc1">% %<\AcVar ViewDetailId>%\PSCALE %<\AcVar ViewScale \f "%sn">%
 71
     4
340
16
 90
       25
 62
   256
340
16
 90
       25
 62
   256
280
     0
  0
LAYOUT
  5
1E
102
{ACAD_REACTORS
330
1A
102
}
330
1A
100
AcDbPlotSettings
  1

  2
\\KTXNTBDC\CASF2PN1
  4

  6

 40
0.0
 41
0.0
 42
0.0
 43
0.0
 44
0.0
 45
0.0
 46
0.0
 47
0.0
 48
0.0
 49
0.0
140
0.0
141
0.0
142
1.0
143
1.0
 70
   688
 72
     0
 73
     0
 74
     5
  7

 75
    16
147
1.0
 76
     0
 77
     2
 78
   300
148
0.0
149
0.0
100
AcDbLayout
  1
Layout1
 70
     1
 71
     1
 10
0.0
 20
0.0
 11
12.0
 21
9.0
 12
0.0
 22
0.0
 32
0.0
 14
1.000000000000000E+20
 24
1.000000000000000E+20
 34
1.000000000000000E+20
 15
-1.000000000000000E+20
 25
-1.000000000000000E+20
 35
-1.000000000000000E+20
146
0.0
 13
0.0
 23
0.0
 33
0.0
 16
1.0
 26
0.0
 36
0.0
 17
0.0
 27
1.0
 37
0.0
 76
     0
330
1B
  0
LAYOUT
  5
26
102
{ACAD_REACTORS
330
1A
102
}
330
1A
100
AcDbPlotSettings
  1

  2
\\KTXNTBDC\CASF2PN1
  4

  6

 40
0.0
 41
0.0
 42
0.0
 43
0.0
 44
0.0
 45
0.0
 46
0.0
 47
0.0
 48
0.0
 49
0.0
140
0.0
141
0.0
142
1.0
143
1.0
 70
   688
 72
     0
 73
     0
 74
     5
  7

 75
    16
147
1.0
 76
     0
 77
     2
 78
   300
148
0.0
149
0.0
100
AcDbLayout
  1
Layout2
 70
     1
 71
     2
 10
0.0
 20
0.0
 11
12.0
 21
9.0
 12
0.0
 22
0.0
 32
0.0
 14
0.0
 24
0.0
 34
0.0
 15
0.0
 25
0.0
 35
0.0
146
0.0
 13
0.0
 23
0.0
 33
0.0
 16
1.0
 26
0.0
 36
0.0
 17
0.0
 27
1.0
 37
0.0
 76
     0
330
23
  0
LAYOUT
  5
22
102
{ACAD_REACTORS
330
1A
102
}
330
1A
100
AcDbPlotSettings
  1

  2
\\KTXNTBDC\CASF2PN1
  4

  6

 40
0.0
 41
0.0
 42
0.0
 43
0.0
 44
0.0
 45
0.0
 46
0.0
 47
0.0
 48
0.0
 49
0.0
140
0.0
141
0.0
142
1.0
143
1.0
 70
  1712
 72
     0
 73
     0
 74
     0
  7

 75
     0
147
1.0
 76
     0
 77
     2
 78
   300
148
0.0
149
0.0
100
AcDbLayout
  1
Model
 70
     1
 71
     0
 10
0.0
 20
0.0
 11
12.0
 21
9.0
 12
0.0
 22
0.0
 32
0.0
 14
0.0
 24
0.0
 34
0.0
 15
0.0
 25
0.0
 35
0.0
146
0.0
 13
0.0
 23
0.0
 33
0.0
 16
1.0
 26
0.0
 36
0.0
 17
0.0
 27
1.0
 37
0.0
 76
     0
330
1F
  0
MATERIAL
  5
B3
102
{ACAD_XDICTIONARY
360
B4
102
}
102
{ACAD_REACTORS
330
AA
102
}
330
AA
100
AcDbMaterial
  1
ByBlock
 72
     0
 43
0.0208333333333333
 43
0.0
 43
0.0
 43
0.0
 43
0.0
 43
0.0208333333333333
 43
0.0
 43
0.0
 43
0.0
 43
0.0
 43
1.0
 43
0.0
 43
0.0
 43
0.0
 43
0.0
 43
1.0
 77
     0
 47
0.0208333333333333
 47
0.0
 47
0.0
 47
0.0
 47
0.0
 47
0.0208333333333333
 47
0.0
 47
0.0
 47
0.0
 47
0.0
 47
1.0
 47
0.0
 47
0.0
 47
0.0
 47
0.0
 47
1.0
171
     0
 49
0.0208333333333333
 49
0.0
 49
0.0
 49
0.0
 49
0.0
 49
0.0208333333333333
 49
0.0
 49
0.0
 49
0.0
 49
0.0
 49
1.0
 49
0.0
 49
0.0
 49
0.0
 49
0.0
 49
1.0
175
     0
142
0.0208333333333333
142
0.0
142
0.0
142
0.0
142
0.0
142
0.0208333333333333
142
0.0
142
0.0
142
0.0
142
0.0
142
1.0
142
0.0
142
0.0
142
0.0
142
0.0
142
1.0
179
     0
144
0.0208333333333333
144
0.0
144
0.0
144
0.0
144
0.0
144
0.0208333333333333
144
0.0
144
0.0
144
0.0
144
0.0
144
1.0
144
0.0
144
0.0
144
0.0
144
0.0
144
1.0
147
0.0208333333333333
147
0.0
147
0.0
147
0.0
147
0.0
147
0.0208333333333333
147
0.0
147
0.0
147
0.0
147
0.0
147
1.0
147
0.0
147
0.0
147
0.0
147
0.0
147
1.0
  0
MATERIAL
  5
AB
102
{ACAD_XDICTIONARY
360
AC
102
}
102
{ACAD_REACTORS
330
AA
102
}
330
AA
100
AcDbMaterial
  1
ByLayer
 72
     0
 43
0.0208333333333333
 43
0.0
 43
0.0
 43
0.0
 43
0.0
 43
0.0208333333333333
 43
0.0
 43
0.0
 43
0.0
 43
0.0
 43
1.0
 43
0.0
 43
0.0
 43
0.0
 43
0.0
 43
1.0
 77
     0
 47
0.0208333333333333
 47
0.0
 47
0.0
 47
0.0
 47
0.0
 47
0.0208333333333333
 47
0.0
 47
0.0
 47
0.0
 47
0.0
 47
1.0
 47
0.0
 47
0.0
 47
0.0
 47
0.0
 47
1.0
171
     0
 49
0.0208333333333333
 49
0.0
 49
0.0
 49
0.0
 49
0.0
 49
0.0208333333333333
 49
0.0
 49
0.0
 49
0.0
 49
0.0
 49
1.0
 49
0.0
 49
0.0
 49
0.0
 49
0.0
 49
1.0
175
     0
142
0.0208333333333333
142
0.0
142
0.0
142
0.0
142
0.0
142
0.0208333333333333
142
0.0
142
0.0
142
0.0
142
0.0
142
1.0
142
0.0
142
0.0
142
0.0
142
0.0
142
1.0
179
     0
144
0.0208333333333333
144
0.0
144
0.0
144
0.0
144
0.0
144
0.0208333333333333
144
0.0
144
0.0
144
0.0
144
0.0
144
1.0
144
0.0
144
0.0
144
0.0
144
0.0
144
1.0
147
0.0208333333333333
147
0.0
147
0.0
147
0.0
147
0.0
147
0.0208333333333333
147
0.0
147
0.0
147
0.0
147
0.0
147
1.0
147
0.0
147
0.0
147
0.0
147
0.0
147
1.0
  0
MATERIAL
  5
BB
102
{ACAD_XDICTIONARY
360
BC
102
}
102
{ACAD_REACTORS
330
AA
102
}
330
AA
100
AcDbMaterial
  1
Global
 72
     0
 43
0.0208333333333333
 43
0.0
 43
0.0
 43
0.0
 43
0.0
 43
0.0208333333333333
 43
0.0
 43
0.0
 43
0.0
 43
0.0
 43
1.0
 43
0.0
 43
0.0
 43
0.0
 43
0.0
 43
1.0
 77
     0
 47
0.0208333333333333
 47
0.0
 47
0.0
 47
0.0
 47
0.0
 47
0.0208333333333333
 47
0.0
 47
0.0
 47
0.0
 47
0.0
 47
1.0
 47
0.0
 47
0.0
 47
0.0
 47
0.0
 47
1.0
171
     0
 49
0.0208333333333333
 49
0.0
 49
0.0
 49
0.0
 49
0.0
 49
0.0208333333333333
 49
0.0
 49
0.0
 49
0.0
 49
0.0
 49
1.0
 49
0.0
 49
0.0
 49
0.0
 49
0.0
 49
1.0
175
     0
142
0.0208333333333333
142
0.0
142
0.0
142
0.0
142
0.0
142
0.0208333333333333
142
0.0
142
0.0
142
0.0
142
0.0
142
1.0
142
0.0
142
0.0
142
0.0
142
0.0
142
1.0
179
     0
144
0.0208333333333333
144
0.0
144
0.0
144
0.0
144
0.0
144
0.0208333333333333
144
0.0
144
0.0
144
0.0
144
0.0
144
1.0
144
0.0
144
0.0
144
0.0
144
0.0
144
1.0
147
0.0208333333333333
147
0.0
147
0.0
147
0.0
147
0.0
147
0.0208333333333333
147
0.0
147
0.0
147
0.0
147
0.0
147
1.0
147
0.0
147
0.0
147
0.0
147
0.0
147
1.0
  0
MLEADERSTYLE
  5
F2
102
{ACAD_XDICTIONARY
360
1AE
102
}
102
{ACAD_REACTORS
330
F1
102
}
330
F1
100
AcDbMLeaderStyle
179
     2
170
     2
171
     1
172
     0
 90
        2
 40
0.0
 41
0.0
173
     1
 91
-1056964608
340
14
 92
       -2
290
     1
 42
0.09
291
     1
 43
0.36
  3
Standard
 44
0.18
300

342
11
174
     1
178
     6
175
     1
176
     0
 93
-1056964608
 45
0.18
292
     0
297
     0
 46
0.18
 94
-1056964608
 47
1.0
 49
1.0
140
1.0
293
     1
141
0.0
294
     1
177
     0
142
1.0
295
     0
296
     0
143
0.125
271
     0
272
     9
273
     9
  0
MLINESTYLE
  5
18
102
{ACAD_REACTORS
330
17
102
}
330
17
100
AcDbMlineStyle
  2
STANDARD
 70
     0
  3

 62
   256
 51
90.0
 52
90.0
 71
     2
 49
0.5
 62
   256
  6
BYLAYER
 49
-0.5
 62
   256
  6
BYLAYER
  0
ACDBPLACEHOLDER
  5
2D
102
{ACAD_REACTORS
330
E
102
}
330
E
  0
ACDBPLACEHOLDER
  5
F
102
{ACAD_REACTORS
330
E
102
}
330
E
  0
SCALE
  5
E0
102
{ACAD_REACTORS
330
DF
102
}
330
DF
100
AcDbScale
 70
     0
300
1:1
140
1.0
141
1.0
290
     1
  0
SCALE
  5
E1
102
{ACAD_REACTORS
330
DF
102
}
330
DF
100
AcDbScale
 70
     0
300
1/128" = 1'-0"
140
0.0078125
141
12.0
290
     0
  0
SCALE
  5
E2
102
{ACAD_REACTORS
330
DF
102
}
330
DF
100
AcDbScale
 70
     0
300
1/64" = 1'-0"
140
0.015625
141
12.0
290
     0
  0
SCALE
  5
E3
102
{ACAD_REACTORS
330
DF
102
}
330
DF
100
AcDbScale
 70
     0
300
1/32" = 1'-0"
140
0.03125
141
12.0
290
     0
  0
SCALE
  5
E4
102
{ACAD_REACTORS
330
DF
102
}
330
DF
100
AcDbScale
 70
     0
300
1/16" = 1'-0"
140
0.0625
141
12.0
290
     0
  0
SCALE
  5
E5
102
{ACAD_REACTORS
330
DF
102
}
330
DF
100
AcDbScale
 70
     0
300
3/32" = 1'-0"
140
0.09375
141
12.0
290
     0
  0
SCALE
  5
E6
102
{ACAD_REACTORS
330
DF
102
}
330
DF
100
AcDbScale
 70
     0
300
1/8" = 1'-0"
140
0.125
141
12.0
290
     0
  0
SCALE
  5
E7
102
{ACAD_REACTORS
330
DF
102
}
330
DF
100
AcDbScale
 70
     0
300
3/16" = 1'-0"
140
0.1875
141
12.0
290
     0
  0
SCALE
  5
E8
102
{ACAD_REACTORS
330
DF
102
}
330
DF
100
AcDbScale
 70
     0
300
1/4" = 1'-0"
140
0.25
141
12.0
290
     0
  0
SCALE
  5
E9
102
{ACAD_REACTORS
330
DF
102
}
330
DF
100
AcDbScale
 70
     0
300
3/8" = 1'-0"
140
0.375
141
12.0
290
     0
  0
SCALE
  5
EA
102
{ACAD_REACTORS
330
DF
102
}
330
DF
100
AcDbScale
 70
     0
300
1/2" = 1'-0"
140
0.5
141
12.0
290
     0
  0
SCALE
  5
EB
102
{ACAD_REACTORS
330
DF
102
}
330
DF
100
AcDbScale
 70
     0
300
3/4" = 1'-0"
140
0.75
141
12.0
290
     0
  0
SCALE
  5
EC
102
{ACAD_REACTORS
330
DF
102
}
330
DF
100
AcDbScale
 70
     0
300
1" = 1'-0"
140
1.0
141
12.0
290
     0
  0
SCALE
  5
ED
102
{ACAD_REACTORS
330
DF
102
}
330
DF
100
AcDbScale
 70
     0
300
1-1/2" = 1'-0"
140
1.5
141
12.0
290
     0
  0
SCALE
  5
EE
102
{ACAD_REACTORS
330
DF
102
}
330
DF
100
AcDbScale
 70
     0
300
3" = 1'-0"
140
3.0
141
12.0
290
     0
  0
SCALE
  5
EF
102
{ACAD_REACTORS
330
DF
102
}
330
DF
100
AcDbScale
 70
     0
300
6" = 1'-0"
140
6.0
141
12.0
290
     0
  0
SCALE
  5
F0
102
{ACAD_REACTORS
330
DF
102
}
330
DF
100
AcDbScale
 70
     0
300
1'-0" = 1'-0"
140
12.0
141
12.0
290
     0
  0
ACDBSECTIONVIEWSTYLE
  5
F4
102
{ACAD_XDICTIONARY
360
1B0
102
}
102
{ACAD_REACTORS
330
F3
102
}
330
F3
100
AcDbModelDocViewStyle
 70
     0
  3
Imperial24
290
     0
100
AcDbSectionViewStyle
 70
     0
 71
     0
 90
       78
 71
     1
340
11
 62
   256
 40
0.24
340
0
340
0
 62
   256
 40
0.24
300
I, O, Q, S, X, Z
 40
0.48
 90
        3
 40
0.18
 90
        1
 71
     2
340
16
 90
       25
 62
   256
340
16
 90
       50
 62
   256
 40
0.24
 40
0.0
 40
0.24
 71
     3
340
11
 62
   256
 40
0.24
 90
        1
 40
0.75
 90
        1
300
%<\AcVar ViewType \f "%tc1">% %<\AcVar ViewSectionStartId>%-%<\AcVar ViewSectionEndId>%\PSCALE %<\AcVar ViewScale \f "%sn">%
 71
     4
 62
   256
 62
   257
300
ANSI31
 40
1.0
 90
        0
290
     0
290
     0
 90
        6
 40
0.0
 40
1.570796326794896
 40
0.2617993877991494
 40
1.308996938995747
 40
-0.2617993877991494
 40
1.832595714594046
  0
TABLESTYLE
  5
DE
102
{ACAD_XDICTIONARY
360
17B
102
}
102
{ACAD_REACTORS
330
DD
102
}
330
DD
100
AcDbTableStyle
280
     0
  3
Standard
 70
     0
 71
     0
 40
0.06
 41
0.06
280
     0
281
     0
  7
Standard
140
0.18
170
     2
 62
     0
 63
     7
283
     0
 90
      512
 91
        0
  1

274
    -2
284
     1
 64
     0
275
    -2
285
     1
 65
     0
276
    -2
286
     1
 66
     0
277
    -2
287
     1
 67
     0
278
    -2
288
     1
 68
     0
279
    -2
289
     1
 69
     0
  7
Standard
140
0.25
170
     5
 62
     0
 63
     7
283
     0
 90
      512
 91
        0
  1

274
    -2
284
     1
 64
     0
275
    -2
285
     1
 65
     0
276
    -2
286
     1
 66
     0
277
    -2
287
     1
 67
     0
278
    -2
288
     1
 68
     0
279
    -2
289
     1
 69
     0
  7
Standard
140
0.18
170
     5
 62
     0
 63
     7
283
     0
 90
      512
 91
        0
  1

274
    -2
284
     1
 64
     0
275
    -2
285
     1
 65
     0
276
    -2
286
     1
 66
     0
277
    -2
287
     1
 67
     0
278
    -2
288
     1
 68
     0
279
    -2
289
     1
 69
     0
  0
VISUALSTYLE
  5
C9
102
{ACAD_XDICTIONARY
360
188
102
}
102
{ACAD_REACTORS
330
C3
102
}
330
C3
100
AcDbVisualStyle
  2
2dWireframe
 70
     4
177
     2
291
     0
 71
     0
176
     1
 72
     2
176
     1
 73
     0
176
     1
 90
        0
176
     1
 40
0.6
176
     1
 41
30.0
176
     1
 63
     7
421
 16777215
176
     1
 74
     1
176
     1
 91
        4
176
     1
 64
     7
176
     1
 65
   257
176
     1
 75
     1
176
     1
175
     1
176
     1
 42
1.0
176
     1
 92
        0
176
     1
 66
   257
176
     1
 43
1.0
176
     1
 76
     1
176
     1
 77
     6
176
     1
 78
     2
176
     1
 67
     7
176
     1
 79
     5
176
     1
170
     0
176
     1
171
     0
176
     1
290
     0
176
     1
 93
        1
176
     1
 44
0.0
176
     1
173
     0
176
     1
1001
ACAD
1000
AcDbSavedByObjectVersion
1070
     0
  0
VISUALSTYLE
  5
C8
102
{ACAD_XDICTIONARY
360
186
102
}
102
{ACAD_REACTORS
330
C3
102
}
330
C3
100
AcDbVisualStyle
  2
Basic
 70
     7
177
     2
291
     1
 71
     1
176
     1
 72
     0
176
     1
 73
     1
176
     1
 90
        0
176
     1
 40
0.6
176
     1
 41
30.0
176
     1
 63
     7
421
 16777215
176
     1
 74
     0
176
     1
 91
        4
176
     1
 64
     7
176
     1
 65
   257
176
     1
 75
     1
176
     1
175
     1
176
     1
 42
1.0
176
     1
 92
        8
176
     1
 66
     7
176
     1
 43
1.0
176
     1
 76
     1
176
     1
 77
     6
176
     1
 78
     2
176
     1
 67
     7
176
     1
 79
     5
176
     1
170
     0
176
     1
171
     0
176
     1
290
     0
176
     1
 93
        1
176
     1
 44
0.0
176
     1
173
     0
176
     1
1001
ACAD
1000
AcDbSavedByObjectVersion
1070
     0
  0
VISUALSTYLE
  5
CF
102
{ACAD_XDICTIONARY
360
194
102
}
102
{ACAD_REACTORS
330
C3
102
}
330
C3
100
AcDbVisualStyle
  2
Brighten
 70
    12
177
     2
291
     1
 71
     2
176
     1
 72
     2
176
     1
 73
     0
176
     1
 90
        0
176
     1
 40
0.6
176
     1
 41
30.0
176
     1
 63
     7
421
 16777215
176
     1
 74
     1
176
     1
 91
        4
176
     1
 64
     7
176
     1
 65
   257
176
     1
 75
     1
176
     1
175
     1
176
     1
 42
1.0
176
     1
 92
        8
176
     1
 66
     7
176
     1
 43
1.0
176
     1
 76
     1
176
     1
 77
     6
176
     1
 78
     2
176
     1
 67
     7
176
     1
 79
     5
176
     1
170
     0
176
     1
171
     0
176
     1
290
     0
176
     1
 93
        1
176
     1
 44
50.0
176
     1
173
     0
176
     1
1001
ACAD
1000
AcDbSavedByObjectVersion
1070
     0
  0
VISUALSTYLE
  5
D3
102
{ACAD_XDICTIONARY
360
19C
102
}
102
{ACAD_REACTORS
330
C3
102
}
330
C3
100
AcDbVisualStyle
  2
ColorChange
 70
    16
177
     2
291
     1
 71
     2
176
     1
 72
     2
176
     1
 73
     3
176
     1
 90
        0
176
     1
 40
0.6
176
     1
 41
30.0
176
     1
 63
     8
421
  8421504
176
     1
 74
     1
176
     1
 91
        4
176
     1
 64
     7
176
     1
 65
   257
176
     1
 75
     1
176
     1
175
     1
176
     1
 42
1.0
176
     1
 92
        8
176
     1
 66
     8
424
  8421504
176
     1
 43
1.0
176
     1
 76
     1
176
     1
 77
     6
176
     1
 78
     2
176
     1
 67
     7
176
     1
 79
     5
176
     1
170
     0
176
     1
171
     0
176
     1
290
     0
176
     1
 93
        1
176
     1
 44
0.0
176
     1
173
     0
176
     1
1001
ACAD
1000
AcDbSavedByObjectVersion
1070
     0
  0
VISUALSTYLE
  5
CC
102
{ACAD_XDICTIONARY
360
18E
102
}
102
{ACAD_REACTORS
330
C3
102
}
330
C3
100
AcDbVisualStyle
  2
Conceptual
 70
     9
177
     2
291
     0
 71
     3
176
     1
 72
     2
176
     1
 73
     0
176
     1
 90
        0
176
     1
 40
0.6
176
     1
 41
30.0
176
     1
 63
     7
421
 16777215
176
     1
 74
     2
176
     1
 91
        2
176
     1
 64
     7
176
     1
 65
   257
176
     1
 75
     1
176
     1
175
     1
176
     1
 42
179.0
176
     1
 92
        8
176
     1
 66
     7
176
     1
 43
1.0
176
     1
 76
     1
176
     1
 77
     6
176
     1
 78
     2
176
     1
 67
     7
176
     1
 79
     3
176
     1
170
     0
176
     1
171
     0
176
     1
290
     0
176
     1
 93
        1
176
     1
 44
0.0
176
     1
173
     0
176
     1
1001
ACAD
1000
AcDbSavedByObjectVersion
1070
     0
  0
VISUALSTYLE
  5
CE
102
{ACAD_XDICTIONARY
360
192
102
}
102
{ACAD_REACTORS
330
C3
102
}
330
C3
100
AcDbVisualStyle
  2
Dim
 70
    11
177
     2
291
     1
 71
     2
176
     1
 72
     2
176
     1
 73
     0
176
     1
 90
        0
176
     1
 40
0.6
176
     1
 41
30.0
176
     1
 63
     7
421
 16777215
176
     1
 74
     1
176
     1
 91
        4
176
     1
 64
     7
176
     1
 65
   257
176
     1
 75
     1
176
     1
175
     1
176
     1
 42
1.0
176
     1
 92
        8
176
     1
 66
     7
176
     1
 43
1.0
176
     1
 76
     1
176
     1
 77
     6
176
     1
 78
     2
176
     1
 67
     7
176
     1
 79
     5
176
     1
170
     0
176
     1
171
     0
176
     1
290
     0
176
     1
 93
        1
176
     1
 44
-50.0
176
     1
173
     0
176
     1
1001
ACAD
1000
AcDbSavedByObjectVersion
1070
     0
  0
VISUALSTYLE
  5
DB
102
{ACAD_XDICTIONARY
360
1AC
102
}
102
{ACAD_REACTORS
330
C3
102
}
330
C3
100
AcDbVisualStyle
  2
EdgeColorOff
 70
    22
177
     2
291
     1
 71
     2
176
     0
 72
     2
176
     0
 73
     0
176
     0
 90
        0
176
     0
 40
0.6
176
     0
 41
30.0
176
     0
 63
     7
421
 16777215
176
     0
 74
     1
176
     0
 91
        4
176
     0
 64
     7
176
     0
 65
   257
176
     0
 75
     1
176
     0
175
     1
176
     0
 42
1.0
176
     0
 92
        8
176
     2
 66
     7
176
     0
 43
1.0
176
     0
 76
     1
176
     0
 77
     6
176
     0
 78
     2
176
     0
 67
     7
176
     0
 79
     5
176
     0
170
     0
176
     0
171
     0
176
     0
290
     0
176
     0
 93
        1
176
     0
 44
0.0
176
     0
173
     0
176
     0
1001
ACAD
1000
AcDbSavedByObjectVersion
1070
     0
  0
VISUALSTYLE
  5
D2
102
{ACAD_XDICTIONARY
360
19A
102
}
102
{ACAD_REACTORS
330
C3
102
}
330
C3
100
AcDbVisualStyle
  2
Facepattern
 70
    15
177
     2
291
     1
 71
     2
176
     1
 72
     2
176
     1
 73
     0
176
     1
 90
        0
176
     1
 40
0.6
176
     1
 41
30.0
176
     1
 63
     7
421
 16777215
176
     1
 74
     1
176
     1
 91
        4
176
     1
 64
     7
176
     1
 65
   257
176
     1
 75
     1
176
     1
175
     1
176
     1
 42
1.0
176
     1
 92
        8
176
     1
 66
     7
176
     1
 43
1.0
176
     1
 76
     1
176
     1
 77
     6
176
     1
 78
     2
176
     1
 67
     7
176
     1
 79
     5
176
     1
170
     0
176
     1
171
     0
176
     1
290
     0
176
     1
 93
        1
176
     1
 44
0.0
176
     1
173
     0
176
     1
1001
ACAD
1000
AcDbSavedByObjectVersion
1070
     0
  0
VISUALSTYLE
  5
C4
102
{ACAD_XDICTIONARY
360
17E
102
}
102
{ACAD_REACTORS
330
C3
102
}
330
C3
100
AcDbVisualStyle
  2
Flat
 70
     0
177
     2
291
     1
 71
     2
176
     1
 72
     1
176
     1
 73
     1
176
     1
 90
        2
176
     1
 40
0.6
176
     1
 41
30.0
176
     1
 63
     7
421
 16777215
176
     1
 74
     0
176
     1
 91
        0
176
     1
 64
     7
176
     1
 65
   257
176
     1
 75
     1
176
     1
175
     1
176
     1
 42
1.0
176
     1
 92
        8
176
     1
 66
     7
176
     1
 43
1.0
176
     1
 76
     1
176
     1
 77
     6
176
     1
 78
     2
176
     1
 67
     7
176
     1
 79
     5
176
     1
170
     0
176
     1
171
     0
176
     1
290
     0
176
     1
 93
       13
176
     1
 44
0.0
176
     1
173
     0
176
     1
1001
ACAD
1000
AcDbSavedByObjectVersion
1070
     0
  0
VISUALSTYLE
  5
C5
102
{ACAD_XDICTIONARY
360
180
102
}
102
{ACAD_REACTORS
330
C3
102
}
330
C3
100
AcDbVisualStyle
  2
FlatWithEdges
 70
     1
177
     2
291
     1
 71
     2
176
     1
 72
     1
176
     1
 73
     1
176
     1
 90
        2
176
     1
 40
0.6
176
     1
 41
30.0
176
     1
 63
     7
421
 16777215
176
     1
 74
     1
176
     1
 91
        0
176
     1
 64
     7
176
     1
 65
   257
176
     1
 75
     1
176
     1
175
     1
176
     1
 42
1.0
176
     1
 92
        0
176
     1
 66
   257
176
     1
 43
1.0
176
     1
 76
     1
176
     1
 77
     6
176
     1
 78
     2
176
     1
 67
     7
176
     1
 79
     5
176
     1
170
     0
176
     1
171
     0
176
     1
290
     0
176
     1
 93
       13
176
     1
 44
0.0
176
     1
173
     0
176
     1
1001
ACAD
1000
AcDbSavedByObjectVersion
1070
     0
  0
VISUALSTYLE
  5
C6
102
{ACAD_XDICTIONARY
360
182
102
}
102
{ACAD_REACTORS
330
C3
102
}
330
C3
100
AcDbVisualStyle
  2
Gouraud
 70
     2
177
     2
291
     1
 71
     2
176
     1
 72
     2
176
     1
 73
     1
176
     1
 90
        2
176
     1
 40
0.6
176
     1
 41
30.0
176
     1
 63
     7
421
 16777215
176
     1
 74
     0
176
     1
 91
        0
176
     1
 64
     7
176
     1
 65
   257
176
     1
 75
     1
176
     1
175
     1
176
     1
 42
1.0
176
     1
 92
        0
176
     1
 66
     7
176
     1
 43
1.0
176
     1
 76
     1
176
     1
 77
     6
176
     1
 78
     2
176
     1
 67
     7
176
     1
 79
     5
176
     1
170
     0
176
     1
171
     0
176
     1
290
     0
176
     1
 93
       13
176
     1
 44
0.0
176
     1
173
     0
176
     1
1001
ACAD
1000
AcDbSavedByObjectVersion
1070
     0
  0
VISUALSTYLE
  5
C7
102
{ACAD_XDICTIONARY
360
184
102
}
102
{ACAD_REACTORS
330
C3
102
}
330
C3
100
AcDbVisualStyle
  2
GouraudWithEdges
 70
     3
177
     2
291
     1
 71
     2
176
     1
 72
     2
176
     1
 73
     1
176
     1
 90
        2
176
     1
 40
0.6
176
     1
 41
30.0
176
     1
 63
     7
421
 16777215
176
     1
 74
     1
176
     1
 91
        0
176
     1
 64
     7
176
     1
 65
   257
176
     1
 75
     1
176
     1
175
     1
176
     1
 42
1.0
176
     1
 92
        0
176
     1
 66
   257
176
     1
 43
1.0
176
     1
 76
     1
176
     1
 77
     6
176
     1
 78
     2
176
     1
 67
     7
176
     1
 79
     5
176
     1
170
     0
176
     1
171
     0
176
     1
290
     0
176
     1
 93
       13
176
     1
 44
0.0
176
     1
173
     0
176
     1
1001
ACAD
1000
AcDbSavedByObjectVersion
1070
     0
  0
VISUALSTYLE
  5
CB
102
{ACAD_XDICTIONARY
360
18C
102
}
102
{ACAD_REACTORS
330
C3
102
}
330
C3
100
AcDbVisualStyle
  2
Hidden
 70
     6
177
     2
291
     0
 71
     1
176
     1
 72
     2
176
     1
 73
     2
176
     1
 90
        0
176
     1
 40
0.6
176
     1
 41
30.0
176
     1
 63
     7
421
 16777215
176
     1
 74
     2
176
     1
 91
        2
176
     1
 64
     7
176
     1
 65
   257
176
     1
 75
     2
176
     1
175
     1
176
     1
 42
40.0
176
     1
 92
        0
176
     1
 66
   257
176
     1
 43
1.0
176
     1
 76
     1
176
     1
 77
     6
176
     1
 78
     2
176
     1
 67
     7
176
     1
 79
     3
176
     1
170
     0
176
     1
171
     0
176
     1
290
     0
176
     1
 93
        1
176
     1
 44
0.0
176
     1
173
     0
176
     1
1001
ACAD
1000
AcDbSavedByObjectVersion
1070
     0
  0
VISUALSTYLE
  5
D9
102
{ACAD_XDICTIONARY
360
1A8
102
}
102
{ACAD_REACTORS
330
C3
102
}
330
C3
100
AcDbVisualStyle
  2
JitterOff
 70
    20
177
     2
291
     1
 71
     2
176
     0
 72
     2
176
     0
 73
     0
176
     0
 90
        0
176
     0
 40
0.6
176
     0
 41
30.0
176
     0
 63
     7
421
 16777215
176
     0
 74
     1
176
     0
 91
        4
176
     0
 64
     7
176
     0
 65
   257
176
     0
 75
     1
176
     0
175
     1
176
     0
 42
1.0
176
     0
 92
       10
176
     2
 66
     7
176
     0
 43
1.0
176
     0
 76
     1
176
     0
 77
     6
176
     0
 78
     2
176
     0
 67
     7
176
     0
 79
     5
176
     0
170
     0
176
     0
171
     0
176
     0
290
     0
176
     0
 93
        1
176
     0
 44
0.0
176
     0
173
     0
176
     0
1001
ACAD
1000
AcDbSavedByObjectVersion
1070
     0
  0
VISUALSTYLE
  5
D1
102
{ACAD_XDICTIONARY
360
198
102
}
102
{ACAD_REACTORS
330
C3
102
}
330
C3
100
AcDbVisualStyle
  2
Linepattern
 70
    14
177
     2
291
     1
 71
     2
176
     1
 72
     2
176
     1
 73
     0
176
     1
 90
        0
176
     1
 40
0.6
176
     1
 41
30.0
176
     1
 63
     7
421
 16777215
176
     1
 74
     1
176
     1
 91
        4
176
     1
 64
     7
176
     1
 65
   257
176
     1
 75
     7
176
     1
175
     7
176
     1
 42
1.0
176
     1
 92
        8
176
     1
 66
     7
176
     1
 43
1.0
176
     1
 76
     1
176
     1
 77
     6
176
     1
 78
     2
176
     1
 67
     7
176
     1
 79
     5
176
     1
170
     0
176
     1
171
     0
176
     1
290
     0
176
     1
 93
        1
176
     1
 44
0.0
176
     1
173
     0
176
     1
1001
ACAD
1000
AcDbSavedByObjectVersion
1070
     0
  0
VISUALSTYLE
  5
DA
102
{ACAD_XDICTIONARY
360
1AA
102
}
102
{ACAD_REACTORS
330
C3
102
}
330
C3
100
AcDbVisualStyle
  2
OverhangOff
 70
    21
177
     2
291
     1
 71
     2
176
     0
 72
     2
176
     0
 73
     0
176
     0
 90
        0
176
     0
 40
0.6
176
     0
 41
30.0
176
     0
 63
     7
421
 16777215
176
     0
 74
     1
176
     0
 91
        4
176
     0
 64
     7
176
     0
 65
   257
176
     0
 75
     1
176
     0
175
     1
176
     0
 42
1.0
176
     0
 92
        9
176
     2
 66
     7
176
     0
 43
1.0
176
     0
 76
     1
176
     0
 77
     6
176
     0
 78
     2
176
     0
 67
     7
176
     0
 79
     5
176
     0
170
     0
176
     0
171
     0
176
     0
290
     0
176
     0
 93
        1
176
     0
 44
0.0
176
     0
173
     0
176
     0
1001
ACAD
1000
AcDbSavedByObjectVersion
1070
     0
  0
VISUALSTYLE
  5
CD
102
{ACAD_XDICTIONARY
360
190
102
}
102
{ACAD_REACTORS
330
C3
102
}
330
C3
100
AcDbVisualStyle
  2
Realistic
 70
     8
177
     2
291
     0
 71
     2
176
     1
 72
     3
176
     1
 73
     0
176
     1
 90
        2
176
     1
 40
0.6
176
     1
 41
30.0
176
     1
 63
     7
421
 16777215
176
     1
 74
     0
176
     1
 91
        0
176
     1
 64
     7
176
     1
 65
   257
176
     1
 75
     1
176
     1
175
     1
176
     1
 42
1.0
176
     1
 92
        8
176
     1
 66
   257
176
     1
 43
1.0
176
     1
 76
     1
176
     1
 77
     6
176
     1
 78
     2
176
     1
 67
     7
176
     1
 79
     3
176
     1
170
     0
176
     1
171
     0
176
     1
290
     0
176
     1
 93
       13
176
     1
 44
0.0
176
     1
173
     0
176
     1
1001
ACAD
1000
AcDbSavedByObjectVersion
1070
     0
  0
VISUALSTYLE
  5
D8
102
{ACAD_XDICTIONARY
360
1A6
102
}
102
{ACAD_REACTORS
330
C3
102
}
330
C3
100
AcDbVisualStyle
  2
Shaded
 70
    27
177
     2
291
     0
 71
     2
176
     1
 72
     2
176
     1
 73
     1
176
     1
 90
        2
176
     1
 40
0.6
176
     1
 41
30.0
176
     1
 63
     7
421
 16777215
176
     1
 74
     0
176
     1
 91
        4
176
     1
 64
     7
176
     1
 65
   257
176
     1
 75
     1
176
     1
175
     1
176
     1
 42
1.0
176
     1
 92
        8
176
     1
 66
   257
176
     1
 43
1.0
176
     1
 76
     1
176
     1
 77
     6
176
     1
 78
     2
176
     1
 67
     8
425
  7895160
176
     1
 79
     3
176
     1
170
     0
176
     1
171
     0
176
     1
290
     0
176
     1
 93
        5
176
     1
 44
0.0
176
     1
173
     0
176
     1
1001
ACAD
1000
AcDbSavedByObjectVersion
1070
     0
  0
VISUALSTYLE
  5
D7
102
{ACAD_XDICTIONARY
360
1A4
102
}
102
{ACAD_REACTORS
330
C3
102
}
330
C3
100
AcDbVisualStyle
  2
Shaded with edges
 70
    26
177
     2
291
     0
 71
     2
176
     1
 72
     2
176
     1
 73
     1
176
     1
 90
        2
176
     1
 40
0.6
176
     1
 41
30.0
176
     1
 63
     7
421
 16777215
176
     1
 74
     1
176
     1
 91
       10
176
     1
 64
     7
176
     1
 65
   257
176
     1
 75
     2
176
     1
175
     1
176
     1
 42
1.0
176
     1
 92
        8
176
     1
 66
   257
176
     1
 43
1.0
176
     1
 76
     1
176
     1
 77
     6
176
     1
 78
     2
176
     1
 67
     7
176
     1
 79
     3
176
     1
170
     0
176
     1
171
     0
176
     1
290
     0
176
     1
 93
        5
176
     1
 44
0.0
176
     1
173
     0
176
     1
1001
ACAD
1000
AcDbSavedByObjectVersion
1070
     0
  0
VISUALSTYLE
  5
D4
102
{ACAD_XDICTIONARY
360
19E
102
}
102
{ACAD_REACTORS
330
C3
102
}
330
C3
100
AcDbVisualStyle
  2
Shades of Gray
 70
    23
177
     2
291
     0
 71
     2
176
     1
 72
     2
176
     1
 73
     3
176
     1
 90
        0
176
     1
 40
0.6
176
     1
 41
30.0
176
     1
 63
     7
421
 16777215
176
     1
 74
     2
176
     1
 91
        2
176
     1
 64
     7
176
     1
 65
     7
176
     1
 75
     1
176
     1
175
     1
176
     1
 42
40.0
176
     1
 92
        8
176
     1
 66
     7
176
     1
 43
1.0
176
     1
 76
     1
176
     1
 77
     6
176
     1
 78
     2
176
     1
 67
     7
176
     1
 79
     3
176
     1
170
     0
176
     1
171
     0
176
     1
290
     0
176
     1
 93
        1
176
     1
 44
0.0
176
     1
173
     0
176
     1
1001
ACAD
1000
AcDbSavedByObjectVersion
1070
     0
  0
VISUALSTYLE
  5
D5
102
{ACAD_XDICTIONARY
360
1A0
102
}
102
{ACAD_REACTORS
330
C3
102
}
330
C3
100
AcDbVisualStyle
  2
Sketchy
 70
    24
177
     2
291
     0
 71
     1
176
     1
 72
     2
176
     1
 73
     2
176
     1
 90
        0
176
     1
 40
0.6
176
     1
 41
30.0
176
     1
 63
     7
421
 16777215
176
     1
 74
     2
176
     1
 91
        2
176
     1
 64
     7
176
     1
 65
     7
176
     1
 75
     1
176
     1
175
     1
176
     1
 42
40.0
176
     1
 92
       11
176
     1
 66
     7
176
     1
 43
1.0
176
     1
 76
     1
176
     1
 77
     6
176
     1
 78
     2
176
     1
 67
     7
176
     1
 79
     6
176
     1
170
     0
176
     1
171
     0
176
     1
290
     0
176
     1
 93
        1
176
     1
 44
0.0
176
     1
173
     0
176
     1
1001
ACAD
1000
AcDbSavedByObjectVersion
1070
     0
  0
VISUALSTYLE
  5
D0
102
{ACAD_XDICTIONARY
360
196
102
}
102
{ACAD_REACTORS
330
C3
102
}
330
C3
100
AcDbVisualStyle
  2
Thicken
 70
    13
177
     2
291
     1
 71
     2
176
     1
 72
     2
176
     1
 73
     0
176
     1
 90
        0
176
     1
 40
0.6
176
     1
 41
30.0
176
     1
 63
     7
421
 16777215
176
     1
 74
     1
176
     1
 91
        4
176
     1
 64
     7
176
     1
 65
   257
176
     1
 75
     1
176
     1
175
     1
176
     1
 42
1.0
176
     1
 92
       12
176
     1
 66
     7
176
     1
 43
1.0
176
     1
 76
     1
176
     1
 77
     6
176
     1
 78
     2
176
     1
 67
     7
176
     1
 79
     5
176
     1
170
     0
176
     1
171
     0
176
     1
290
     0
176
     1
 93
        1
176
     1
 44
0.0
176
     1
173
     0
176
     1
1001
ACAD
1000
AcDbSavedByObjectVersion
1070
     0
  0
VISUALSTYLE
  5
CA
102
{ACAD_XDICTIONARY
360
18A
102
}
102
{ACAD_REACTORS
330
C3
102
}
330
C3
100
AcDbVisualStyle
  2
Wireframe
 70
     5
177
     2
291
     0
 71
     0
176
     1
 72
     2
176
     1
 73
     0
176
     1
 90
        0
176
     1
 40
0.6
176
     1
 41
30.0
176
     1
 63
     7
421
 16777215
176
     1
 74
     1
176
     1
 91
        4
176
     1
 64
     7
176
     1
 65
   257
176
     1
 75
     1
176
     1
175
     1
176
     1
 42
1.0
176
     1
 92
        0
176
     1
 66
   257
176
     1
 43
1.0
176
     1
 76
     1
176
     1
 77
     6
176
     1
 78
     2
176
     1
 67
     7
176
     1
 79
     3
176
     1
170
     0
176
     1
171
     0
176
     1
290
     0
176
     1
 93
        1
176
     1
 44
0.0
176
     1
173
     0
176
     1
1001
ACAD
1000
AcDbSavedByObjectVersion
1070
     0
  0
VISUALSTYLE
  5
D6
102
{ACAD_XDICTIONARY
360
1A2
102
}
102
{ACAD_REACTORS
330
C3
102
}
330
C3
100
AcDbVisualStyle
  2
X-Ray
 70
    25
177
     2
291
     0
 71
     2
176
     1
 72
     2
176
     1
 73
     1
176
     1
 90
        1
176
     1
 40
0.5
176
     1
 41
30.0
176
     1
 63
     7
421
 16777215
176
     1
 74
     1
176
     1
 91
        0
176
     1
 64
     7
176
     1
 65
   257
176
     1
 75
     1
176
     1
175
     1
176
     1
 42
1.0
176
     1
 92
        8
176
     1
 66
     7
176
     1
 43
1.0
176
     1
 76
     1
176
     1
 77
     6
176
     1
 78
     2
176
     1
 67
     7
176
     1
 79
     3
176
     1
170
     0
176
     1
171
     0
176
     1
290
     0
176
     1
 93
       13
176
     1
 44
0.0
176
     1
173
     0
176
     1
1001
ACAD
1000
AcDbSavedByObjectVersion
1070
     0
  0
DICTIONARYVAR
  5
177
102
{ACAD_REACTORS
330
171
102
}
330
171
100
DictionaryVariables
280
     0
  1
1:1
  0
DICTIONARYVAR
  5
173
102
{ACAD_REACTORS
330
171
102
}
330
171
100
DictionaryVariables
280
     0
  1
STANDARD
  0
DICTIONARYVAR
  5
172
102
{ACAD_REACTORS
330
171
102
}
330
171
100
DictionaryVariables
280
     0
  1
STANDARD
  0
DICTIONARYVAR
  5
174
102
{ACAD_REACTORS
330
171
102
}
330
171
100
DictionaryVariables
280
     0
  1
Imperial24
  0
DICTIONARYVAR
  5
175
102
{ACAD_REACTORS
330
171
102
}
330
171
100
DictionaryVariables
280
     0
  1
Imperial24
  0
DICTIONARYVAR
  5
179
102
{ACAD_REACTORS
330
171
102
}
330
171
100
DictionaryVariables
280
     0
  1
1
  0
DICTIONARYVAR
  5
17A
102
{ACAD_REACTORS
330
171
102
}
330
171
100
DictionaryVariables
280
     0
  1
15
  0
DICTIONARYVAR
  5
178
102
{ACAD_REACTORS
330
171
102
}
330
171
100
DictionaryVariables
280
     0
  1
0
  0
DICTIONARYVAR
  5
176
102
{ACAD_REACTORS
330
171
102
}
330
171
100
DictionaryVariables
280
     0
  1
0
  0
DICTIONARY
  5
1B2
330
F6
100
AcDbDictionary
280
     1
281
     1
  3
ACAD_XREC_ROUNDTRIP
360
1B3
  0
DICTIONARY
  5
B4
330
B3
100
AcDbDictionary
280
     1
281
     1
  3
BUMPTILE
360
B6
  3
DIFFUSETILE
360
B5
  3
OPACITYTILE
360
B9
  3
REFLECTIONTILE
360
B8
  3
REFRACTIONTILE
360
BA
  3
SPECULARTILE
360
B7
  0
DICTIONARY
  5
AC
330
AB
100
AcDbDictionary
280
     1
281
     1
  3
BUMPTILE
360
AE
  3
DIFFUSETILE
360
AD
  3
OPACITYTILE
360
B1
  3
REFLECTIONTILE
360
B0
  3
REFRACTIONTILE
360
B2
  3
SPECULARTILE
360
AF
  0
DICTIONARY
  5
BC
330
BB
100
AcDbDictionary
280
     1
281
     1
  3
BUMPTILE
360
BE
  3
DIFFUSETILE
360
BD
  3
OPACITYTILE
360
C1
  3
REFLECTIONTILE
360
C0
  3
REFRACTIONTILE
360
C2
  3
SPECULARTILE
360
BF
  0
DICTIONARY
  5
1AE
330
F2
100
AcDbDictionary
280
     1
281
     1
  3
ACAD_XREC_ROUNDTRIP
360
1AF
  0
DICTIONARY
  5
1B0
330
F4
100
AcDbDictionary
280
     1
281
     1
  3
ACAD_XREC_ROUNDTRIP
360
1B1
  0
DICTIONARY
  5
17B
330
DE
100
AcDbDictionary
280
     1
281
     1
  3
ACAD_ROUNDTRIP_2008_TABLESTYLE_CELLSTYLEMAP
360
17C
  0
DICTIONARY
  5
188
330
C9
100
AcDbDictionary
280
     1
281
     1
  3
ACAD_XREC_ROUNDTRIP
360
189
  0
DICTIONARY
  5
186
330
C8
100
AcDbDictionary
280
     1
281
     1
  3
ACAD_XREC_ROUNDTRIP
360
187
  0
DICTIONARY
  5
194
330
CF
100
AcDbDictionary
280
     1
281
     1
  3
ACAD_XREC_ROUNDTRIP
360
195
  0
DICTIONARY
  5
19C
330
D3
100
AcDbDictionary
280
     1
281
     1
  3
ACAD_XREC_ROUNDTRIP
360
19D
  0
DICTIONARY
  5
18E
330
CC
100
AcDbDictionary
280
     1
281
     1
  3
ACAD_XREC_ROUNDTRIP
360
18F
  0
DICTIONARY
  5
192
330
CE
100
AcDbDictionary
280
     1
281
     1
  3
ACAD_XREC_ROUNDTRIP
360
193
  0
DICTIONARY
  5
1AC
330
DB
100
AcDbDictionary
280
     1
281
     1
  3
ACAD_XREC_ROUNDTRIP
360
1AD
  0
DICTIONARY
  5
19A
330
D2
100
AcDbDictionary
280
     1
281
     1
  3
ACAD_XREC_ROUNDTRIP
360
19B
  0
DICTIONARY
  5
17E
330
C4
100
AcDbDictionary
280
     1
281
     1
  3
ACAD_XREC_ROUNDTRIP
360
17F
  0
DICTIONARY
  5
180
330
C5
100
AcDbDictionary
280
     1
281
     1
  3
ACAD_XREC_ROUNDTRIP
360
181
  0
DICTIONARY
  5
182
330
C6
100
AcDbDictionary
280
     1
281
     1
  3
ACAD_XREC_ROUNDTRIP
360
183
  0
DICTIONARY
  5
184
330
C7
100
AcDbDictionary
280
     1
281
     1
  3
ACAD_XREC_ROUNDTRIP
360
185
  0
DICTIONARY
  5
18C
330
CB
100
AcDbDictionary
280
     1
281
     1
  3
ACAD_XREC_ROUNDTRIP
360
18D
  0
DICTIONARY
  5
1A8
330
D9
100
AcDbDictionary
280
     1
281
     1
  3
ACAD_XREC_ROUNDTRIP
360
1A9
  0
DICTIONARY
  5
198
330
D1
100
AcDbDictionary
280
     1
281
     1
  3
ACAD_XREC_ROUNDTRIP
360
199
  0
DICTIONARY
  5
1AA
330
DA
100
AcDbDictionary
280
     1
281
     1
  3
ACAD_XREC_ROUNDTRIP
360
1AB
  0
DICTIONARY
  5
190
330
CD
100
AcDbDictionary
280
     1
281
     1
  3
ACAD_XREC_ROUNDTRIP
360
191
  0
DICTIONARY
  5
1A6
330
D8
100
AcDbDictionary
280
     1
281
     1
  3
ACAD_XREC_ROUNDTRIP
360
1A7
  0
DICTIONARY
  5
1A4
330
D7
100
AcDbDictionary
280
     1
281
     1
  3
ACAD_XREC_ROUNDTRIP
360
1A5
  0
DICTIONARY
  5
19E
330
D4
100
AcDbDictionary
280
     1
281
     1
  3
ACAD_XREC_ROUNDTRIP
360
19F
  0
DICTIONARY
  5
1A0
330
D5
100
AcDbDictionary
280
     1
281
     1
  3
ACAD_XREC_ROUNDTRIP
360
1A1
  0
DICTIONARY
  5
196
330
D0
100
AcDbDictionary
280
     1
281
     1
  3
ACAD_XREC_ROUNDTRIP
360
197
  0
DICTIONARY
  5
18A
330
CA
100
AcDbDictionary
280
     1
281
     1
  3
ACAD_XREC_ROUNDTRIP
360
18B
  0
DICTIONARY
  5
1A2
330
D6
100
AcDbDictionary
280
     1
281
     1
  3
ACAD_XREC_ROUNDTRIP
360
1A3
  0
XRECORD
  5
1B3
102
{ACAD_REACTORS
330
1B2
102
}
330
1B2
100
AcDbXrecord
280
     1
102
DISPLAYNAME
  1
Imperial24
102
FLAGS
 90
        0
  0
XRECORD
  5
B6
102
{ACAD_REACTORS
330
B4
102
}
330
B4
100
AcDbXrecord
280
     1
270
     1
271
     1
  0
XRECORD
  5
B5
102
{ACAD_REACTORS
330
B4
102
}
330
B4
100
AcDbXrecord
280
     1
270
     1
271
     1
  0
XRECORD
  5
B9
102
{ACAD_REACTORS
330
B4
102
}
330
B4
100
AcDbXrecord
280
     1
270
     1
271
     1
  0
XRECORD
  5
B8
102
{ACAD_REACTORS
330
B4
102
}
330
B4
100
AcDbXrecord
280
     1
270
     1
271
     1
  0
XRECORD
  5
BA
102
{ACAD_REACTORS
330
B4
102
}
330
B4
100
AcDbXrecord
280
     1
270
     1
271
     1
  0
XRECORD
  5
B7
102
{ACAD_REACTORS
330
B4
102
}
330
B4
100
AcDbXrecord
280
     1
270
     1
271
     1
  0
XRECORD
  5
AE
102
{ACAD_REACTORS
330
AC
102
}
330
AC
100
AcDbXrecord
280
     1
270
     1
271
     1
  0
XRECORD
  5
AD
102
{ACAD_REACTORS
330
AC
102
}
330
AC
100
AcDbXrecord
280
     1
270
     1
271
     1
  0
XRECORD
  5
B1
102
{ACAD_REACTORS
330
AC
102
}
330
AC
100
AcDbXrecord
280
     1
270
     1
271
     1
  0
XRECORD
  5
B0
102
{ACAD_REACTORS
330
AC
102
}
330
AC
100
AcDbXrecord
280
     1
270
     1
271
     1
  0
XRECORD
  5
B2
102
{ACAD_REACTORS
330
AC
102
}
330
AC
100
AcDbXrecord
280
     1
270
     1
271
     1
  0
XRECORD
  5
AF
102
{ACAD_REACTORS
330
AC
102
}
330
AC
100
AcDbXrecord
280
     1
270
     1
271
     1
  0
XRECORD
  5
BE
102
{ACAD_REACTORS
330
BC
102
}
330
BC
100
AcDbXrecord
280
     1
270
     1
271
     1
  0
XRECORD
  5
BD
102
{ACAD_REACTORS
330
BC
102
}
330
BC
100
AcDbXrecord
280
     1
270
     1
271
     1
  0
XRECORD
  5
C1
102
{ACAD_REACTORS
330
BC
102
}
330
BC
100
AcDbXrecord
280
     1
270
     1
271
     1
  0
XRECORD
  5
C0
102
{ACAD_REACTORS
330
BC
102
}
330
BC
100
AcDbXrecord
280
     1
270
     1
271
     1
  0
XRECORD
  5
C2
102
{ACAD_REACTORS
330
BC
102
}
330
BC
100
AcDbXrecord
280
     1
270
     1
271
     1
  0
XRECORD
  5
BF
102
{ACAD_REACTORS
330
BC
102
}
330
BC
100
AcDbXrecord
280
     1
270
     1
271
     1
  0
XRECORD
  5
1AF
102
{ACAD_REACTORS
330
1AE
102
}
330
1AE
100
AcDbXrecord
280
     1
102
ACAD_ROUNDTRIP_2012_MLEADER_STYLE
298
     1
  0
XRECORD
  5
1B1
102
{ACAD_REACTORS
330
1B0
102
}
330
1B0
100
AcDbXrecord
280
     1
102
DISPLAYNAME
  1
Imperial24
102
FLAGS
 90
        0
  0
CELLSTYLEMAP
  5
17C
102
{ACAD_REACTORS
330
17B
102
}
330
17B
100
AcDbCellStyleMap
 90
        3
300
CELLSTYLE
  1
TABLEFORMAT_BEGIN
 90
        5
170
     1
 91
        0
 92
    32768
 62
   257
 93
        1
300
CONTENTFORMAT
  1
CONTENTFORMAT_BEGIN
 90
        0
 91
        0
 92
      512
 93
        0
300

 40
0.0
140
1.0
 94
        5
 62
     0
340
11
144
0.25
309
CONTENTFORMAT_END
171
     0
 94
        0
309
TABLEFORMAT_END
  1
CELLSTYLE_BEGIN
 90
        1
 91
        1
300
_TITLE
309
CELLSTYLE_END
300
CELLSTYLE
  1
TABLEFORMAT_BEGIN
 90
        5
170
     1
 91
        0
 92
        0
 62
   257
 93
        1
300
CONTENTFORMAT
  1
CONTENTFORMAT_BEGIN
 90
        0
 91
        0
 92
      512
 93
        0
300

 40
0.0
140
1.0
 94
        5
 62
     0
340
11
144
0.18
309
CONTENTFORMAT_END
171
     0
 94
        0
309
TABLEFORMAT_END
  1
CELLSTYLE_BEGIN
 90
        2
 91
        1
300
_HEADER
309
CELLSTYLE_END
300
CELLSTYLE
  1
TABLEFORMAT_BEGIN
 90
        5
170
     1
 91
        0
 92
        0
 62
   257
 93
        1
300
CONTENTFORMAT
  1
CONTENTFORMAT_BEGIN
 90
        0
 91
        0
 92
      512
 93
        0
300

 40
0.0
140
1.0
 94
        2
 62
     0
340
11
144
0.18
309
CONTENTFORMAT_END
171
     0
 94
        0
309
TABLEFORMAT_END
  1
CELLSTYLE_BEGIN
 90
        3
 91
        2
300
_DATA
309
CELLSTYLE_END
  0
XRECORD
  5
189
102
{ACAD_REACTORS
330
188
102
}
330
188
100
AcDbXrecord
280
     1
102
RTVSPost2010Prop28
280
     1
102
RTVSPost2010PropOp28
 70
     1
102
RTVSPost2010Prop29
280
     1
102
RTVSPost2010PropOp29
 70
     1
102
RTVSPost2010Prop30
280
     0
102
RTVSPost2010PropOp30
 70
     1
102
RTVSPost2010Prop31
280
     0
102
RTVSPost2010PropOp31
 70
     1
102
RTVSPost2010Prop32
280
     0
102
RTVSPost2010PropOp32
 70
     1
102
RTVSPost2010Prop33
280
     0
102
RTVSPost2010PropOp33
 70
     1
102
RTVSPost2010Prop34
280
     0
102
RTVSPost2010PropOp34
 70
     1
102
RTVSPost2010Prop35
280
     0
102
RTVSPost2010PropOp35
 70
     1
102
RTVSPost2010Prop36
280
     0
102
RTVSPost2010PropOp36
 70
     1
102
RTVSPost2010Prop37
 90
       50
102
RTVSPost2010PropOp37
 70
     1
102
RTVSPost2010Prop38
140
0.0
102
RTVSPost2010PropOp38
 70
     1
102
RTVSPost2010Prop39
140
1.0
102
RTVSPost2010PropOp39
 70
     1
102
RTVSPost2010Prop40
 90
        0
102
RTVSPost2010PropOp40
 70
     1
102
RTVSPost2010Prop41ColorIndex
 90
       18
102
RTVSPost2010Prop41ColorRGB
 90
        0
102
RTVSPost2010PropOp41
 70
     1
102
RTVSPost2010Prop42
 90
       50
102
RTVSPost2010PropOp42
 70
     1
102
RTVSPost2010Prop43
 90
        3
102
RTVSPost2010PropOp43
 70
     1
102
RTVSPost2010Prop44ColorIndex
 90
        5
102
RTVSPost2010Prop44ColorRGB
 90
      255
102
RTVSPost2010PropOp44
 70
     1
102
RTVSPost2010Prop45
280
     0
102
RTVSPost2010PropOp45
 70
     1
102
RTVSPost2010Prop46
 90
       50
102
RTVSPost2010PropOp46
 70
     1
102
RTVSPost2010Prop47
 90
       50
102
RTVSPost2010PropOp47
 70
     1
102
RTVSPost2010Prop48
 90
       50
102
RTVSPost2010PropOp48
 70
     1
102
RTVSPost2010Prop49
280
     0
102
RTVSPost2010PropOp49
 70
     1
102
RTVSPost2010Prop50
 90
       50
102
RTVSPost2010PropOp50
 70
     1
102
RTVSPost2010Prop51ColorIndex
 90
      256
102
RTVSPost2010Prop51ColorRGB
 90
-16777216
102
RTVSPost2010PropOp51
 70
     0
102
RTVSPost2010Prop52
140
1.0
102
RTVSPost2010PropOp52
 70
     0
102
RTVSPost2010Prop53
 90
        2
102
RTVSPost2010PropOp53
 70
     1
102
RTVSPost2010Prop54
  1
strokes_ogs.tif
102
RTVSPost2010PropOp54
 70
     1
102
RTVSPost2010Prop55
280
     0
102
RTVSPost2010PropOp55
 70
     1
102
RTVSPost2010Prop56
140
1.0
102
RTVSPost2010PropOp56
 70
     1
102
RTVSPost2010Prop57
140
1.0
102
RTVSPost2010PropOp57
 70
     1
  0
XRECORD
  5
187
102
{ACAD_REACTORS
330
186
102
}
330
186
100
AcDbXrecord
280
     1
102
RTVSPost2010Prop28
280
     0
102
RTVSPost2010PropOp28
 70
     1
102
RTVSPost2010Prop29
280
     1
102
RTVSPost2010PropOp29
 70
     1
102
RTVSPost2010Prop30
280
     1
102
RTVSPost2010PropOp30
 70
     1
102
RTVSPost2010Prop31
280
     0
102
RTVSPost2010PropOp31
 70
     1
102
RTVSPost2010Prop32
280
     0
102
RTVSPost2010PropOp32
 70
     1
102
RTVSPost2010Prop33
280
     0
102
RTVSPost2010PropOp33
 70
     1
102
RTVSPost2010Prop34
280
     0
102
RTVSPost2010PropOp34
 70
     1
102
RTVSPost2010Prop35
280
     0
102
RTVSPost2010PropOp35
 70
     1
102
RTVSPost2010Prop36
280
     0
102
RTVSPost2010PropOp36
 70
     1
102
RTVSPost2010Prop37
 90
       50
102
RTVSPost2010PropOp37
 70
     1
102
RTVSPost2010Prop38
140
0.0
102
RTVSPost2010PropOp38
 70
     1
102
RTVSPost2010Prop39
140
1.0
102
RTVSPost2010PropOp39
 70
     1
102
RTVSPost2010Prop40
 90
        0
102
RTVSPost2010PropOp40
 70
     1
102
RTVSPost2010Prop41ColorIndex
 90
       18
102
RTVSPost2010Prop41ColorRGB
 90
        0
102
RTVSPost2010PropOp41
 70
     1
102
RTVSPost2010Prop42
 90
       50
102
RTVSPost2010PropOp42
 70
     1
102
RTVSPost2010Prop43
 90
        3
102
RTVSPost2010PropOp43
 70
     1
102
RTVSPost2010Prop44ColorIndex
 90
        5
102
RTVSPost2010Prop44ColorRGB
 90
      255
102
RTVSPost2010PropOp44
 70
     1
102
RTVSPost2010Prop45
280
     0
102
RTVSPost2010PropOp45
 70
     1
102
RTVSPost2010Prop46
 90
       50
102
RTVSPost2010PropOp46
 70
     1
102
RTVSPost2010Prop47
 90
       50
102
RTVSPost2010PropOp47
 70
     1
102
RTVSPost2010Prop48
 90
       50
102
RTVSPost2010PropOp48
 70
     1
102
RTVSPost2010Prop49
280
     0
102
RTVSPost2010PropOp49
 70
     1
102
RTVSPost2010Prop50
 90
       50
102
RTVSPost2010PropOp50
 70
     1
102
RTVSPost2010Prop51ColorIndex
 90
      256
102
RTVSPost2010Prop51ColorRGB
 90
-16777216
102
RTVSPost2010PropOp51
 70
     0
102
RTVSPost2010Prop52
140
1.0
102
RTVSPost2010PropOp52
 70
     0
102
RTVSPost2010Prop53
 90
        2
102
RTVSPost2010PropOp53
 70
     1
102
RTVSPost2010Prop54
  1
strokes_ogs.tif
102
RTVSPost2010PropOp54
 70
     1
102
RTVSPost2010Prop55
280
     0
102
RTVSPost2010PropOp55
 70
     1
102
RTVSPost2010Prop56
140
1.0
102
RTVSPost2010PropOp56
 70
     1
102
RTVSPost2010Prop57
140
1.0
102
RTVSPost2010PropOp57
 70
     1
  0
XRECORD
  5
195
102
{ACAD_REACTORS
330
194
102
}
330
194
100
AcDbXrecord
280
     1
102
RTVSPost2010Prop28
280
     0
102
RTVSPost2010PropOp28
 70
     1
102
RTVSPost2010Prop29
280
     1
102
RTVSPost2010PropOp29
 70
     1
102
RTVSPost2010Prop30
280
     1
102
RTVSPost2010PropOp30
 70
     1
102
RTVSPost2010Prop31
280
     0
102
RTVSPost2010PropOp31
 70
     1
102
RTVSPost2010Prop32
280
     0
102
RTVSPost2010PropOp32
 70
     1
102
RTVSPost2010Prop33
280
     0
102
RTVSPost2010PropOp33
 70
     1
102
RTVSPost2010Prop34
280
     0
102
RTVSPost2010PropOp34
 70
     1
102
RTVSPost2010Prop35
280
     0
102
RTVSPost2010PropOp35
 70
     1
102
RTVSPost2010Prop36
280
     0
102
RTVSPost2010PropOp36
 70
     1
102
RTVSPost2010Prop37
 90
       50
102
RTVSPost2010PropOp37
 70
     1
102
RTVSPost2010Prop38
140
0.0
102
RTVSPost2010PropOp38
 70
     1
102
RTVSPost2010Prop39
140
1.0
102
RTVSPost2010PropOp39
 70
     1
102
RTVSPost2010Prop40
 90
        0
102
RTVSPost2010PropOp40
 70
     1
102
RTVSPost2010Prop41ColorIndex
 90
       18
102
RTVSPost2010Prop41ColorRGB
 90
        0
102
RTVSPost2010PropOp41
 70
     1
102
RTVSPost2010Prop42
 90
       50
102
RTVSPost2010PropOp42
 70
     1
102
RTVSPost2010Prop43
 90
        3
102
RTVSPost2010PropOp43
 70
     1
102
RTVSPost2010Prop44ColorIndex
 90
        5
102
RTVSPost2010Prop44ColorRGB
 90
      255
102
RTVSPost2010PropOp44
 70
     1
102
RTVSPost2010Prop45
280
     0
102
RTVSPost2010PropOp45
 70
     1
102
RTVSPost2010Prop46
 90
       50
102
RTVSPost2010PropOp46
 70
     1
102
RTVSPost2010Prop47
 90
       50
102
RTVSPost2010PropOp47
 70
     1
102
RTVSPost2010Prop48
 90
       50
102
RTVSPost2010PropOp48
 70
     1
102
RTVSPost2010Prop49
280
     0
102
RTVSPost2010PropOp49
 70
     1
102
RTVSPost2010Prop50
 90
       50
102
RTVSPost2010PropOp50
 70
     1
102
RTVSPost2010Prop51ColorIndex
 90
      256
102
RTVSPost2010Prop51ColorRGB
 90
-16777216
102
RTVSPost2010PropOp51
 70
     0
102
RTVSPost2010Prop52
140
1.0
102
RTVSPost2010PropOp52
 70
     0
102
RTVSPost2010Prop53
 90
        2
102
RTVSPost2010PropOp53
 70
     1
102
RTVSPost2010Prop54
  1
strokes_ogs.tif
102
RTVSPost2010PropOp54
 70
     1
102
RTVSPost2010Prop55
280
     0
102
RTVSPost2010PropOp55
 70
     1
102
RTVSPost2010Prop56
140
1.0
102
RTVSPost2010PropOp56
 70
     1
102
RTVSPost2010Prop57
140
1.0
102
RTVSPost2010PropOp57
 70
     1
  0
XRECORD
  5
19D
102
{ACAD_REACTORS
330
19C
102
}
330
19C
100
AcDbXrecord
280
     1
102
RTVSPost2010Prop28
280
     0
102
RTVSPost2010PropOp28
 70
     1
102
RTVSPost2010Prop29
280
     1
102
RTVSPost2010PropOp29
 70
     1
102
RTVSPost2010Prop30
280
     1
102
RTVSPost2010PropOp30
 70
     1
102
RTVSPost2010Prop31
280
     0
102
RTVSPost2010PropOp31
 70
     1
102
RTVSPost2010Prop32
280
     0
102
RTVSPost2010PropOp32
 70
     1
102
RTVSPost2010Prop33
280
     0
102
RTVSPost2010PropOp33
 70
     1
102
RTVSPost2010Prop34
280
     0
102
RTVSPost2010PropOp34
 70
     1
102
RTVSPost2010Prop35
280
     0
102
RTVSPost2010PropOp35
 70
     1
102
RTVSPost2010Prop36
280
     0
102
RTVSPost2010PropOp36
 70
     1
102
RTVSPost2010Prop37
 90
       50
102
RTVSPost2010PropOp37
 70
     1
102
RTVSPost2010Prop38
140
0.0
102
RTVSPost2010PropOp38
 70
     1
102
RTVSPost2010Prop39
140
1.0
102
RTVSPost2010PropOp39
 70
     1
102
RTVSPost2010Prop40
 90
        0
102
RTVSPost2010PropOp40
 70
     1
102
RTVSPost2010Prop41ColorIndex
 90
       18
102
RTVSPost2010Prop41ColorRGB
 90
        0
102
RTVSPost2010PropOp41
 70
     1
102
RTVSPost2010Prop42
 90
       50
102
RTVSPost2010PropOp42
 70
     1
102
RTVSPost2010Prop43
 90
        3
102
RTVSPost2010PropOp43
 70
     1
102
RTVSPost2010Prop44ColorIndex
 90
        5
102
RTVSPost2010Prop44ColorRGB
 90
      255
102
RTVSPost2010PropOp44
 70
     1
102
RTVSPost2010Prop45
280
     0
102
RTVSPost2010PropOp45
 70
     1
102
RTVSPost2010Prop46
 90
       50
102
RTVSPost2010PropOp46
 70
     1
102
RTVSPost2010Prop47
 90
       50
102
RTVSPost2010PropOp47
 70
     1
102
RTVSPost2010Prop48
 90
       50
102
RTVSPost2010PropOp48
 70
     1
102
RTVSPost2010Prop49
280
     0
102
RTVSPost2010PropOp49
 70
     1
102
RTVSPost2010Prop50
 90
       50
102
RTVSPost2010PropOp50
 70
     1
102
RTVSPost2010Prop51ColorIndex
 90
      256
102
RTVSPost2010Prop51ColorRGB
 90
-16777216
102
RTVSPost2010PropOp51
 70
     0
102
RTVSPost2010Prop52
140
1.0
102
RTVSPost2010PropOp52
 70
     0
102
RTVSPost2010Prop53
 90
        2
102
RTVSPost2010PropOp53
 70
     1
102
RTVSPost2010Prop54
  1
strokes_ogs.tif
102
RTVSPost2010PropOp54
 70
     1
102
RTVSPost2010Prop55
280
     0
102
RTVSPost2010PropOp55
 70
     1
102
RTVSPost2010Prop56
140
1.0
102
RTVSPost2010PropOp56
 70
     1
102
RTVSPost2010Prop57
140
1.0
102
RTVSPost2010PropOp57
 70
     1
  0
XRECORD
  5
18F
102
{ACAD_REACTORS
330
18E
102
}
330
18E
100
AcDbXrecord
280
     1
102
RTVSPost2010Prop28
280
     0
102
RTVSPost2010PropOp28
 70
     1
102
RTVSPost2010Prop29
280
     1
102
RTVSPost2010PropOp29
 70
     1
102
RTVSPost2010Prop30
280
     1
102
RTVSPost2010PropOp30
 70
     1
102
RTVSPost2010Prop31
280
     0
102
RTVSPost2010PropOp31
 70
     1
102
RTVSPost2010Prop32
280
     0
102
RTVSPost2010PropOp32
 70
     1
102
RTVSPost2010Prop33
280
     0
102
RTVSPost2010PropOp33
 70
     1
102
RTVSPost2010Prop34
280
     0
102
RTVSPost2010PropOp34
 70
     1
102
RTVSPost2010Prop35
280
     0
102
RTVSPost2010PropOp35
 70
     1
102
RTVSPost2010Prop36
280
     0
102
RTVSPost2010PropOp36
 70
     1
102
RTVSPost2010Prop37
 90
       50
102
RTVSPost2010PropOp37
 70
     1
102
RTVSPost2010Prop38
140
0.0
102
RTVSPost2010PropOp38
 70
     1
102
RTVSPost2010Prop39
140
1.0
102
RTVSPost2010PropOp39
 70
     1
102
RTVSPost2010Prop40
 90
        0
102
RTVSPost2010PropOp40
 70
     1
102
RTVSPost2010Prop41ColorIndex
 90
       18
102
RTVSPost2010Prop41ColorRGB
 90
        0
102
RTVSPost2010PropOp41
 70
     1
102
RTVSPost2010Prop42
 90
       50
102
RTVSPost2010PropOp42
 70
     1
102
RTVSPost2010Prop43
 90
        3
102
RTVSPost2010PropOp43
 70
     1
102
RTVSPost2010Prop44ColorIndex
 90
        5
102
RTVSPost2010Prop44ColorRGB
 90
      255
102
RTVSPost2010PropOp44
 70
     1
102
RTVSPost2010Prop45
280
     0
102
RTVSPost2010PropOp45
 70
     1
102
RTVSPost2010Prop46
 90
       50
102
RTVSPost2010PropOp46
 70
     1
102
RTVSPost2010Prop47
 90
       50
102
RTVSPost2010PropOp47
 70
     1
102
RTVSPost2010Prop48
 90
       50
102
RTVSPost2010PropOp48
 70
     1
102
RTVSPost2010Prop49
280
     0
102
RTVSPost2010PropOp49
 70
     1
102
RTVSPost2010Prop50
 90
       50
102
RTVSPost2010PropOp50
 70
     1
102
RTVSPost2010Prop51ColorIndex
 90
      256
102
RTVSPost2010Prop51ColorRGB
 90
-16777216
102
RTVSPost2010PropOp51
 70
     0
102
RTVSPost2010Prop52
140
1.0
102
RTVSPost2010PropOp52
 70
     0
102
RTVSPost2010Prop53
 90
        2
102
RTVSPost2010PropOp53
 70
     1
102
RTVSPost2010Prop54
  1
strokes_ogs.tif
102
RTVSPost2010PropOp54
 70
     1
102
RTVSPost2010Prop55
280
     0
102
RTVSPost2010PropOp55
 70
     1
102
RTVSPost2010Prop56
140
1.0
102
RTVSPost2010PropOp56
 70
     1
102
RTVSPost2010Prop57
140
1.0
102
RTVSPost2010PropOp57
 70
     1
  0
XRECORD
  5
193
102
{ACAD_REACTORS
330
192
102
}
330
192
100
AcDbXrecord
280
     1
102
RTVSPost2010Prop28
280
     0
102
RTVSPost2010PropOp28
 70
     1
102
RTVSPost2010Prop29
280
     1
102
RTVSPost2010PropOp29
 70
     1
102
RTVSPost2010Prop30
280
     1
102
RTVSPost2010PropOp30
 70
     1
102
RTVSPost2010Prop31
280
     0
102
RTVSPost2010PropOp31
 70
     1
102
RTVSPost2010Prop32
280
     0
102
RTVSPost2010PropOp32
 70
     1
102
RTVSPost2010Prop33
280
     0
102
RTVSPost2010PropOp33
 70
     1
102
RTVSPost2010Prop34
280
     0
102
RTVSPost2010PropOp34
 70
     1
102
RTVSPost2010Prop35
280
     0
102
RTVSPost2010PropOp35
 70
     1
102
RTVSPost2010Prop36
280
     0
102
RTVSPost2010PropOp36
 70
     1
102
RTVSPost2010Prop37
 90
       50
102
RTVSPost2010PropOp37
 70
     1
102
RTVSPost2010Prop38
140
0.0
102
RTVSPost2010PropOp38
 70
     1
102
RTVSPost2010Prop39
140
1.0
102
RTVSPost2010PropOp39
 70
     1
102
RTVSPost2010Prop40
 90
        0
102
RTVSPost2010PropOp40
 70
     1
102
RTVSPost2010Prop41ColorIndex
 90
       18
102
RTVSPost2010Prop41ColorRGB
 90
        0
102
RTVSPost2010PropOp41
 70
     1
102
RTVSPost2010Prop42
 90
       50
102
RTVSPost2010PropOp42
 70
     1
102
RTVSPost2010Prop43
 90
        3
102
RTVSPost2010PropOp43
 70
     1
102
RTVSPost2010Prop44ColorIndex
 90
        5
102
RTVSPost2010Prop44ColorRGB
 90
      255
102
RTVSPost2010PropOp44
 70
     1
102
RTVSPost2010Prop45
280
     0
102
RTVSPost2010PropOp45
 70
     1
102
RTVSPost2010Prop46
 90
       50
102
RTVSPost2010PropOp46
 70
     1
102
RTVSPost2010Prop47
 90
       50
102
RTVSPost2010PropOp47
 70
     1
102
RTVSPost2010Prop48
 90
       50
102
RTVSPost2010PropOp48
 70
     1
102
RTVSPost2010Prop49
280
     0
102
RTVSPost2010PropOp49
 70
     1
102
RTVSPost2010Prop50
 90
       50
102
RTVSPost2010PropOp50
 70
     1
102
RTVSPost2010Prop51ColorIndex
 90
      256
102
RTVSPost2010Prop51ColorRGB
 90
-16777216
102
RTVSPost2010PropOp51
 70
     0
102
RTVSPost2010Prop52
140
1.0
102
RTVSPost2010PropOp52
 70
     0
102
RTVSPost2010Prop53
 90
        2
102
RTVSPost2010PropOp53
 70
     1
102
RTVSPost2010Prop54
  1
strokes_ogs.tif
102
RTVSPost2010PropOp54
 70
     1
102
RTVSPost2010Prop55
280
     0
102
RTVSPost2010PropOp55
 70
     1
102
RTVSPost2010Prop56
140
1.0
102
RTVSPost2010PropOp56
 70
     1
102
RTVSPost2010Prop57
140
1.0
102
RTVSPost2010PropOp57
 70
     1
  0
XRECORD
  5
1AD
102
{ACAD_REACTORS
330
1AC
102
}
330
1AC
100
AcDbXrecord
280
     1
102
RTVSPost2010Prop28
280
     0
102
RTVSPost2010PropOp28
 70
     0
102
RTVSPost2010Prop29
280
     1
102
RTVSPost2010PropOp29
 70
     0
102
RTVSPost2010Prop30
280
     1
102
RTVSPost2010PropOp30
 70
     0
102
RTVSPost2010Prop31
280
     0
102
RTVSPost2010PropOp31
 70
     0
102
RTVSPost2010Prop32
280
     0
102
RTVSPost2010PropOp32
 70
     0
102
RTVSPost2010Prop33
280
     0
102
RTVSPost2010PropOp33
 70
     0
102
RTVSPost2010Prop34
280
     0
102
RTVSPost2010PropOp34
 70
     0
102
RTVSPost2010Prop35
280
     0
102
RTVSPost2010PropOp35
 70
     0
102
RTVSPost2010Prop36
280
     0
102
RTVSPost2010PropOp36
 70
     0
102
RTVSPost2010Prop37
 90
       50
102
RTVSPost2010PropOp37
 70
     0
102
RTVSPost2010Prop38
140
0.0
102
RTVSPost2010PropOp38
 70
     0
102
RTVSPost2010Prop39
140
1.0
102
RTVSPost2010PropOp39
 70
     0
102
RTVSPost2010Prop40
 90
        0
102
RTVSPost2010PropOp40
 70
     0
102
RTVSPost2010Prop41ColorIndex
 90
       18
102
RTVSPost2010Prop41ColorRGB
 90
        0
102
RTVSPost2010PropOp41
 70
     0
102
RTVSPost2010Prop42
 90
       50
102
RTVSPost2010PropOp42
 70
     0
102
RTVSPost2010Prop43
 90
        3
102
RTVSPost2010PropOp43
 70
     0
102
RTVSPost2010Prop44ColorIndex
 90
        5
102
RTVSPost2010Prop44ColorRGB
 90
      255
102
RTVSPost2010PropOp44
 70
     0
102
RTVSPost2010Prop45
280
     0
102
RTVSPost2010PropOp45
 70
     0
102
RTVSPost2010Prop46
 90
       50
102
RTVSPost2010PropOp46
 70
     0
102
RTVSPost2010Prop47
 90
       50
102
RTVSPost2010PropOp47
 70
     0
102
RTVSPost2010Prop48
 90
       50
102
RTVSPost2010PropOp48
 70
     0
102
RTVSPost2010Prop49
280
     0
102
RTVSPost2010PropOp49
 70
     0
102
RTVSPost2010Prop50
 90
       50
102
RTVSPost2010PropOp50
 70
     0
102
RTVSPost2010Prop51ColorIndex
 90
      256
102
RTVSPost2010Prop51ColorRGB
 90
-16777216
102
RTVSPost2010PropOp51
 70
     0
102
RTVSPost2010Prop52
140
1.0
102
RTVSPost2010PropOp52
 70
     0
102
RTVSPost2010Prop53
 90
        2
102
RTVSPost2010PropOp53
 70
     0
102
RTVSPost2010Prop54
  1
strokes_ogs.tif
102
RTVSPost2010PropOp54
 70
     0
102
RTVSPost2010Prop55
280
     0
102
RTVSPost2010PropOp55
 70
     0
102
RTVSPost2010Prop56
140
1.0
102
RTVSPost2010PropOp56
 70
     0
102
RTVSPost2010Prop57
140
1.0
102
RTVSPost2010PropOp57
 70
     0
  0
XRECORD
  5
19B
102
{ACAD_REACTORS
330
19A
102
}
330
19A
100
AcDbXrecord
280
     1
102
RTVSPost2010Prop28
280
     0
102
RTVSPost2010PropOp28
 70
     1
102
RTVSPost2010Prop29
280
     1
102
RTVSPost2010PropOp29
 70
     1
102
RTVSPost2010Prop30
280
     1
102
RTVSPost2010PropOp30
 70
     1
102
RTVSPost2010Prop31
280
     0
102
RTVSPost2010PropOp31
 70
     1
102
RTVSPost2010Prop32
280
     0
102
RTVSPost2010PropOp32
 70
     1
102
RTVSPost2010Prop33
280
     0
102
RTVSPost2010PropOp33
 70
     1
102
RTVSPost2010Prop34
280
     0
102
RTVSPost2010PropOp34
 70
     1
102
RTVSPost2010Prop35
280
     0
102
RTVSPost2010PropOp35
 70
     1
102
RTVSPost2010Prop36
280
     0
102
RTVSPost2010PropOp36
 70
     1
102
RTVSPost2010Prop37
 90
       50
102
RTVSPost2010PropOp37
 70
     1
102
RTVSPost2010Prop38
140
0.0
102
RTVSPost2010PropOp38
 70
     1
102
RTVSPost2010Prop39
140
1.0
102
RTVSPost2010PropOp39
 70
     1
102
RTVSPost2010Prop40
 90
        0
102
RTVSPost2010PropOp40
 70
     1
102
RTVSPost2010Prop41ColorIndex
 90
       18
102
RTVSPost2010Prop41ColorRGB
 90
        0
102
RTVSPost2010PropOp41
 70
     1
102
RTVSPost2010Prop42
 90
       50
102
RTVSPost2010PropOp42
 70
     1
102
RTVSPost2010Prop43
 90
        3
102
RTVSPost2010PropOp43
 70
     1
102
RTVSPost2010Prop44ColorIndex
 90
        5
102
RTVSPost2010Prop44ColorRGB
 90
      255
102
RTVSPost2010PropOp44
 70
     1
102
RTVSPost2010Prop45
280
     0
102
RTVSPost2010PropOp45
 70
     1
102
RTVSPost2010Prop46
 90
       50
102
RTVSPost2010PropOp46
 70
     1
102
RTVSPost2010Prop47
 90
       50
102
RTVSPost2010PropOp47
 70
     1
102
RTVSPost2010Prop48
 90
       50
102
RTVSPost2010PropOp48
 70
     1
102
RTVSPost2010Prop49
280
     0
102
RTVSPost2010PropOp49
 70
     1
102
RTVSPost2010Prop50
 90
       50
102
RTVSPost2010PropOp50
 70
     1
102
RTVSPost2010Prop51ColorIndex
 90
      256
102
RTVSPost2010Prop51ColorRGB
 90
-16777216
102
RTVSPost2010PropOp51
 70
     0
102
RTVSPost2010Prop52
140
1.0
102
RTVSPost2010PropOp52
 70
     0
102
RTVSPost2010Prop53
 90
        2
102
RTVSPost2010PropOp53
 70
     1
102
RTVSPost2010Prop54
  1
strokes_ogs.tif
102
RTVSPost2010PropOp54
 70
     1
102
RTVSPost2010Prop55
280
     0
102
RTVSPost2010PropOp55
 70
     1
102
RTVSPost2010Prop56
140
1.0
102
RTVSPost2010PropOp56
 70
     1
102
RTVSPost2010Prop57
140
1.0
102
RTVSPost2010PropOp57
 70
     1
  0
XRECORD
  5
17F
102
{ACAD_REACTORS
330
17E
102
}
330
17E
100
AcDbXrecord
280
     1
102
RTVSPost2010Prop28
280
     0
102
RTVSPost2010PropOp28
 70
     1
102
RTVSPost2010Prop29
280
     1
102
RTVSPost2010PropOp29
 70
     1
102
RTVSPost2010Prop30
280
     1
102
RTVSPost2010PropOp30
 70
     1
102
RTVSPost2010Prop31
280
     0
102
RTVSPost2010PropOp31
 70
     1
102
RTVSPost2010Prop32
280
     0
102
RTVSPost2010PropOp32
 70
     1
102
RTVSPost2010Prop33
280
     0
102
RTVSPost2010PropOp33
 70
     1
102
RTVSPost2010Prop34
280
     0
102
RTVSPost2010PropOp34
 70
     1
102
RTVSPost2010Prop35
280
     0
102
RTVSPost2010PropOp35
 70
     1
102
RTVSPost2010Prop36
280
     0
102
RTVSPost2010PropOp36
 70
     1
102
RTVSPost2010Prop37
 90
       50
102
RTVSPost2010PropOp37
 70
     1
102
RTVSPost2010Prop38
140
0.0
102
RTVSPost2010PropOp38
 70
     1
102
RTVSPost2010Prop39
140
1.0
102
RTVSPost2010PropOp39
 70
     1
102
RTVSPost2010Prop40
 90
        0
102
RTVSPost2010PropOp40
 70
     1
102
RTVSPost2010Prop41ColorIndex
 90
       18
102
RTVSPost2010Prop41ColorRGB
 90
        0
102
RTVSPost2010PropOp41
 70
     1
102
RTVSPost2010Prop42
 90
       50
102
RTVSPost2010PropOp42
 70
     1
102
RTVSPost2010Prop43
 90
        3
102
RTVSPost2010PropOp43
 70
     1
102
RTVSPost2010Prop44ColorIndex
 90
        5
102
RTVSPost2010Prop44ColorRGB
 90
      255
102
RTVSPost2010PropOp44
 70
     1
102
RTVSPost2010Prop45
280
     0
102
RTVSPost2010PropOp45
 70
     1
102
RTVSPost2010Prop46
 90
       50
102
RTVSPost2010PropOp46
 70
     1
102
RTVSPost2010Prop47
 90
       50
102
RTVSPost2010PropOp47
 70
     1
102
RTVSPost2010Prop48
 90
       50
102
RTVSPost2010PropOp48
 70
     1
102
RTVSPost2010Prop49
280
     0
102
RTVSPost2010PropOp49
 70
     1
102
RTVSPost2010Prop50
 90
       50
102
RTVSPost2010PropOp50
 70
     1
102
RTVSPost2010Prop51ColorIndex
 90
      256
102
RTVSPost2010Prop51ColorRGB
 90
-16777216
102
RTVSPost2010PropOp51
 70
     0
102
RTVSPost2010Prop52
140
1.0
102
RTVSPost2010PropOp52
 70
     0
102
RTVSPost2010Prop53
 90
        2
102
RTVSPost2010PropOp53
 70
     1
102
RTVSPost2010Prop54
  1
strokes_ogs.tif
102
RTVSPost2010PropOp54
 70
     1
102
RTVSPost2010Prop55
280
     0
102
RTVSPost2010PropOp55
 70
     1
102
RTVSPost2010Prop56
140
1.0
102
RTVSPost2010PropOp56
 70
     1
102
RTVSPost2010Prop57
140
1.0
102
RTVSPost2010PropOp57
 70
     1
  0
XRECORD
  5
181
102
{ACAD_REACTORS
330
180
102
}
330
180
100
AcDbXrecord
280
     1
102
RTVSPost2010Prop28
280
     0
102
RTVSPost2010PropOp28
 70
     1
102
RTVSPost2010Prop29
280
     1
102
RTVSPost2010PropOp29
 70
     1
102
RTVSPost2010Prop30
280
     1
102
RTVSPost2010PropOp30
 70
     1
102
RTVSPost2010Prop31
280
     0
102
RTVSPost2010PropOp31
 70
     1
102
RTVSPost2010Prop32
280
     0
102
RTVSPost2010PropOp32
 70
     1
102
RTVSPost2010Prop33
280
     0
102
RTVSPost2010PropOp33
 70
     1
102
RTVSPost2010Prop34
280
     0
102
RTVSPost2010PropOp34
 70
     1
102
RTVSPost2010Prop35
280
     0
102
RTVSPost2010PropOp35
 70
     1
102
RTVSPost2010Prop36
280
     0
102
RTVSPost2010PropOp36
 70
     1
102
RTVSPost2010Prop37
 90
       50
102
RTVSPost2010PropOp37
 70
     1
102
RTVSPost2010Prop38
140
0.0
102
RTVSPost2010PropOp38
 70
     1
102
RTVSPost2010Prop39
140
1.0
102
RTVSPost2010PropOp39
 70
     1
102
RTVSPost2010Prop40
 90
        0
102
RTVSPost2010PropOp40
 70
     1
102
RTVSPost2010Prop41ColorIndex
 90
       18
102
RTVSPost2010Prop41ColorRGB
 90
        0
102
RTVSPost2010PropOp41
 70
     1
102
RTVSPost2010Prop42
 90
       50
102
RTVSPost2010PropOp42
 70
     1
102
RTVSPost2010Prop43
 90
        3
102
RTVSPost2010PropOp43
 70
     1
102
RTVSPost2010Prop44ColorIndex
 90
        5
102
RTVSPost2010Prop44ColorRGB
 90
      255
102
RTVSPost2010PropOp44
 70
     1
102
RTVSPost2010Prop45
280
     0
102
RTVSPost2010PropOp45
 70
     1
102
RTVSPost2010Prop46
 90
       50
102
RTVSPost2010PropOp46
 70
     1
102
RTVSPost2010Prop47
 90
       50
102
RTVSPost2010PropOp47
 70
     1
102
RTVSPost2010Prop48
 90
       50
102
RTVSPost2010PropOp48
 70
     1
102
RTVSPost2010Prop49
280
     0
102
RTVSPost2010PropOp49
 70
     1
102
RTVSPost2010Prop50
 90
       50
102
RTVSPost2010PropOp50
 70
     1
102
RTVSPost2010Prop51ColorIndex
 90
      256
102
RTVSPost2010Prop51ColorRGB
 90
-16777216
102
RTVSPost2010PropOp51
 70
     0
102
RTVSPost2010Prop52
140
1.0
102
RTVSPost2010PropOp52
 70
     0
102
RTVSPost2010Prop53
 90
        2
102
RTVSPost2010PropOp53
 70
     1
102
RTVSPost2010Prop54
  1
strokes_ogs.tif
102
RTVSPost2010PropOp54
 70
     1
102
RTVSPost2010Prop55
280
     0
102
RTVSPost2010PropOp55
 70
     1
102
RTVSPost2010Prop56
140
1.0
102
RTVSPost2010PropOp56
 70
     1
102
RTVSPost2010Prop57
140
1.0
102
RTVSPost2010PropOp57
 70
     1
  0
XRECORD
  5
183
102
{ACAD_REACTORS
330
182
102
}
330
182
100
AcDbXrecord
280
     1
102
RTVSPost2010Prop28
280
     0
102
RTVSPost2010PropOp28
 70
     1
102
RTVSPost2010Prop29
280
     1
102
RTVSPost2010PropOp29
 70
     1
102
RTVSPost2010Prop30
280
     1
102
RTVSPost2010PropOp30
 70
     1
102
RTVSPost2010Prop31
280
     0
102
RTVSPost2010PropOp31
 70
     1
102
RTVSPost2010Prop32
280
     0
102
RTVSPost2010PropOp32
 70
     1
102
RTVSPost2010Prop33
280
     0
102
RTVSPost2010PropOp33
 70
     1
102
RTVSPost2010Prop34
280
     0
102
RTVSPost2010PropOp34
 70
     1
102
RTVSPost2010Prop35
280
     0
102
RTVSPost2010PropOp35
 70
     1
102
RTVSPost2010Prop36
280
     0
102
RTVSPost2010PropOp36
 70
     1
102
RTVSPost2010Prop37
 90
       50
102
RTVSPost2010PropOp37
 70
     1
102
RTVSPost2010Prop38
140
0.0
102
RTVSPost2010PropOp38
 70
     1
102
RTVSPost2010Prop39
140
1.0
102
RTVSPost2010PropOp39
 70
     1
102
RTVSPost2010Prop40
 90
        0
102
RTVSPost2010PropOp40
 70
     1
102
RTVSPost2010Prop41ColorIndex
 90
       18
102
RTVSPost2010Prop41ColorRGB
 90
        0
102
RTVSPost2010PropOp41
 70
     1
102
RTVSPost2010Prop42
 90
       50
102
RTVSPost2010PropOp42
 70
     1
102
RTVSPost2010Prop43
 90
        3
102
RTVSPost2010PropOp43
 70
     1
102
RTVSPost2010Prop44ColorIndex
 90
        5
102
RTVSPost2010Prop44ColorRGB
 90
      255
102
RTVSPost2010PropOp44
 70
     1
102
RTVSPost2010Prop45
280
     0
102
RTVSPost2010PropOp45
 70
     1
102
RTVSPost2010Prop46
 90
       50
102
RTVSPost2010PropOp46
 70
     1
102
RTVSPost2010Prop47
 90
       50
102
RTVSPost2010PropOp47
 70
     1
102
RTVSPost2010Prop48
 90
       50
102
RTVSPost2010PropOp48
 70
     1
102
RTVSPost2010Prop49
280
     0
102
RTVSPost2010PropOp49
 70
     1
102
RTVSPost2010Prop50
 90
       50
102
RTVSPost2010PropOp50
 70
     1
102
RTVSPost2010Prop51ColorIndex
 90
      256
102
RTVSPost2010Prop51ColorRGB
 90
-16777216
102
RTVSPost2010PropOp51
 70
     0
102
RTVSPost2010Prop52
140
1.0
102
RTVSPost2010PropOp52
 70
     0
102
RTVSPost2010Prop53
 90
        2
102
RTVSPost2010PropOp53
 70
     1
102
RTVSPost2010Prop54
  1
strokes_ogs.tif
102
RTVSPost2010PropOp54
 70
     1
102
RTVSPost2010Prop55
280
     0
102
RTVSPost2010PropOp55
 70
     1
102
RTVSPost2010Prop56
140
1.0
102
RTVSPost2010PropOp56
 70
     1
102
RTVSPost2010Prop57
140
1.0
102
RTVSPost2010PropOp57
 70
     1
  0
XRECORD
  5
185
102
{ACAD_REACTORS
330
184
102
}
330
184
100
AcDbXrecord
280
     1
102
RTVSPost2010Prop28
280
     0
102
RTVSPost2010PropOp28
 70
     1
102
RTVSPost2010Prop29
280
     1
102
RTVSPost2010PropOp29
 70
     1
102
RTVSPost2010Prop30
280
     1
102
RTVSPost2010PropOp30
 70
     1
102
RTVSPost2010Prop31
280
     0
102
RTVSPost2010PropOp31
 70
     1
102
RTVSPost2010Prop32
280
     0
102
RTVSPost2010PropOp32
 70
     1
102
RTVSPost2010Prop33
280
     0
102
RTVSPost2010PropOp33
 70
     1
102
RTVSPost2010Prop34
280
     0
102
RTVSPost2010PropOp34
 70
     1
102
RTVSPost2010Prop35
280
     0
102
RTVSPost2010PropOp35
 70
     1
102
RTVSPost2010Prop36
280
     0
102
RTVSPost2010PropOp36
 70
     1
102
RTVSPost2010Prop37
 90
       50
102
RTVSPost2010PropOp37
 70
     1
102
RTVSPost2010Prop38
140
0.0
102
RTVSPost2010PropOp38
 70
     1
102
RTVSPost2010Prop39
140
1.0
102
RTVSPost2010PropOp39
 70
     1
102
RTVSPost2010Prop40
 90
        0
102
RTVSPost2010PropOp40
 70
     1
102
RTVSPost2010Prop41ColorIndex
 90
       18
102
RTVSPost2010Prop41ColorRGB
 90
        0
102
RTVSPost2010PropOp41
 70
     1
102
RTVSPost2010Prop42
 90
       50
102
RTVSPost2010PropOp42
 70
     1
102
RTVSPost2010Prop43
 90
        3
102
RTVSPost2010PropOp43
 70
     1
102
RTVSPost2010Prop44ColorIndex
 90
        5
102
RTVSPost2010Prop44ColorRGB
 90
      255
102
RTVSPost2010PropOp44
 70
     1
102
RTVSPost2010Prop45
280
     0
102
RTVSPost2010PropOp45
 70
     1
102
RTVSPost2010Prop46
 90
       50
102
RTVSPost2010PropOp46
 70
     1
102
RTVSPost2010Prop47
 90
       50
102
RTVSPost2010PropOp47
 70
     1
102
RTVSPost2010Prop48
 90
       50
102
RTVSPost2010PropOp48
 70
     1
102
RTVSPost2010Prop49
280
     0
102
RTVSPost2010PropOp49
 70
     1
102
RTVSPost2010Prop50
 90
       50
102
RTVSPost2010PropOp50
 70
     1
102
RTVSPost2010Prop51ColorIndex
 90
      256
102
RTVSPost2010Prop51ColorRGB
 90
-16777216
102
RTVSPost2010PropOp51
 70
     0
102
RTVSPost2010Prop52
140
1.0
102
RTVSPost2010PropOp52
 70
     0
102
RTVSPost2010Prop53
 90
        2
102
RTVSPost2010PropOp53
 70
     1
102
RTVSPost2010Prop54
  1
strokes_ogs.tif
102
RTVSPost2010PropOp54
 70
     1
102
RTVSPost2010Prop55
280
     0
102
RTVSPost2010PropOp55
 70
     1
102
RTVSPost2010Prop56
140
1.0
102
RTVSPost2010PropOp56
 70
     1
102
RTVSPost2010Prop57
140
1.0
102
RTVSPost2010PropOp57
 70
     1
  0
XRECORD
  5
18D
102
{ACAD_REACTORS
330
18C
102
}
330
18C
100
AcDbXrecord
280
     1
102
RTVSPost2010Prop28
280
     0
102
RTVSPost2010PropOp28
 70
     1
102
RTVSPost2010Prop29
280
     1
102
RTVSPost2010PropOp29
 70
     1
102
RTVSPost2010Prop30
280
     1
102
RTVSPost2010PropOp30
 70
     1
102
RTVSPost2010Prop31
280
     0
102
RTVSPost2010PropOp31
 70
     1
102
RTVSPost2010Prop32
280
     0
102
RTVSPost2010PropOp32
 70
     1
102
RTVSPost2010Prop33
280
     0
102
RTVSPost2010PropOp33
 70
     1
102
RTVSPost2010Prop34
280
     0
102
RTVSPost2010PropOp34
 70
     1
102
RTVSPost2010Prop35
280
     0
102
RTVSPost2010PropOp35
 70
     1
102
RTVSPost2010Prop36
280
     0
102
RTVSPost2010PropOp36
 70
     1
102
RTVSPost2010Prop37
 90
       50
102
RTVSPost2010PropOp37
 70
     1
102
RTVSPost2010Prop38
140
0.0
102
RTVSPost2010PropOp38
 70
     1
102
RTVSPost2010Prop39
140
1.0
102
RTVSPost2010PropOp39
 70
     1
102
RTVSPost2010Prop40
 90
        0
102
RTVSPost2010PropOp40
 70
     1
102
RTVSPost2010Prop41ColorIndex
 90
       18
102
RTVSPost2010Prop41ColorRGB
 90
        0
102
RTVSPost2010PropOp41
 70
     1
102
RTVSPost2010Prop42
 90
       50
102
RTVSPost2010PropOp42
 70
     1
102
RTVSPost2010Prop43
 90
        3
102
RTVSPost2010PropOp43
 70
     1
102
RTVSPost2010Prop44ColorIndex
 90
        5
102
RTVSPost2010Prop44ColorRGB
 90
      255
102
RTVSPost2010PropOp44
 70
     1
102
RTVSPost2010Prop45
280
     0
102
RTVSPost2010PropOp45
 70
     1
102
RTVSPost2010Prop46
 90
       50
102
RTVSPost2010PropOp46
 70
     1
102
RTVSPost2010Prop47
 90
       50
102
RTVSPost2010PropOp47
 70
     1
102
RTVSPost2010Prop48
 90
       50
102
RTVSPost2010PropOp48
 70
     1
102
RTVSPost2010Prop49
280
     0
102
RTVSPost2010PropOp49
 70
     1
102
RTVSPost2010Prop50
 90
       50
102
RTVSPost2010PropOp50
 70
     1
102
RTVSPost2010Prop51ColorIndex
 90
      256
102
RTVSPost2010Prop51ColorRGB
 90
-16777216
102
RTVSPost2010PropOp51
 70
     0
102
RTVSPost2010Prop52
140
1.0
102
RTVSPost2010PropOp52
 70
     0
102
RTVSPost2010Prop53
 90
        2
102
RTVSPost2010PropOp53
 70
     1
102
RTVSPost2010Prop54
  1
strokes_ogs.tif
102
RTVSPost2010PropOp54
 70
     1
102
RTVSPost2010Prop55
280
     0
102
RTVSPost2010PropOp55
 70
     1
102
RTVSPost2010Prop56
140
1.0
102
RTVSPost2010PropOp56
 70
     1
102
RTVSPost2010Prop57
140
1.0
102
RTVSPost2010PropOp57
 70
     1
  0
XRECORD
  5
1A9
102
{ACAD_REACTORS
330
1A8
102
}
330
1A8
100
AcDbXrecord
280
     1
102
RTVSPost2010Prop28
280
     0
102
RTVSPost2010PropOp28
 70
     0
102
RTVSPost2010Prop29
280
     1
102
RTVSPost2010PropOp29
 70
     0
102
RTVSPost2010Prop30
280
     1
102
RTVSPost2010PropOp30
 70
     0
102
RTVSPost2010Prop31
280
     0
102
RTVSPost2010PropOp31
 70
     0
102
RTVSPost2010Prop32
280
     0
102
RTVSPost2010PropOp32
 70
     0
102
RTVSPost2010Prop33
280
     0
102
RTVSPost2010PropOp33
 70
     0
102
RTVSPost2010Prop34
280
     0
102
RTVSPost2010PropOp34
 70
     0
102
RTVSPost2010Prop35
280
     0
102
RTVSPost2010PropOp35
 70
     0
102
RTVSPost2010Prop36
280
     0
102
RTVSPost2010PropOp36
 70
     0
102
RTVSPost2010Prop37
 90
       50
102
RTVSPost2010PropOp37
 70
     0
102
RTVSPost2010Prop38
140
0.0
102
RTVSPost2010PropOp38
 70
     0
102
RTVSPost2010Prop39
140
1.0
102
RTVSPost2010PropOp39
 70
     0
102
RTVSPost2010Prop40
 90
        0
102
RTVSPost2010PropOp40
 70
     0
102
RTVSPost2010Prop41ColorIndex
 90
       18
102
RTVSPost2010Prop41ColorRGB
 90
        0
102
RTVSPost2010PropOp41
 70
     0
102
RTVSPost2010Prop42
 90
       50
102
RTVSPost2010PropOp42
 70
     0
102
RTVSPost2010Prop43
 90
        3
102
RTVSPost2010PropOp43
 70
     0
102
RTVSPost2010Prop44ColorIndex
 90
        5
102
RTVSPost2010Prop44ColorRGB
 90
      255
102
RTVSPost2010PropOp44
 70
     0
102
RTVSPost2010Prop45
280
     0
102
RTVSPost2010PropOp45
 70
     0
102
RTVSPost2010Prop46
 90
       50
102
RTVSPost2010PropOp46
 70
     0
102
RTVSPost2010Prop47
 90
       50
102
RTVSPost2010PropOp47
 70
     0
102
RTVSPost2010Prop48
 90
       50
102
RTVSPost2010PropOp48
 70
     0
102
RTVSPost2010Prop49
280
     0
102
RTVSPost2010PropOp49
 70
     0
102
RTVSPost2010Prop50
 90
       50
102
RTVSPost2010PropOp50
 70
     0
102
RTVSPost2010Prop51ColorIndex
 90
      256
102
RTVSPost2010Prop51ColorRGB
 90
-16777216
102
RTVSPost2010PropOp51
 70
     0
102
RTVSPost2010Prop52
140
1.0
102
RTVSPost2010PropOp52
 70
     0
102
RTVSPost2010Prop53
 90
        2
102
RTVSPost2010PropOp53
 70
     0
102
RTVSPost2010Prop54
  1
strokes_ogs.tif
102
RTVSPost2010PropOp54
 70
     0
102
RTVSPost2010Prop55
280
     0
102
RTVSPost2010PropOp55
 70
     0
102
RTVSPost2010Prop56
140
1.0
102
RTVSPost2010PropOp56
 70
     0
102
RTVSPost2010Prop57
140
1.0
102
RTVSPost2010PropOp57
 70
     0
  0
XRECORD
  5
199
102
{ACAD_REACTORS
330
198
102
}
330
198
100
AcDbXrecord
280
     1
102
RTVSPost2010Prop28
280
     0
102
RTVSPost2010PropOp28
 70
     1
102
RTVSPost2010Prop29
280
     1
102
RTVSPost2010PropOp29
 70
     1
102
RTVSPost2010Prop30
280
     1
102
RTVSPost2010PropOp30
 70
     1
102
RTVSPost2010Prop31
280
     0
102
RTVSPost2010PropOp31
 70
     1
102
RTVSPost2010Prop32
280
     0
102
RTVSPost2010PropOp32
 70
     1
102
RTVSPost2010Prop33
280
     0
102
RTVSPost2010PropOp33
 70
     1
102
RTVSPost2010Prop34
280
     0
102
RTVSPost2010PropOp34
 70
     1
102
RTVSPost2010Prop35
280
     0
102
RTVSPost2010PropOp35
 70
     1
102
RTVSPost2010Prop36
280
     0
102
RTVSPost2010PropOp36
 70
     1
102
RTVSPost2010Prop37
 90
       50
102
RTVSPost2010PropOp37
 70
     1
102
RTVSPost2010Prop38
140
0.0
102
RTVSPost2010PropOp38
 70
     1
102
RTVSPost2010Prop39
140
1.0
102
RTVSPost2010PropOp39
 70
     1
102
RTVSPost2010Prop40
 90
        0
102
RTVSPost2010PropOp40
 70
     1
102
RTVSPost2010Prop41ColorIndex
 90
       18
102
RTVSPost2010Prop41ColorRGB
 90
        0
102
RTVSPost2010PropOp41
 70
     1
102
RTVSPost2010Prop42
 90
       50
102
RTVSPost2010PropOp42
 70
     1
102
RTVSPost2010Prop43
 90
        3
102
RTVSPost2010PropOp43
 70
     1
102
RTVSPost2010Prop44ColorIndex
 90
        5
102
RTVSPost2010Prop44ColorRGB
 90
      255
102
RTVSPost2010PropOp44
 70
     1
102
RTVSPost2010Prop45
280
     0
102
RTVSPost2010PropOp45
 70
     1
102
RTVSPost2010Prop46
 90
       50
102
RTVSPost2010PropOp46
 70
     1
102
RTVSPost2010Prop47
 90
       50
102
RTVSPost2010PropOp47
 70
     1
102
RTVSPost2010Prop48
 90
       50
102
RTVSPost2010PropOp48
 70
     1
102
RTVSPost2010Prop49
280
     0
102
RTVSPost2010PropOp49
 70
     1
102
RTVSPost2010Prop50
 90
       50
102
RTVSPost2010PropOp50
 70
     1
102
RTVSPost2010Prop51ColorIndex
 90
      256
102
RTVSPost2010Prop51ColorRGB
 90
-16777216
102
RTVSPost2010PropOp51
 70
     0
102
RTVSPost2010Prop52
140
1.0
102
RTVSPost2010PropOp52
 70
     0
102
RTVSPost2010Prop53
 90
        2
102
RTVSPost2010PropOp53
 70
     1
102
RTVSPost2010Prop54
  1
strokes_ogs.tif
102
RTVSPost2010PropOp54
 70
     1
102
RTVSPost2010Prop55
280
     0
102
RTVSPost2010PropOp55
 70
     1
102
RTVSPost2010Prop56
140
1.0
102
RTVSPost2010PropOp56
 70
     1
102
RTVSPost2010Prop57
140
1.0
102
RTVSPost2010PropOp57
 70
     1
  0
XRECORD
  5
1AB
102
{ACAD_REACTORS
330
1AA
102
}
330
1AA
100
AcDbXrecord
280
     1
102
RTVSPost2010Prop28
280
     0
102
RTVSPost2010PropOp28
 70
     0
102
RTVSPost2010Prop29
280
     1
102
RTVSPost2010PropOp29
 70
     0
102
RTVSPost2010Prop30
280
     1
102
RTVSPost2010PropOp30
 70
     0
102
RTVSPost2010Prop31
280
     0
102
RTVSPost2010PropOp31
 70
     0
102
RTVSPost2010Prop32
280
     0
102
RTVSPost2010PropOp32
 70
     0
102
RTVSPost2010Prop33
280
     0
102
RTVSPost2010PropOp33
 70
     0
102
RTVSPost2010Prop34
280
     0
102
RTVSPost2010PropOp34
 70
     0
102
RTVSPost2010Prop35
280
     0
102
RTVSPost2010PropOp35
 70
     0
102
RTVSPost2010Prop36
280
     0
102
RTVSPost2010PropOp36
 70
     0
102
RTVSPost2010Prop37
 90
       50
102
RTVSPost2010PropOp37
 70
     0
102
RTVSPost2010Prop38
140
0.0
102
RTVSPost2010PropOp38
 70
     0
102
RTVSPost2010Prop39
140
1.0
102
RTVSPost2010PropOp39
 70
     0
102
RTVSPost2010Prop40
 90
        0
102
RTVSPost2010PropOp40
 70
     0
102
RTVSPost2010Prop41ColorIndex
 90
       18
102
RTVSPost2010Prop41ColorRGB
 90
        0
102
RTVSPost2010PropOp41
 70
     0
102
RTVSPost2010Prop42
 90
       50
102
RTVSPost2010PropOp42
 70
     0
102
RTVSPost2010Prop43
 90
        3
102
RTVSPost2010PropOp43
 70
     0
102
RTVSPost2010Prop44ColorIndex
 90
        5
102
RTVSPost2010Prop44ColorRGB
 90
      255
102
RTVSPost2010PropOp44
 70
     0
102
RTVSPost2010Prop45
280
     0
102
RTVSPost2010PropOp45
 70
     0
102
RTVSPost2010Prop46
 90
       50
102
RTVSPost2010PropOp46
 70
     0
102
RTVSPost2010Prop47
 90
       50
102
RTVSPost2010PropOp47
 70
     0
102
RTVSPost2010Prop48
 90
       50
102
RTVSPost2010PropOp48
 70
     0
102
RTVSPost2010Prop49
280
     0
102
RTVSPost2010PropOp49
 70
     0
102
RTVSPost2010Prop50
 90
       50
102
RTVSPost2010PropOp50
 70
     0
102
RTVSPost2010Prop51ColorIndex
 90
      256
102
RTVSPost2010Prop51ColorRGB
 90
-16777216
102
RTVSPost2010PropOp51
 70
     0
102
RTVSPost2010Prop52
140
1.0
102
RTVSPost2010PropOp52
 70
     0
102
RTVSPost2010Prop53
 90
        2
102
RTVSPost2010PropOp53
 70
     0
102
RTVSPost2010Prop54
  1
strokes_ogs.tif
102
RTVSPost2010PropOp54
 70
     0
102
RTVSPost2010Prop55
280
     0
102
RTVSPost2010PropOp55
 70
     0
102
RTVSPost2010Prop56
140
1.0
102
RTVSPost2010PropOp56
 70
     0
102
RTVSPost2010Prop57
140
1.0
102
RTVSPost2010PropOp57
 70
     0
  0
XRECORD
  5
191
102
{ACAD_REACTORS
330
190
102
}
330
190
100
AcDbXrecord
280
     1
102
RTVSPost2010Prop28
280
     0
102
RTVSPost2010PropOp28
 70
     1
102
RTVSPost2010Prop29
280
     1
102
RTVSPost2010PropOp29
 70
     1
102
RTVSPost2010Prop30
280
     1
102
RTVSPost2010PropOp30
 70
     1
102
RTVSPost2010Prop31
280
     0
102
RTVSPost2010PropOp31
 70
     1
102
RTVSPost2010Prop32
280
     0
102
RTVSPost2010PropOp32
 70
     1
102
RTVSPost2010Prop33
280
     0
102
RTVSPost2010PropOp33
 70
     1
102
RTVSPost2010Prop34
280
     0
102
RTVSPost2010PropOp34
 70
     1
102
RTVSPost2010Prop35
280
     0
102
RTVSPost2010PropOp35
 70
     1
102
RTVSPost2010Prop36
280
     0
102
RTVSPost2010PropOp36
 70
     1
102
RTVSPost2010Prop37
 90
       50
102
RTVSPost2010PropOp37
 70
     1
102
RTVSPost2010Prop38
140
0.0
102
RTVSPost2010PropOp38
 70
     1
102
RTVSPost2010Prop39
140
1.0
102
RTVSPost2010PropOp39
 70
     1
102
RTVSPost2010Prop40
 90
        0
102
RTVSPost2010PropOp40
 70
     1
102
RTVSPost2010Prop41ColorIndex
 90
       18
102
RTVSPost2010Prop41ColorRGB
 90
        0
102
RTVSPost2010PropOp41
 70
     1
102
RTVSPost2010Prop42
 90
       50
102
RTVSPost2010PropOp42
 70
     1
102
RTVSPost2010Prop43
 90
        3
102
RTVSPost2010PropOp43
 70
     1
102
RTVSPost2010Prop44ColorIndex
 90
        5
102
RTVSPost2010Prop44ColorRGB
 90
      255
102
RTVSPost2010PropOp44
 70
     1
102
RTVSPost2010Prop45
280
     0
102
RTVSPost2010PropOp45
 70
     1
102
RTVSPost2010Prop46
 90
       50
102
RTVSPost2010PropOp46
 70
     1
102
RTVSPost2010Prop47
 90
       50
102
RTVSPost2010PropOp47
 70
     1
102
RTVSPost2010Prop48
 90
       50
102
RTVSPost2010PropOp48
 70
     1
102
RTVSPost2010Prop49
280
     0
102
RTVSPost2010PropOp49
 70
     1
102
RTVSPost2010Prop50
 90
       50
102
RTVSPost2010PropOp50
 70
     1
102
RTVSPost2010Prop51ColorIndex
 90
      256
102
RTVSPost2010Prop51ColorRGB
 90
-16777216
102
RTVSPost2010PropOp51
 70
     0
102
RTVSPost2010Prop52
140
1.0
102
RTVSPost2010PropOp52
 70
     0
102
RTVSPost2010Prop53
 90
        2
102
RTVSPost2010PropOp53
 70
     1
102
RTVSPost2010Prop54
  1
strokes_ogs.tif
102
RTVSPost2010PropOp54
 70
     1
102
RTVSPost2010Prop55
280
     0
102
RTVSPost2010PropOp55
 70
     1
102
RTVSPost2010Prop56
140
1.0
102
RTVSPost2010PropOp56
 70
     1
102
RTVSPost2010Prop57
140
1.0
102
RTVSPost2010PropOp57
 70
     1
  0
XRECORD
  5
1A7
102
{ACAD_REACTORS
330
1A6
102
}
330
1A6
100
AcDbXrecord
280
     1
102
RTVSPost2010Prop28
280
     0
102
RTVSPost2010PropOp28
 70
     1
102
RTVSPost2010Prop29
280
     1
102
RTVSPost2010PropOp29
 70
     1
102
RTVSPost2010Prop30
280
     1
102
RTVSPost2010PropOp30
 70
     1
102
RTVSPost2010Prop31
280
     0
102
RTVSPost2010PropOp31
 70
     1
102
RTVSPost2010Prop32
280
     0
102
RTVSPost2010PropOp32
 70
     1
102
RTVSPost2010Prop33
280
     0
102
RTVSPost2010PropOp33
 70
     1
102
RTVSPost2010Prop34
280
     0
102
RTVSPost2010PropOp34
 70
     1
102
RTVSPost2010Prop35
280
     0
102
RTVSPost2010PropOp35
 70
     1
102
RTVSPost2010Prop36
280
     0
102
RTVSPost2010PropOp36
 70
     1
102
RTVSPost2010Prop37
 90
       50
102
RTVSPost2010PropOp37
 70
     1
102
RTVSPost2010Prop38
140
0.0
102
RTVSPost2010PropOp38
 70
     1
102
RTVSPost2010Prop39
140
1.0
102
RTVSPost2010PropOp39
 70
     1
102
RTVSPost2010Prop40
 90
        0
102
RTVSPost2010PropOp40
 70
     1
102
RTVSPost2010Prop41ColorIndex
 90
       18
102
RTVSPost2010Prop41ColorRGB
 90
        0
102
RTVSPost2010PropOp41
 70
     1
102
RTVSPost2010Prop42
 90
       50
102
RTVSPost2010PropOp42
 70
     1
102
RTVSPost2010Prop43
 90
        3
102
RTVSPost2010PropOp43
 70
     1
102
RTVSPost2010Prop44ColorIndex
 90
        5
102
RTVSPost2010Prop44ColorRGB
 90
      255
102
RTVSPost2010PropOp44
 70
     1
102
RTVSPost2010Prop45
280
     0
102
RTVSPost2010PropOp45
 70
     1
102
RTVSPost2010Prop46
 90
       50
102
RTVSPost2010PropOp46
 70
     1
102
RTVSPost2010Prop47
 90
       50
102
RTVSPost2010PropOp47
 70
     1
102
RTVSPost2010Prop48
 90
       50
102
RTVSPost2010PropOp48
 70
     1
102
RTVSPost2010Prop49
280
     0
102
RTVSPost2010PropOp49
 70
     1
102
RTVSPost2010Prop50
 90
       50
102
RTVSPost2010PropOp50
 70
     1
102
RTVSPost2010Prop51ColorIndex
 90
      256
102
RTVSPost2010Prop51ColorRGB
 90
-16777216
102
RTVSPost2010PropOp51
 70
     0
102
RTVSPost2010Prop52
140
1.0
102
RTVSPost2010PropOp52
 70
     0
102
RTVSPost2010Prop53
 90
        2
102
RTVSPost2010PropOp53
 70
     1
102
RTVSPost2010Prop54
  1
strokes_ogs.tif
102
RTVSPost2010PropOp54
 70
     1
102
RTVSPost2010Prop55
280
     0
102
RTVSPost2010PropOp55
 70
     1
102
RTVSPost2010Prop56
140
1.0
102
RTVSPost2010PropOp56
 70
     1
102
RTVSPost2010Prop57
140
1.0
102
RTVSPost2010PropOp57
 70
     1
  0
XRECORD
  5
1A5
102
{ACAD_REACTORS
330
1A4
102
}
330
1A4
100
AcDbXrecord
280
     1
102
RTVSPost2010Prop28
280
     0
102
RTVSPost2010PropOp28
 70
     1
102
RTVSPost2010Prop29
280
     1
102
RTVSPost2010PropOp29
 70
     1
102
RTVSPost2010Prop30
280
     1
102
RTVSPost2010PropOp30
 70
     1
102
RTVSPost2010Prop31
280
     0
102
RTVSPost2010PropOp31
 70
     1
102
RTVSPost2010Prop32
280
     0
102
RTVSPost2010PropOp32
 70
     1
102
RTVSPost2010Prop33
280
     0
102
RTVSPost2010PropOp33
 70
     1
102
RTVSPost2010Prop34
280
     0
102
RTVSPost2010PropOp34
 70
     1
102
RTVSPost2010Prop35
280
     0
102
RTVSPost2010PropOp35
 70
     1
102
RTVSPost2010Prop36
280
     0
102
RTVSPost2010PropOp36
 70
     1
102
RTVSPost2010Prop37
 90
       50
102
RTVSPost2010PropOp37
 70
     1
102
RTVSPost2010Prop38
140
0.0
102
RTVSPost2010PropOp38
 70
     1
102
RTVSPost2010Prop39
140
1.0
102
RTVSPost2010PropOp39
 70
     1
102
RTVSPost2010Prop40
 90
        0
102
RTVSPost2010PropOp40
 70
     1
102
RTVSPost2010Prop41ColorIndex
 90
       18
102
RTVSPost2010Prop41ColorRGB
 90
        0
102
RTVSPost2010PropOp41
 70
     1
102
RTVSPost2010Prop42
 90
       50
102
RTVSPost2010PropOp42
 70
     1
102
RTVSPost2010Prop43
 90
        3
102
RTVSPost2010PropOp43
 70
     1
102
RTVSPost2010Prop44ColorIndex
 90
        5
102
RTVSPost2010Prop44ColorRGB
 90
      255
102
RTVSPost2010PropOp44
 70
     1
102
RTVSPost2010Prop45
280
     0
102
RTVSPost2010PropOp45
 70
     1
102
RTVSPost2010Prop46
 90
       50
102
RTVSPost2010PropOp46
 70
     1
102
RTVSPost2010Prop47
 90
       50
102
RTVSPost2010PropOp47
 70
     1
102
RTVSPost2010Prop48
 90
       50
102
RTVSPost2010PropOp48
 70
     1
102
RTVSPost2010Prop49
280
     0
102
RTVSPost2010PropOp49
 70
     1
102
RTVSPost2010Prop50
 90
       50
102
RTVSPost2010PropOp50
 70
     1
102
RTVSPost2010Prop51ColorIndex
 90
      256
102
RTVSPost2010Prop51ColorRGB
 90
-16777216
102
RTVSPost2010PropOp51
 70
     0
102
RTVSPost2010Prop52
140
1.0
102
RTVSPost2010PropOp52
 70
     0
102
RTVSPost2010Prop53
 90
        2
102
RTVSPost2010PropOp53
 70
     1
102
RTVSPost2010Prop54
  1
strokes_ogs.tif
102
RTVSPost2010PropOp54
 70
     1
102
RTVSPost2010Prop55
280
     0
102
RTVSPost2010PropOp55
 70
     1
102
RTVSPost2010Prop56
140
1.0
102
RTVSPost2010PropOp56
 70
     1
102
RTVSPost2010Prop57
140
1.0
102
RTVSPost2010PropOp57
 70
     1
  0
XRECORD
  5
19F
102
{ACAD_REACTORS
330
19E
102
}
330
19E
100
AcDbXrecord
280
     1
102
RTVSPost2010Prop28
280
     0
102
RTVSPost2010PropOp28
 70
     1
102
RTVSPost2010Prop29
280
     1
102
RTVSPost2010PropOp29
 70
     1
102
RTVSPost2010Prop30
280
     1
102
RTVSPost2010PropOp30
 70
     1
102
RTVSPost2010Prop31
280
     0
102
RTVSPost2010PropOp31
 70
     1
102
RTVSPost2010Prop32
280
     0
102
RTVSPost2010PropOp32
 70
     1
102
RTVSPost2010Prop33
280
     0
102
RTVSPost2010PropOp33
 70
     1
102
RTVSPost2010Prop34
280
     0
102
RTVSPost2010PropOp34
 70
     1
102
RTVSPost2010Prop35
280
     0
102
RTVSPost2010PropOp35
 70
     1
102
RTVSPost2010Prop36
280
     0
102
RTVSPost2010PropOp36
 70
     1
102
RTVSPost2010Prop37
 90
       50
102
RTVSPost2010PropOp37
 70
     1
102
RTVSPost2010Prop38
140
0.0
102
RTVSPost2010PropOp38
 70
     1
102
RTVSPost2010Prop39
140
1.0
102
RTVSPost2010PropOp39
 70
     1
102
RTVSPost2010Prop40
 90
        0
102
RTVSPost2010PropOp40
 70
     1
102
RTVSPost2010Prop41ColorIndex
 90
       18
102
RTVSPost2010Prop41ColorRGB
 90
        0
102
RTVSPost2010PropOp41
 70
     1
102
RTVSPost2010Prop42
 90
       50
102
RTVSPost2010PropOp42
 70
     1
102
RTVSPost2010Prop43
 90
        3
102
RTVSPost2010PropOp43
 70
     1
102
RTVSPost2010Prop44ColorIndex
 90
        5
102
RTVSPost2010Prop44ColorRGB
 90
      255
102
RTVSPost2010PropOp44
 70
     1
102
RTVSPost2010Prop45
280
     0
102
RTVSPost2010PropOp45
 70
     1
102
RTVSPost2010Prop46
 90
       50
102
RTVSPost2010PropOp46
 70
     1
102
RTVSPost2010Prop47
 90
       50
102
RTVSPost2010PropOp47
 70
     1
102
RTVSPost2010Prop48
 90
       50
102
RTVSPost2010PropOp48
 70
     1
102
RTVSPost2010Prop49
280
     0
102
RTVSPost2010PropOp49
 70
     1
102
RTVSPost2010Prop50
 90
       50
102
RTVSPost2010PropOp50
 70
     1
102
RTVSPost2010Prop51ColorIndex
 90
      256
102
RTVSPost2010Prop51ColorRGB
 90
-16777216
102
RTVSPost2010PropOp51
 70
     0
102
RTVSPost2010Prop52
140
1.0
102
RTVSPost2010PropOp52
 70
     0
102
RTVSPost2010Prop53
 90
        2
102
RTVSPost2010PropOp53
 70
     1
102
RTVSPost2010Prop54
  1
strokes_ogs.tif
102
RTVSPost2010PropOp54
 70
     1
102
RTVSPost2010Prop55
280
     0
102
RTVSPost2010PropOp55
 70
     1
102
RTVSPost2010Prop56
140
1.0
102
RTVSPost2010PropOp56
 70
     1
102
RTVSPost2010Prop57
140
1.0
102
RTVSPost2010PropOp57
 70
     1
  0
XRECORD
  5
1A1
102
{ACAD_REACTORS
330
1A0
102
}
330
1A0
100
AcDbXrecord
280
     1
102
RTVSPost2010Prop28
280
     0
102
RTVSPost2010PropOp28
 70
     1
102
RTVSPost2010Prop29
280
     1
102
RTVSPost2010PropOp29
 70
     1
102
RTVSPost2010Prop30
280
     1
102
RTVSPost2010PropOp30
 70
     1
102
RTVSPost2010Prop31
280
     0
102
RTVSPost2010PropOp31
 70
     1
102
RTVSPost2010Prop32
280
     0
102
RTVSPost2010PropOp32
 70
     1
102
RTVSPost2010Prop33
280
     0
102
RTVSPost2010PropOp33
 70
     1
102
RTVSPost2010Prop34
280
     0
102
RTVSPost2010PropOp34
 70
     1
102
RTVSPost2010Prop35
280
     0
102
RTVSPost2010PropOp35
 70
     1
102
RTVSPost2010Prop36
280
     0
102
RTVSPost2010PropOp36
 70
     1
102
RTVSPost2010Prop37
 90
       50
102
RTVSPost2010PropOp37
 70
     1
102
RTVSPost2010Prop38
140
0.0
102
RTVSPost2010PropOp38
 70
     1
102
RTVSPost2010Prop39
140
1.0
102
RTVSPost2010PropOp39
 70
     1
102
RTVSPost2010Prop40
 90
        0
102
RTVSPost2010PropOp40
 70
     1
102
RTVSPost2010Prop41ColorIndex
 90
       18
102
RTVSPost2010Prop41ColorRGB
 90
        0
102
RTVSPost2010PropOp41
 70
     1
102
RTVSPost2010Prop42
 90
       50
102
RTVSPost2010PropOp42
 70
     1
102
RTVSPost2010Prop43
 90
        3
102
RTVSPost2010PropOp43
 70
     1
102
RTVSPost2010Prop44ColorIndex
 90
        5
102
RTVSPost2010Prop44ColorRGB
 90
      255
102
RTVSPost2010PropOp44
 70
     1
102
RTVSPost2010Prop45
280
     0
102
RTVSPost2010PropOp45
 70
     1
102
RTVSPost2010Prop46
 90
       50
102
RTVSPost2010PropOp46
 70
     1
102
RTVSPost2010Prop47
 90
       50
102
RTVSPost2010PropOp47
 70
     1
102
RTVSPost2010Prop48
 90
       50
102
RTVSPost2010PropOp48
 70
     1
102
RTVSPost2010Prop49
280
     0
102
RTVSPost2010PropOp49
 70
     1
102
RTVSPost2010Prop50
 90
       50
102
RTVSPost2010PropOp50
 70
     1
102
RTVSPost2010Prop51ColorIndex
 90
      256
102
RTVSPost2010Prop51ColorRGB
 90
-16777216
102
RTVSPost2010PropOp51
 70
     0
102
RTVSPost2010Prop52
140
1.0
102
RTVSPost2010PropOp52
 70
     0
102
RTVSPost2010Prop53
 90
        2
102
RTVSPost2010PropOp53
 70
     1
102
RTVSPost2010Prop54
  1
strokes_ogs.tif
102
RTVSPost2010PropOp54
 70
     1
102
RTVSPost2010Prop55
280
     0
102
RTVSPost2010PropOp55
 70
     1
102
RTVSPost2010Prop56
140
1.0
102
RTVSPost2010PropOp56
 70
     1
102
RTVSPost2010Prop57
140
1.0
102
RTVSPost2010PropOp57
 70
     1
  0
XRECORD
  5
197
102
{ACAD_REACTORS
330
196
102
}
330
196
100
AcDbXrecord
280
     1
102
RTVSPost2010Prop28
280
     0
102
RTVSPost2010PropOp28
 70
     1
102
RTVSPost2010Prop29
280
     1
102
RTVSPost2010PropOp29
 70
     1
102
RTVSPost2010Prop30
280
     1
102
RTVSPost2010PropOp30
 70
     1
102
RTVSPost2010Prop31
280
     0
102
RTVSPost2010PropOp31
 70
     1
102
RTVSPost2010Prop32
280
     0
102
RTVSPost2010PropOp32
 70
     1
102
RTVSPost2010Prop33
280
     0
102
RTVSPost2010PropOp33
 70
     1
102
RTVSPost2010Prop34
280
     0
102
RTVSPost2010PropOp34
 70
     1
102
RTVSPost2010Prop35
280
     0
102
RTVSPost2010PropOp35
 70
     1
102
RTVSPost2010Prop36
280
     0
102
RTVSPost2010PropOp36
 70
     1
102
RTVSPost2010Prop37
 90
       50
102
RTVSPost2010PropOp37
 70
     1
102
RTVSPost2010Prop38
140
0.0
102
RTVSPost2010PropOp38
 70
     1
102
RTVSPost2010Prop39
140
1.0
102
RTVSPost2010PropOp39
 70
     1
102
RTVSPost2010Prop40
 90
        0
102
RTVSPost2010PropOp40
 70
     1
102
RTVSPost2010Prop41ColorIndex
 90
       18
102
RTVSPost2010Prop41ColorRGB
 90
        0
102
RTVSPost2010PropOp41
 70
     1
102
RTVSPost2010Prop42
 90
       50
102
RTVSPost2010PropOp42
 70
     1
102
RTVSPost2010Prop43
 90
        3
102
RTVSPost2010PropOp43
 70
     1
102
RTVSPost2010Prop44ColorIndex
 90
        5
102
RTVSPost2010Prop44ColorRGB
 90
      255
102
RTVSPost2010PropOp44
 70
     1
102
RTVSPost2010Prop45
280
     0
102
RTVSPost2010PropOp45
 70
     1
102
RTVSPost2010Prop46
 90
       50
102
RTVSPost2010PropOp46
 70
     1
102
RTVSPost2010Prop47
 90
       50
102
RTVSPost2010PropOp47
 70
     1
102
RTVSPost2010Prop48
 90
       50
102
RTVSPost2010PropOp48
 70
     1
102
RTVSPost2010Prop49
280
     0
102
RTVSPost2010PropOp49
 70
     1
102
RTVSPost2010Prop50
 90
       50
102
RTVSPost2010PropOp50
 70
     1
102
RTVSPost2010Prop51ColorIndex
 90
      256
102
RTVSPost2010Prop51ColorRGB
 90
-16777216
102
RTVSPost2010PropOp51
 70
     0
102
RTVSPost2010Prop52
140
1.0
102
RTVSPost2010PropOp52
 70
     0
102
RTVSPost2010Prop53
 90
        2
102
RTVSPost2010PropOp53
 70
     1
102
RTVSPost2010Prop54
  1
strokes_ogs.tif
102
RTVSPost2010PropOp54
 70
     1
102
RTVSPost2010Prop55
280
     0
102
RTVSPost2010PropOp55
 70
     1
102
RTVSPost2010Prop56
140
1.0
102
RTVSPost2010PropOp56
 70
     1
102
RTVSPost2010Prop57
140
1.0
102
RTVSPost2010PropOp57
 70
     1
  0
XRECORD
  5
18B
102
{ACAD_REACTORS
330
18A
102
}
330
18A
100
AcDbXrecord
280
     1
102
RTVSPost2010Prop28
280
     0
102
RTVSPost2010PropOp28
 70
     1
102
RTVSPost2010Prop29
280
     1
102
RTVSPost2010PropOp29
 70
     1
102
RTVSPost2010Prop30
280
     1
102
RTVSPost2010PropOp30
 70
     1
102
RTVSPost2010Prop31
280
     0
102
RTVSPost2010PropOp31
 70
     1
102
RTVSPost2010Prop32
280
     0
102
RTVSPost2010PropOp32
 70
     1
102
RTVSPost2010Prop33
280
     0
102
RTVSPost2010PropOp33
 70
     1
102
RTVSPost2010Prop34
280
     0
102
RTVSPost2010PropOp34
 70
     1
102
RTVSPost2010Prop35
280
     0
102
RTVSPost2010PropOp35
 70
     1
102
RTVSPost2010Prop36
280
     0
102
RTVSPost2010PropOp36
 70
     1
102
RTVSPost2010Prop37
 90
       50
102
RTVSPost2010PropOp37
 70
     1
102
RTVSPost2010Prop38
140
0.0
102
RTVSPost2010PropOp38
 70
     1
102
RTVSPost2010Prop39
140
1.0
102
RTVSPost2010PropOp39
 70
     1
102
RTVSPost2010Prop40
 90
        0
102
RTVSPost2010PropOp40
 70
     1
102
RTVSPost2010Prop41ColorIndex
 90
       18
102
RTVSPost2010Prop41ColorRGB
 90
        0
102
RTVSPost2010PropOp41
 70
     1
102
RTVSPost2010Prop42
 90
       50
102
RTVSPost2010PropOp42
 70
     1
102
RTVSPost2010Prop43
 90
        3
102
RTVSPost2010PropOp43
 70
     1
102
RTVSPost2010Prop44ColorIndex
 90
        5
102
RTVSPost2010Prop44ColorRGB
 90
      255
102
RTVSPost2010PropOp44
 70
     1
102
RTVSPost2010Prop45
280
     0
102
RTVSPost2010PropOp45
 70
     1
102
RTVSPost2010Prop46
 90
       50
102
RTVSPost2010PropOp46
 70
     1
102
RTVSPost2010Prop47
 90
       50
102
RTVSPost2010PropOp47
 70
     1
102
RTVSPost2010Prop48
 90
       50
102
RTVSPost2010PropOp48
 70
     1
102
RTVSPost2010Prop49
280
     0
102
RTVSPost2010PropOp49
 70
     1
102
RTVSPost2010Prop50
 90
       50
102
RTVSPost2010PropOp50
 70
     1
102
RTVSPost2010Prop51ColorIndex
 90
      256
102
RTVSPost2010Prop51ColorRGB
 90
-16777216
102
RTVSPost2010PropOp51
 70
     0
102
RTVSPost2010Prop52
140
1.0
102
RTVSPost2010PropOp52
 70
     0
102
RTVSPost2010Prop53
 90
        2
102
RTVSPost2010PropOp53
 70
     1
102
RTVSPost2010Prop54
  1
strokes_ogs.tif
102
RTVSPost2010PropOp54
 70
     1
102
RTVSPost2010Prop55
280
     0
102
RTVSPost2010PropOp55
 70
     1
102
RTVSPost2010Prop56
140
1.0
102
RTVSPost2010PropOp56
 70
     1
102
RTVSPost2010Prop57
140
1.0
102
RTVSPost2010PropOp57
 70
     1
  0
XRECORD
  5
1A3
102
{ACAD_REACTORS
330
1A2
102
}
330
1A2
100
AcDbXrecord
280
     1
102
RTVSPost2010Prop28
280
     0
102
RTVSPost2010PropOp28
 70
     1
102
RTVSPost2010Prop29
280
     1
102
RTVSPost2010PropOp29
 70
     1
102
RTVSPost2010Prop30
280
     1
102
RTVSPost2010PropOp30
 70
     1
102
RTVSPost2010Prop31
280
     0
102
RTVSPost2010PropOp31
 70
     1
102
RTVSPost2010Prop32
280
     0
102
RTVSPost2010PropOp32
 70
     1
102
RTVSPost2010Prop33
280
     0
102
RTVSPost2010PropOp33
 70
     1
102
RTVSPost2010Prop34
280
     0
102
RTVSPost2010PropOp34
 70
     1
102
RTVSPost2010Prop35
280
     0
102
RTVSPost2010PropOp35
 70
     1
102
RTVSPost2010Prop36
280
     0
102
RTVSPost2010PropOp36
 70
     1
102
RTVSPost2010Prop37
 90
       50
102
RTVSPost2010PropOp37
 70
     1
102
RTVSPost2010Prop38
140
0.0
102
RTVSPost2010PropOp38
 70
     1
102
RTVSPost2010Prop39
140
1.0
102
RTVSPost2010PropOp39
 70
     1
102
RTVSPost2010Prop40
 90
        0
102
RTVSPost2010PropOp40
 70
     1
102
RTVSPost2010Prop41ColorIndex
 90
       18
102
RTVSPost2010Prop41ColorRGB
 90
        0
102
RTVSPost2010PropOp41
 70
     1
102
RTVSPost2010Prop42
 90
       50
102
RTVSPost2010PropOp42
 70
     1
102
RTVSPost2010Prop43
 90
        3
102
RTVSPost2010PropOp43
 70
     1
102
RTVSPost2010Prop44ColorIndex
 90
        5
102
RTVSPost2010Prop44ColorRGB
 90
      255
102
RTVSPost2010PropOp44
 70
     1
102
RTVSPost2010Prop45
280
     0
102
RTVSPost2010PropOp45
 70
     1
102
RTVSPost2010Prop46
 90
       50
102
RTVSPost2010PropOp46
 70
     1
102
RTVSPost2010Prop47
 90
       50
102
RTVSPost2010PropOp47
 70
     1
102
RTVSPost2010Prop48
 90
       50
102
RTVSPost2010PropOp48
 70
     1
102
RTVSPost2010Prop49
280
     0
102
RTVSPost2010PropOp49
 70
     1
102
RTVSPost2010Prop50
 90
       50
102
RTVSPost2010PropOp50
 70
     1
102
RTVSPost2010Prop51ColorIndex
 90
      256
102
RTVSPost2010Prop51ColorRGB
 90
-16777216
102
RTVSPost2010PropOp51
 70
     0
102
RTVSPost2010Prop52
140
1.0
102
RTVSPost2010PropOp52
 70
     0
102
RTVSPost2010Prop53
 90
        2
102
RTVSPost2010PropOp53
 70
     1
102
RTVSPost2010Prop54
  1
strokes_ogs.tif
102
RTVSPost2010PropOp54
 70
     1
102
RTVSPost2010Prop55
280
     0
102
RTVSPost2010PropOp55
 70
     1
102
RTVSPost2010Prop56
140
1.0
102
RTVSPost2010PropOp56
 70
     1
102
RTVSPost2010Prop57
140
1.0
102
RTVSPost2010PropOp57
 70
     1
  0
ENDSEC
  0
EOF
