  0
SECTION
  2
HEADER
  9
$ACADVER
  1
AC1024
  9
$ACADMAINTVER
 70
   205
  9
$DWGCODEPAGE
  3
ANSI_1251
  9
$INSBASE
 10
0.0
 20
0.0
 30
0.0
  9
$EXTMIN
 10
1.000000000000000E+20
 20
1.000000000000000E+20
 30
1.000000000000000E+20
  9
$EXTMAX
 10
-1.000000000000000E+20
 20
-1.000000000000000E+20
 30
-1.000000000000000E+20
  9
$LIMMIN
 10
0.0
 20
0.0
  9
$LIMMAX
 10
12.0
 20
9.0
  9
$ORTHOMODE
 70
     0
  9
$REGENMODE
 70
     1
  9
$FILLMODE
 70
     1
  9
$QTEXTMODE
 70
     0
  9
$MIRRTEXT
 70
     1
  9
$LTSCALE
 40
1.0
  9
$ATTMODE
 70
     1
  9
$TEXTSIZE
 40
0.2
  9
$TRACEWID
 40
0.05
  9
$TEXTSTYLE
  7
Standard
  9
$CLAYER
  8
OracDecor_indirect_lighting
  9
$CELTYPE
  6
ByLayer
  9
$CECOLOR
 62
   256
  9
$CELTSCALE
 40
1.0
  9
$DISPSILH
 70
     0
  9
$DIMSCALE
 40
1.0
  9
$DIMASZ
 40
0.18
  9
$DIMEXO
 40
0.0625
  9
$DIMDLI
 40
0.38
  9
$DIMRND
 40
0.0
  9
$DIMDLE
 40
0.0
  9
$DIMEXE
 40
0.18
  9
$DIMTP
 40
0.0
  9
$DIMTM
 40
0.0
  9
$DIMTXT
 40
0.18
  9
$DIMCEN
 40
0.09
  9
$DIMTSZ
 40
0.0
  9
$DIMTOL
 70
     0
  9
$DIMLIM
 70
     0
  9
$DIMTIH
 70
     1
  9
$DIMTOH
 70
     1
  9
$DIMSE1
 70
     0
  9
$DIMSE2
 70
     0
  9
$DIMTAD
 70
     0
  9
$DIMZIN
 70
     0
  9
$DIMBLK
  1

  9
$DIMASO
 70
     1
  9
$DIMSHO
 70
     1
  9
$DIMPOST
  1

  9
$DIMAPOST
  1

  9
$DIMALT
 70
     0
  9
$DIMALTD
 70
     2
  9
$DIMALTF
 40
25.4
  9
$DIMLFAC
 40
1.0
  9
$DIMTOFL
 70
     0
  9
$DIMTVP
 40
0.0
  9
$DIMTIX
 70
     0
  9
$DIMSOXD
 70
     0
  9
$DIMSAH
 70
     0
  9
$DIMBLK1
  1

  9
$DIMBLK2
  1

  9
$DIMSTYLE
  2
Standard
  9
$DIMCLRD
 70
     0
  9
$DIMCLRE
 70
     0
  9
$DIMCLRT
 70
     0
  9
$DIMTFAC
 40
1.0
  9
$DIMGAP
 40
0.09
  9
$DIMJUST
 70
     0
  9
$DIMSD1
 70
     0
  9
$DIMSD2
 70
     0
  9
$DIMTOLJ
 70
     1
  9
$DIMTZIN
 70
     0
  9
$DIMALTZ
 70
     0
  9
$DIMALTTZ
 70
     0
  9
$DIMUPT
 70
     0
  9
$DIMDEC
 70
     4
  9
$DIMTDEC
 70
     4
  9
$DIMALTU
 70
     2
  9
$DIMALTTD
 70
     2
  9
$DIMTXSTY
  7
Standard
  9
$DIMAUNIT
 70
     0
  9
$DIMADEC
 70
     0
  9
$DIMALTRND
 40
0.0
  9
$DIMAZIN
 70
     0
  9
$DIMDSEP
 70
    46
  9
$DIMATFIT
 70
     3
  9
$DIMFRAC
 70
     0
  9
$DIMLDRBLK
  1

  9
$DIMLUNIT
 70
     2
  9
$DIMLWD
 70
    -2
  9
$DIMLWE
 70
    -2
  9
$DIMTMOVE
 70
     0
  9
$DIMFXL
 40
1.0
  9
$DIMFXLON
 70
     0
  9
$DIMJOGANG
 40
0.7853981633974483
  9
$DIMTFILL
 70
     0
  9
$DIMTFILLCLR
 70
     0
  9
$DIMARCSYM
 70
     0
  9
$DIMLTYPE
  6

  9
$DIMLTEX1
  6

  9
$DIMLTEX2
  6

  9
$DIMTXTDIRECTION
 70
     0
  9
$LUNITS
 70
     2
  9
$LUPREC
 70
     4
  9
$SKETCHINC
 40
0.1
  9
$FILLETRAD
 40
0.5
  9
$AUNITS
 70
     0
  9
$AUPREC
 70
     0
  9
$MENU
  1
.
  9
$ELEVATION
 40
0.0
  9
$PELEVATION
 40
0.0
  9
$THICKNESS
 40
0.0
  9
$LIMCHECK
 70
     0
  9
$CHAMFERA
 40
0.5
  9
$CHAMFERB
 40
0.5
  9
$CHAMFERC
 40
1.0
  9
$CHAMFERD
 40
0.0
  9
$SKPOLY
 70
     0
  9
$TDCREATE
 40
2451380.930432396
  9
$TDUCREATE
 40
2451380.805432396
  9
$TDUPDATE
 40
2451380.966180555
  9
$TDUUPDATE
 40
2451380.841180556
  9
$TDINDWG
 40
0.0075615162
  9
$TDUSRTIMER
 40
0.0075524769
  9
$USRTIMER
 70
     1
  9
$ANGBASE
 50
0.0
  9
$ANGDIR
 70
     0
  9
$PDMODE
 70
     0
  9
$PDSIZE
 40
0.0
  9
$PLINEWID
 40
0.0
  9
$SPLFRAME
 70
     0
  9
$SPLINETYPE
 70
     6
  9
$SPLINESEGS
 70
     8
  9
$HANDSEED
  5
184
  9
$SURFTAB1
 70
     6
  9
$SURFTAB2
 70
     6
  9
$SURFTYPE
 70
     6
  9
$SURFU
 70
     6
  9
$SURFV
 70
     6
  9
$UCSBASE
  2

  9
$UCSNAME
  2

  9
$UCSORG
 10
0.0
 20
0.0
 30
0.0
  9
$UCSXDIR
 10
1.0
 20
0.0
 30
0.0
  9
$UCSYDIR
 10
0.0
 20
1.0
 30
0.0
  9
$UCSORTHOREF
  2

  9
$UCSORTHOVIEW
 70
     0
  9
$UCSORGTOP
 10
0.0
 20
0.0
 30
0.0
  9
$UCSORGBOTTOM
 10
0.0
 20
0.0
 30
0.0
  9
$UCSORGLEFT
 10
0.0
 20
0.0
 30
0.0
  9
$UCSORGRIGHT
 10
0.0
 20
0.0
 30
0.0
  9
$UCSORGFRONT
 10
0.0
 20
0.0
 30
0.0
  9
$UCSORGBACK
 10
0.0
 20
0.0
 30
0.0
  9
$PUCSBASE
  2

  9
$PUCSNAME
  2

  9
$PUCSORG
 10
0.0
 20
0.0
 30
0.0
  9
$PUCSXDIR
 10
1.0
 20
0.0
 30
0.0
  9
$PUCSYDIR
 10
0.0
 20
1.0
 30
0.0
  9
$PUCSORTHOREF
  2

  9
$PUCSORTHOVIEW
 70
     0
  9
$PUCSORGTOP
 10
0.0
 20
0.0
 30
0.0
  9
$PUCSORGBOTTOM
 10
0.0
 20
0.0
 30
0.0
  9
$PUCSORGLEFT
 10
0.0
 20
0.0
 30
0.0
  9
$PUCSORGRIGHT
 10
0.0
 20
0.0
 30
0.0
  9
$PUCSORGFRONT
 10
0.0
 20
0.0
 30
0.0
  9
$PUCSORGBACK
 10
0.0
 20
0.0
 30
0.0
  9
$USERI1
 70
     0
  9
$USERI2
 70
     0
  9
$USERI3
 70
     0
  9
$USERI4
 70
     0
  9
$USERI5
 70
     0
  9
$USERR1
 40
0.0
  9
$USERR2
 40
0.0
  9
$USERR3
 40
0.0
  9
$USERR4
 40
0.0
  9
$USERR5
 40
0.0
  9
$WORLDVIEW
 70
     1
  9
$SHADEDGE
 70
     3
  9
$SHADEDIF
 70
    70
  9
$TILEMODE
 70
     1
  9
$MAXACTVP
 70
    64
  9
$PINSBASE
 10
0.0
 20
0.0
 30
0.0
  9
$PLIMCHECK
 70
     0
  9
$PEXTMIN
 10
1.000000000000000E+20
 20
1.000000000000000E+20
 30
1.000000000000000E+20
  9
$PEXTMAX
 10
-1.000000000000000E+20
 20
-1.000000000000000E+20
 30
-1.000000000000000E+20
  9
$PLIMMIN
 10
0.0
 20
0.0
  9
$PLIMMAX
 10
12.0
 20
9.0
  9
$UNITMODE
 70
     0
  9
$VISRETAIN
 70
     1
  9
$PLINEGEN
 70
     0
  9
$PSLTSCALE
 70
     1
  9
$TREEDEPTH
 70
  3020
  9
$CMLSTYLE
  2
Standard
  9
$CMLJUST
 70
     0
  9
$CMLSCALE
 40
1.0
  9
$PROXYGRAPHICS
 70
     1
  9
$MEASUREMENT
 70
     1
  9
$CELWEIGHT
370
    -1
  9
$ENDCAPS
280
     0
  9
$JOINSTYLE
280
     0
  9
$LWDISPLAY
290
     0
  9
$INSUNITS
 70
     4
  9
$HYPERLINKBASE
  1

  9
$STYLESHEET
  1

  9
$XEDIT
290
     1
  9
$CEPSNTYPE
380
     0
  9
$PSTYLEMODE
290
     1
  9
$FINGERPRINTGUID
  2
{12F50282-3ED8-11D3-A8B7-0060B0F84BC6}
  9
$VERSIONGUID
  2
{12F50293-3ED8-11D3-A8B7-0060B0F84BC6}
  9
$EXTNAMES
290
     1
  9
$PSVPSCALE
 40
0.0
  9
$OLESTARTUP
290
     0
  9
$SORTENTS
280
   127
  9
$INDEXCTL
280
     0
  9
$HIDETEXT
280
     0
  9
$XCLIPFRAME
280
     2
  9
$HALOGAP
280
     0
  9
$OBSCOLOR
 70
   257
  9
$OBSLTYPE
280
     0
  9
$INTERSECTIONDISPLAY
280
     0
  9
$INTERSECTIONCOLOR
 70
   257
  9
$DIMASSOC
280
     1
  9
$PROJECTNAME
  1

  9
$CAMERADISPLAY
290
     0
  9
$LENSLENGTH
 40
50.0
  9
$CAMERAHEIGHT
 40
0.0
  9
$STEPSPERSEC
 40
2.0
  9
$STEPSIZE
 40
6.0
  9
$3DDWFPREC
 40
2.0
  9
$PSOLWIDTH
 40
0.25
  9
$PSOLHEIGHT
 40
4.0
  9
$LOFTANG1
 40
1.570796326794896
  9
$LOFTANG2
 40
1.570796326794896
  9
$LOFTMAG1
 40
0.0
  9
$LOFTMAG2
 40
0.0
  9
$LOFTPARAM
 70
     7
  9
$LOFTNORMALS
280
     1
  9
$LATITUDE
 40
37.795
  9
$LONGITUDE
 40
-122.394
  9
$NORTHDIRECTION
 40
0.0
  9
$TIMEZONE
 70
 -8000
  9
$LIGHTGLYPHDISPLAY
280
     1
  9
$TILEMODELIGHTSYNCH
280
     1
  9
$CMATERIAL
347
AB
  9
$SOLIDHIST
280
     0
  9
$SHOWHIST
280
     1
  9
$DWFFRAME
280
     2
  9
$DGNFRAME
280
     0
  9
$REALWORLDSCALE
290
     1
  9
$INTERFERECOLOR
 62
     1
  9
$INTERFEREOBJVS
345
CD
  9
$INTERFEREVPVS
346
CA
  9
$CSHADOW
280
     0
  9
$SHADOWPLANELOCATION
 40
0.0
  0
ENDSEC
  0
SECTION
  2
CLASSES
  0
CLASS
  1
ACDBDICTIONARYWDFLT
  2
AcDbDictionaryWithDefault
  3
ObjectDBX Classes
 90
        0
 91
        1
280
     0
281
     0
  0
CLASS
  1
ACDBPLACEHOLDER
  2
AcDbPlaceHolder
  3
ObjectDBX Classes
 90
        0
 91
        2
280
     0
281
     0
  0
CLASS
  1
LAYOUT
  2
AcDbLayout
  3
ObjectDBX Classes
 90
        0
 91
        3
280
     0
281
     0
  0
CLASS
  1
MATERIAL
  2
AcDbMaterial
  3
ObjectDBX Classes
 90
     1153
 91
        3
280
     0
281
     0
  0
CLASS
  1
VISUALSTYLE
  2
AcDbVisualStyle
  3
ObjectDBX Classes
 90
     4095
 91
       24
280
     0
281
     0
  0
CLASS
  1
TABLESTYLE
  2
AcDbTableStyle
  3
ObjectDBX Classes
 90
     4095
 91
        1
280
     0
281
     0
  0
CLASS
  1
SCALE
  2
AcDbScale
  3
ObjectDBX Classes
 90
     1153
 91
       17
280
     0
281
     0
  0
CLASS
  1
MLEADERSTYLE
  2
AcDbMLeaderStyle
  3
ACDB_MLEADERSTYLE_CLASS
 90
     4095
 91
        1
280
     0
281
     0
  0
CLASS
  1
ACDBSECTIONVIEWSTYLE
  2
AcDbSectionViewStyle
  3
ObjectDBX Classes
 90
     1025
 91
        1
280
     0
281
     0
  0
CLASS
  1
ACDBDETAILVIEWSTYLE
  2
AcDbDetailViewStyle
  3
ObjectDBX Classes
 90
     1025
 91
        1
280
     0
281
     0
  0
CLASS
  1
MESH
  2
AcDbSubDMesh
  3
ObjectDBX Classes
 90
        0
 91
        1
280
     0
281
     1
  0
CLASS
  1
DICTIONARYVAR
  2
AcDbDictionaryVar
  3
ObjectDBX Classes
 90
        0
 91
        9
280
     0
281
     0
  0
CLASS
  1
CELLSTYLEMAP
  2
AcDbCellStyleMap
  3
ObjectDBX Classes
 90
     1152
 91
        1
280
     0
281
     0
  0
ENDSEC
  0
SECTION
  2
TABLES
  0
TABLE
  2
VPORT
  5
8
330
0
100
AcDbSymbolTable
 70
     1
  0
VPORT
  5
A8
330
8
100
AcDbSymbolTableRecord
100
AcDbViewportTableRecord
  2
*Active
 70
     0
 10
0.0
 20
0.0
 11
1.0
 21
1.0
 12
0.0000647375636618
 22
-73.48456573486328
 13
0.0
 23
0.0
 14
0.5
 24
0.5
 15
0.5
 25
0.5
 16
-1.0
 26
-1.0
 36
1.0
 17
0.0
 27
0.0
 37
0.0
 40
1229.757354709117
 41
1.478529945013595
 42
50.0
 43
0.0
 44
0.0
 50
0.0
 51
0.0
 71
     0
 72
   100
 73
     1
 74
     3
 75
     0
 76
     0
 77
     0
 78
     0
281
     0
 65
     1
110
0.0
120
0.0
130
0.0
111
1.0
121
0.0
131
0.0
112
0.0
122
1.0
132
0.0
 79
     0
146
0.0
348
C9
 60
     3
 61
     5
292
     1
282
     1
141
0.0
142
0.0
 63
   250
421
  3355443
  0
ENDTAB
  0
TABLE
  2
LTYPE
  5
5
330
0
100
AcDbSymbolTable
 70
     1
  0
LTYPE
  5
14
330
5
100
AcDbSymbolTableRecord
100
AcDbLinetypeTableRecord
  2
ByBlock
 70
     0
  3

 72
    65
 73
     0
 40
0.0
  0
LTYPE
  5
15
330
5
100
AcDbSymbolTableRecord
100
AcDbLinetypeTableRecord
  2
ByLayer
 70
     0
  3

 72
    65
 73
     0
 40
0.0
  0
LTYPE
  5
16
330
5
100
AcDbSymbolTableRecord
100
AcDbLinetypeTableRecord
  2
Continuous
 70
     0
  3
Solid line
 72
    65
 73
     0
 40
0.0
  0
ENDTAB
  0
TABLE
  2
LAYER
  5
2
330
0
100
AcDbSymbolTable
 70
     3
  0
LAYER
  5
10
330
2
100
AcDbSymbolTableRecord
100
AcDbLayerTableRecord
  2
0
 70
     0
 62
     7
  6
Continuous
370
    -3
390
F
347
BB
  0
LAYER
  5
2B
330
2
100
AcDbSymbolTableRecord
100
AcDbLayerTableRecord
  2
ASHADE
 70
     4
 62
     7
  6
Continuous
370
    -3
390
2D
347
BB
  0
LAYER
  5
F8
330
2
100
AcDbSymbolTableRecord
100
AcDbLayerTableRecord
  2
OracDecor_indirect_lighting
 70
     0
 62
    74
420
  5812507
  6
Continuous
370
    -3
390
F
347
BB
  0
ENDTAB
  0
TABLE
  2
STYLE
  5
3
330
0
100
AcDbSymbolTable
 70
     2
  0
STYLE
  5
11
330
3
100
AcDbSymbolTableRecord
100
AcDbTextStyleTableRecord
  2
Standard
 70
     0
 40
0.0
 41
1.0
 50
0.0
 71
     0
 42
0.2
  3
txt
  4

  0
STYLE
  5
2C
330
3
100
AcDbSymbolTableRecord
100
AcDbTextStyleTableRecord
  2
ASHADE
 70
     0
 40
0.2
 41
1.0
 50
0.0
 71
     0
 42
0.2
  3
simplex
  4

  0
ENDTAB
  0
TABLE
  2
VIEW
  5
6
330
0
100
AcDbSymbolTable
 70
     0
  0
ENDTAB
  0
TABLE
  2
UCS
  5
7
330
0
100
AcDbSymbolTable
 70
     0
  0
ENDTAB
  0
TABLE
  2
APPID
  5
9
330
0
100
AcDbSymbolTable
 70
     6
  0
APPID
  5
12
330
9
100
AcDbSymbolTableRecord
100
AcDbRegAppTableRecord
  2
ACAD
 70
     0
  0
APPID
  5
8F
330
9
100
AcDbSymbolTableRecord
100
AcDbRegAppTableRecord
  2
AVE_RENDER
 70
     0
  0
APPID
  5
90
330
9
100
AcDbSymbolTableRecord
100
AcDbRegAppTableRecord
  2
AVE_ENTITY_MATERIAL
 70
     0
  0
APPID
  5
9C
330
9
100
AcDbSymbolTableRecord
100
AcDbRegAppTableRecord
  2
AVE_FINISH
 70
     0
  0
APPID
  5
9D
330
9
100
AcDbSymbolTableRecord
100
AcDbRegAppTableRecord
  2
AVE_MATERIAL
 70
     0
  0
APPID
  5
9E
330
9
100
AcDbSymbolTableRecord
100
AcDbRegAppTableRecord
  2
AVE_GLOBAL
 70
     0
  0
ENDTAB
  0
TABLE
  2
DIMSTYLE
  5
A
330
0
100
AcDbSymbolTable
 70
     1
100
AcDbDimStyleTable
 71
     0
  0
DIMSTYLE
105
27
330
A
100
AcDbSymbolTableRecord
100
AcDbDimStyleTableRecord
  2
Standard
 70
     0
340
11
  0
ENDTAB
  0
TABLE
  2
BLOCK_RECORD
  5
1
330
0
100
AcDbSymbolTable
 70
     6
  0
BLOCK_RECORD
  5
1F
330
1
100
AcDbSymbolTableRecord
100
AcDbBlockTableRecord
  2
*Model_Space
340
22
 70
     0
280
     1
281
     0
  0
BLOCK_RECORD
  5
1B
330
1
100
AcDbSymbolTableRecord
100
AcDbBlockTableRecord
  2
*Paper_Space
340
1E
 70
     0
280
     1
281
     0
  0
BLOCK_RECORD
  5
23
330
1
100
AcDbSymbolTableRecord
100
AcDbBlockTableRecord
  2
*Paper_Space0
340
26
 70
     0
280
     1
281
     0
  0
BLOCK_RECORD
  5
2E
330
1
100
AcDbSymbolTableRecord
100
AcDbBlockTableRecord
  2
direct
340
0
 70
     0
280
     1
281
     0
  0
BLOCK_RECORD
  5
42
330
1
100
AcDbSymbolTableRecord
100
AcDbBlockTableRecord
  2
overhead
340
0
 70
     0
280
     1
281
     0
  0
BLOCK_RECORD
  5
5F
330
1
100
AcDbSymbolTableRecord
100
AcDbBlockTableRecord
  2
sh_spot
340
0
 70
     0
280
     1
281
     0
  0
BLOCK_RECORD
  5
91
330
1
100
AcDbSymbolTableRecord
100
AcDbBlockTableRecord
  2
AVE_RENDER
340
0
102
{BLKREFS
331
94
331
95
331
96
331
97
331
98
331
99
331
9A
331
9B
102
}
 70
     0
280
     1
281
     0
  0
BLOCK_RECORD
  5
9F
330
1
100
AcDbSymbolTableRecord
100
AcDbBlockTableRecord
  2
AVE_GLOBAL
340
0
102
{BLKREFS
331
A2
102
}
 70
     0
280
     1
281
     0
  0
ENDTAB
  0
ENDSEC
  0
SECTION
  2
BLOCKS
  0
BLOCK
  5
20
330
1F
100
AcDbEntity
  8
0
100
AcDbBlockBegin
  2
*Model_Space
 70
     0
 10
0.0
 20
0.0
 30
0.0
  3
*Model_Space
  1

  0
ENDBLK
  5
21
330
1F
100
AcDbEntity
  8
0
100
AcDbBlockEnd
  0
BLOCK
  5
1C
330
1B
100
AcDbEntity
 67
     1
  8
0
100
AcDbBlockBegin
  2
*Paper_Space
 70
     0
 10
0.0
 20
0.0
 30
0.0
  3
*Paper_Space
  1

  0
ENDBLK
  5
1D
330
1B
100
AcDbEntity
 67
     1
  8
0
100
AcDbBlockEnd
  0
BLOCK
  5
24
330
23
100
AcDbEntity
 67
     1
  8
0
100
AcDbBlockBegin
  2
*Paper_Space0
 70
     0
 10
0.0
 20
0.0
 30
0.0
  3
*Paper_Space0
  1

  0
ENDBLK
  5
25
330
23
100
AcDbEntity
 67
     1
  8
0
100
AcDbBlockEnd
  0
BLOCK
  5
40
330
2E
100
AcDbEntity
  8
0
100
AcDbBlockBegin
  2
direct
 70
     2
 10
0.0
 20
0.0
 30
0.0
  3
direct
  1

  0
ATTDEF
  5
2F
330
2E
100
AcDbEntity
  8
ASHADE
  6
Continuous
 62
     1
100
AcDbText
 10
0.0
 20
-0.1
 30
0.0
 40
0.2
  1

  7
ASHADE
 72
     1
 11
0.0
 21
-0.1
 31
0.0
100
AcDbAttributeDefinition
280
     0
  3
Light Name
  2
SNAME
 70
     0
280
     0
  0
ARC
  5
30
330
2E
100
AcDbEntity
  8
ASHADE
  6
Continuous
 62
     7
100
AcDbCircle
 10
0.0
 20
0.0
 30
0.0
 40
0.3
100
AcDbArc
 50
205.6792886194569
 51
334.3207113805431
  0
ARC
  5
31
330
2E
100
AcDbEntity
  8
ASHADE
  6
Continuous
 62
     7
100
AcDbCircle
 10
0.0
 20
0.0
 30
0.0
 40
0.3
100
AcDbArc
 50
25.67928861945685
 51
154.3207113805431
  0
LINE
  5
32
330
2E
100
AcDbEntity
  8
ASHADE
  6
Continuous
 62
     7
100
AcDbLine
 10
-0.21
 20
0.2142428528562855
 30
0.0
 11
-0.21
 21
0.5
 31
0.0
  0
LINE
  5
33
330
2E
100
AcDbEntity
  8
ASHADE
  6
Continuous
 62
     7
100
AcDbLine
 10
-0.11
 20
0.2791057147390572
 30
0.0
 11
-0.11
 21
0.5
 31
0.0
  0
LINE
  5
34
330
2E
100
AcDbEntity
  8
ASHADE
  6
Continuous
 62
     7
100
AcDbLine
 10
0.21
 20
0.2142428528562855
 30
0.0
 11
0.21
 21
0.5
 31
0.0
  0
ATTDEF
  5
35
330
2E
100
AcDbEntity
  8
ASHADE
  6
Continuous
 62
     7
100
AcDbText
 10
0.0
 20
0.25
 30
0.0
 40
0.01
  1

100
AcDbAttributeDefinition
280
     0
  3
Look-at Y
  2
LAY
 70
     1
280
     0
  0
ATTDEF
  5
36
330
2E
100
AcDbEntity
  8
ASHADE
  6
Continuous
 62
     7
100
AcDbText
 10
0.0
 20
0.22
 30
0.0
 40
0.01
  1
1
100
AcDbAttributeDefinition
280
     0
  3
Light Intensity
  2
INTENSITY
 70
     1
280
     0
  0
ATTDEF
  5
37
330
2E
100
AcDbEntity
  8
ASHADE
  6
Continuous
 62
     7
100
AcDbText
 10
0.0
 20
0.16
 30
0.0
 40
0.01
  1
-1
100
AcDbAttributeDefinition
280
     0
  3
*not used*
  2
BEAMD
 70
     1
280
     0
  0
ATTDEF
  5
38
330
2E
100
AcDbEntity
  8
ASHADE
  6
Continuous
 62
     7
100
AcDbText
 10
0.0
 20
0.175
 30
0.0
 40
0.01
  1
-1
100
AcDbAttributeDefinition
280
     0
  3
*not used*
  2
CONED
 70
     1
280
     0
  0
ATTDEF
  5
39
330
2E
100
AcDbEntity
  8
ASHADE
  6
Continuous
 62
     7
100
AcDbText
 10
0.0
 20
0.19
 30
0.0
 40
0.01
  1
0
100
AcDbAttributeDefinition
280
     0
  3
Depth Map Size
  2
CONEA
 70
     1
280
     0
  0
ATTDEF
  5
3A
330
2E
100
AcDbEntity
  8
ASHADE
  6
Continuous
 62
     7
100
AcDbText
 10
0.0
 20
0.2050000000000001
 30
0.0
 40
0.01
  1
1,1,1
100
AcDbAttributeDefinition
280
     0
  3
Light Color (RGB)
  2
COLOR
 70
     1
280
     0
  0
ATTDEF
  5
3B
330
2E
100
AcDbEntity
  8
ASHADE
  6
Continuous
 62
     7
100
AcDbText
 10
0.0
 20
0.235
 30
0.0
 40
0.01
  1

100
AcDbAttributeDefinition
280
     0
  3
Look-at Z
  2
LAZ
 70
     1
280
     0
  0
LINE
  5
3C
330
2E
100
AcDbEntity
  8
ASHADE
  6
Continuous
 62
     7
100
AcDbLine
 10
0.0
 20
0.3
 30
0.0
 11
0.0
 21
0.5
 31
0.0
  0
LINE
  5
3D
330
2E
100
AcDbEntity
  8
ASHADE
  6
Continuous
 62
     7
100
AcDbLine
 10
0.11
 20
0.2791057147390572
 30
0.0
 11
0.11
 21
0.5
 31
0.0
  0
ATTDEF
  5
3E
330
2E
100
AcDbEntity
  8
ASHADE
  6
Continuous
 62
     7
100
AcDbText
 10
0.0
 20
0.265
 30
0.0
 40
0.01
  1

100
AcDbAttributeDefinition
280
     0
  3
Look-at X
  2
LAX
 70
     1
280
     0
  0
ATTDEF
  5
3F
330
2E
100
AcDbEntity
  8
ASHADE
  6
Continuous
 62
     7
100
AcDbText
 10
0.0
 20
0.28
 30
0.0
 40
0.01
  1

100
AcDbAttributeDefinition
280
     0
  3

  2
GNAME
 70
     1
280
     0
  0
ENDBLK
  5
41
330
2E
100
AcDbEntity
  8
0
100
AcDbBlockEnd
  0
BLOCK
  5
5D
330
42
100
AcDbEntity
  8
0
100
AcDbBlockBegin
  2
overhead
 70
     2
 10
0.0
 20
0.0
 30
0.0
  3
overhead
  1

  0
ATTDEF
  5
43
330
42
100
AcDbEntity
  8
ASHADE
  6
Continuous
 62
     1
100
AcDbText
 10
0.0
 20
-0.1
 30
0.0
 40
0.2
  1

  7
ASHADE
 72
     1
 11
0.0
 21
-0.1
 31
0.0
100
AcDbAttributeDefinition
280
     0
  3
Light Name
  2
SNAME
 70
     0
280
     0
  0
ARC
  5
44
330
42
100
AcDbEntity
  8
ASHADE
  6
Continuous
 62
     7
100
AcDbCircle
 10
0.0
 20
0.0
 30
0.0
 40
0.3
100
AcDbArc
 50
205.6792886194569
 51
334.3207113805431
  0
LINE
  5
45
330
42
100
AcDbEntity
  8
ASHADE
  6
Continuous
 62
     7
100
AcDbLine
 10
-0.2041413561583015
 20
-0.2198324514393848
 30
0.0
 11
-0.2721884748777353
 21
-0.2931099352525131
 31
0.0
  0
LINE
  5
46
330
42
100
AcDbEntity
  8
ASHADE
  6
Continuous
 62
     7
100
AcDbLine
 10
-0.1096591641591904
 20
-0.2792398032442862
 30
0.0
 11
-0.1279356915190555
 21
-0.3257797704516673
 31
0.0
  0
LINE
  5
47
330
42
100
AcDbEntity
  8
ASHADE
  6
Continuous
 62
     7
100
AcDbLine
 10
0.0
 20
-0.2999999999999999
 30
0.0
 11
0.0
 21
-0.4
 31
0.0
  0
LINE
  5
48
330
42
100
AcDbEntity
  8
ASHADE
  6
Continuous
 62
     7
100
AcDbLine
 10
0.1096591641591904
 20
-0.2792398032442862
 30
0.0
 11
0.1279356915190555
 21
-0.3257797704516673
 31
0.0
  0
LINE
  5
49
330
42
100
AcDbEntity
  8
ASHADE
  6
Continuous
 62
     7
100
AcDbLine
 10
0.2041413561583015
 20
-0.2198324514393848
 30
0.0
 11
0.2721884748777353
 21
-0.2931099352525131
 31
0.0
  0
ARC
  5
4A
330
42
100
AcDbEntity
  8
ASHADE
  6
Continuous
 62
     7
100
AcDbCircle
 10
0.0
 20
0.0
 30
0.0
 40
0.3
100
AcDbArc
 50
25.67928861945685
 51
154.3207113805431
  0
LINE
  5
4B
330
42
100
AcDbEntity
  8
ASHADE
  6
Continuous
 62
     7
100
AcDbLine
 10
-0.2703701166919155
 20
0.13
 30
0.0
 11
-0.3154318028072347
 21
0.1516666666666666
 31
0.0
  0
LINE
  5
4C
330
42
100
AcDbEntity
  8
ASHADE
  6
Continuous
 62
     7
100
AcDbLine
 10
-0.2703701166919155
 20
-0.13
 30
0.0
 11
-0.3154318028072347
 21
-0.1516666666666666
 31
0.0
  0
LINE
  5
4D
330
42
100
AcDbEntity
  8
ASHADE
  6
Continuous
 62
     7
100
AcDbLine
 10
-0.2041413561583015
 20
0.2198324514393849
 30
0.0
 11
-0.2721884748777353
 21
0.2931099352525131
 31
0.0
  0
LINE
  5
4E
330
42
100
AcDbEntity
  8
ASHADE
  6
Continuous
 62
     7
100
AcDbLine
 10
-0.1096591641591904
 20
0.2792398032442862
 30
0.0
 11
-0.1279356915190555
 21
0.3257797704516674
 31
0.0
  0
LINE
  5
4F
330
42
100
AcDbEntity
  8
ASHADE
  6
Continuous
 62
     7
100
AcDbLine
 10
0.2703701166919155
 20
-0.13
 30
0.0
 11
0.3154318028072347
 21
-0.1516666666666666
 31
0.0
  0
LINE
  5
50
330
42
100
AcDbEntity
  8
ASHADE
  6
Continuous
 62
     7
100
AcDbLine
 10
0.2703701166919155
 20
0.13
 30
0.0
 11
0.3154318028072347
 21
0.1516666666666666
 31
0.0
  0
LINE
  5
51
330
42
100
AcDbEntity
  8
ASHADE
  6
Continuous
 62
     7
100
AcDbLine
 10
0.0
 20
0.3
 30
0.0
 11
0.0
 21
0.4
 31
0.0
  0
ATTDEF
  5
52
330
42
100
AcDbEntity
  8
ASHADE
  6
Continuous
 62
     7
100
AcDbText
 10
0.0
 20
0.22
 30
0.0
 40
0.01
  1
1
100
AcDbAttributeDefinition
280
     0
  3
Light Intensity
  2
INTENSITY
 70
     1
280
     0
  0
ATTDEF
  5
53
330
42
100
AcDbEntity
  8
ASHADE
  6
Continuous
 62
     7
100
AcDbText
 10
0.0
 20
0.16
 30
0.0
 40
0.01
  1
-1
100
AcDbAttributeDefinition
280
     0
  3
*not used*
  2
BEAMD
 70
     1
280
     0
  0
ATTDEF
  5
54
330
42
100
AcDbEntity
  8
ASHADE
  6
Continuous
 62
     7
100
AcDbText
 10
0.0
 20
0.175
 30
0.0
 40
0.01
  1
-1
100
AcDbAttributeDefinition
280
     0
  3
*not used*
  2
CONED
 70
     1
280
     0
  0
ATTDEF
  5
55
330
42
100
AcDbEntity
  8
ASHADE
  6
Continuous
 62
     7
100
AcDbText
 10
0.0
 20
0.19
 30
0.0
 40
0.01
  1
0
100
AcDbAttributeDefinition
280
     0
  3
Depth Map Size
  2
CONEA
 70
     1
280
     0
  0
ATTDEF
  5
56
330
42
100
AcDbEntity
  8
ASHADE
  6
Continuous
 62
     7
100
AcDbText
 10
0.0
 20
0.2050000000000001
 30
0.0
 40
0.01
  1
1,1,1
100
AcDbAttributeDefinition
280
     0
  3
Light Color (RGB)
  2
COLOR
 70
     1
280
     0
  0
ATTDEF
  5
57
330
42
100
AcDbEntity
  8
ASHADE
  6
Continuous
 62
     7
100
AcDbText
 10
0.0
 20
0.235
 30
0.0
 40
0.01
  1

100
AcDbAttributeDefinition
280
     0
  3
Look-at Z
  2
LAZ
 70
     1
280
     0
  0
ATTDEF
  5
58
330
42
100
AcDbEntity
  8
ASHADE
  6
Continuous
 62
     7
100
AcDbText
 10
0.0
 20
0.25
 30
0.0
 40
0.01
  1

100
AcDbAttributeDefinition
280
     0
  3
Look-at Y
  2
LAY
 70
     1
280
     0
  0
ATTDEF
  5
59
330
42
100
AcDbEntity
  8
ASHADE
  6
Continuous
 62
     7
100
AcDbText
 10
0.0
 20
0.265
 30
0.0
 40
0.01
  1

100
AcDbAttributeDefinition
280
     0
  3
Look-at X
  2
LAX
 70
     1
280
     0
  0
ATTDEF
  5
5A
330
42
100
AcDbEntity
  8
ASHADE
  6
Continuous
 62
     7
100
AcDbText
 10
0.0
 20
0.28
 30
0.0
 40
0.01
  1

100
AcDbAttributeDefinition
280
     0
  3

  2
GNAME
 70
     1
280
     0
  0
LINE
  5
5B
330
42
100
AcDbEntity
  8
ASHADE
  6
Continuous
 62
     7
100
AcDbLine
 10
0.1096591641591904
 20
0.2792398032442862
 30
0.0
 11
0.1279356915190555
 21
0.3257797704516674
 31
0.0
  0
LINE
  5
5C
330
42
100
AcDbEntity
  8
ASHADE
  6
Continuous
 62
     7
100
AcDbLine
 10
0.2041413561583015
 20
0.2198324514393849
 30
0.0
 11
0.2721884748777353
 21
0.2931099352525131
 31
0.0
  0
ENDBLK
  5
5E
330
42
100
AcDbEntity
  8
0
100
AcDbBlockEnd
  0
BLOCK
  5
85
330
5F
100
AcDbEntity
  8
0
100
AcDbBlockBegin
  2
sh_spot
 70
     2
 10
0.0
 20
0.0
 30
0.0
  3
sh_spot
  1

  0
LINE
  5
60
330
5F
100
AcDbEntity
  8
ASHADE
  6
Continuous
 62
     7
100
AcDbLine
 10
0.25
 20
0.26
 30
0.0
 11
-0.25
 21
0.26
 31
0.0
  0
LINE
  5
61
330
5F
100
AcDbEntity
  8
ASHADE
  6
Continuous
 62
     7
100
AcDbLine
 10
-0.25
 20
-0.3399999999999999
 30
0.0
 11
0.25
 21
-0.3399999999999999
 31
0.0
  0
ATTDEF
  5
62
330
5F
100
AcDbEntity
  8
ASHADE
  6
Continuous
 62
     1
100
AcDbText
 10
0.0
 20
-0.1
 30
0.0
 40
0.2
  1

  7
ASHADE
 72
     1
 11
0.0
 21
-0.1
 31
0.0
100
AcDbAttributeDefinition
280
     0
  3
Light Name
  2
SNAME
 70
     0
280
     0
  0
LINE
  5
63
330
5F
100
AcDbEntity
  8
ASHADE
  6
Continuous
 62
     7
100
AcDbLine
 10
-0.25
 20
-0.13
 30
0.0
 11
-0.25
 21
-0.3399999999999999
 31
0.0
  0
LINE
  5
64
330
5F
100
AcDbEntity
  8
ASHADE
  6
Continuous
 62
     7
100
AcDbLine
 10
-0.25
 20
-0.18
 30
0.0
 11
-0.29
 21
-0.18
 31
0.0
  0
LINE
  5
65
330
5F
100
AcDbEntity
  8
ASHADE
  6
Continuous
 62
     7
100
AcDbLine
 10
-0.29
 20
-0.22
 30
0.0
 11
-0.25
 21
-0.22
 31
0.0
  0
LINE
  5
66
330
5F
100
AcDbEntity
  8
ASHADE
  6
Continuous
 62
     7
100
AcDbLine
 10
-0.29
 20
-0.18
 30
0.0
 11
-0.29
 21
-0.22
 31
0.0
  0
LINE
  5
67
330
5F
100
AcDbEntity
  8
ASHADE
  6
Continuous
 62
     7
100
AcDbLine
 10
-0.1045454545454545
 20
0.26
 30
0.0
 11
-0.15
 21
0.46
 31
0.0
  0
LINE
  5
68
330
5F
100
AcDbEntity
  8
ASHADE
  6
Continuous
 62
     7
100
AcDbLine
 10
-0.21
 20
0.26
 30
0.0
 11
-0.301304347826087
 21
0.46
 31
0.0
  0
LINE
  5
69
330
5F
100
AcDbEntity
  8
ASHADE
  6
Continuous
 62
     7
100
AcDbLine
 10
-0.25
 20
0.26
 30
0.0
 11
-0.25
 21
0.13
 31
0.0
  0
LINE
  5
6A
330
5F
100
AcDbEntity
  8
ASHADE
  6
Continuous
 62
     7
100
AcDbLine
 10
-0.25
 20
0.22
 30
0.0
 11
-0.29
 21
0.22
 31
0.0
  0
LINE
  5
6B
330
5F
100
AcDbEntity
  8
ASHADE
  6
Continuous
 62
     7
100
AcDbLine
 10
-0.29
 20
0.1799999999999999
 30
0.0
 11
-0.25
 21
0.1799999999999999
 31
0.0
  0
LINE
  5
6C
330
5F
100
AcDbEntity
  8
ASHADE
  6
Continuous
 62
     7
100
AcDbLine
 10
-0.29
 20
0.22
 30
0.0
 11
-0.29
 21
0.1799999999999999
 31
0.0
  0
ATTDEF
  5
6D
330
5F
100
AcDbEntity
  8
ASHADE
  6
Continuous
 62
     7
100
AcDbText
 10
0.0
 20
-0.24
 30
0.0
 40
0.01
  1
0
100
AcDbAttributeDefinition
280
     0
  3
Depth Map Size
  2
ZSIZE
 70
     1
280
     0
  0
ATTDEF
  5
6E
330
5F
100
AcDbEntity
  8
ASHADE
  6
Continuous
 62
     7
100
AcDbText
 10
0.0
 20
-0.3300000000000001
 30
0.0
 40
0.01
  1
0,0,0
100
AcDbAttributeDefinition
280
     0
  3
Look-from XYZ
  2
LFXYZ
 70
     1
280
     0
  0
ATTDEF
  5
6F
330
5F
100
AcDbEntity
  8
ASHADE
  6
Continuous
 62
     7
100
AcDbText
 10
0.0
 20
-0.315
 30
0.0
 40
0.01
  1
0.0
100
AcDbAttributeDefinition
280
     0
  3
Beam Distribution
  2
BEAMDI
 70
     1
280
     0
  0
ATTDEF
  5
70
330
5F
100
AcDbEntity
  8
ASHADE
  6
Continuous
 62
     7
100
AcDbText
 10
0.0
 20
-0.3
 30
0.0
 40
0.01
  1
0.0
100
AcDbAttributeDefinition
280
     0
  3
Cone Delta
  2
CONEDE
 70
     1
280
     0
  0
ATTDEF
  5
71
330
5F
100
AcDbEntity
  8
ASHADE
  6
Continuous
 62
     7
100
AcDbText
 10
0.0
 20
-0.2850000000000001
 30
0.0
 40
0.01
  1
10.0
100
AcDbAttributeDefinition
280
     0
  3
Cone Angle
  2
CONEAN
 70
     1
280
     0
  0
ATTDEF
  5
72
330
5F
100
AcDbEntity
  8
ASHADE
  6
Continuous
 62
     7
100
AcDbText
 10
0.0
 20
-0.27
 30
0.0
 40
0.01
  1
-1
100
AcDbAttributeDefinition
280
     0
  3
*not used*
  2
BIASMAX
 70
     1
280
     0
  0
ATTDEF
  5
73
330
5F
100
AcDbEntity
  8
ASHADE
  6
Continuous
 62
     7
100
AcDbText
 10
0.0
 20
-0.255
 30
0.0
 40
0.01
  1
-1
100
AcDbAttributeDefinition
280
     0
  3
*not used*
  2
BIASMIN
 70
     1
280
     0
  0
ATTDEF
  5
74
330
5F
100
AcDbEntity
  8
ASHADE
  6
Continuous
 62
     7
100
AcDbText
 10
0.0
 20
-0.225
 30
0.0
 40
0.01
  1
1,1,1
100
AcDbAttributeDefinition
280
     0
  3
Light Color (RGB)
  2
COLOR
 70
     1
280
     0
  0
ATTDEF
  5
75
330
5F
100
AcDbEntity
  8
ASHADE
  6
Continuous
 62
     7
100
AcDbText
 10
0.0
 20
-0.21
 30
0.0
 40
0.01
  1
1
100
AcDbAttributeDefinition
280
     0
  3
Light Intensity
  2
INTENSITY
 70
     1
280
     0
  0
ATTDEF
  5
76
330
5F
100
AcDbEntity
  8
ASHADE
  6
Continuous
 62
     7
100
AcDbText
 10
0.0
 20
-0.15
 30
0.0
 40
0.01
  1

100
AcDbAttributeDefinition
280
     0
  3

  2
GNAME
 70
     1
280
     0
  0
ATTDEF
  5
77
330
5F
100
AcDbEntity
  8
ASHADE
  6
Continuous
 62
     7
100
AcDbText
 10
0.0
 20
-0.195
 30
0.0
 40
0.01
  1

100
AcDbAttributeDefinition
280
     0
  3
Look-at Z
  2
LAZ
 70
     1
280
     0
  0
ATTDEF
  5
78
330
5F
100
AcDbEntity
  8
ASHADE
  6
Continuous
 62
     7
100
AcDbText
 10
0.0
 20
-0.18
 30
0.0
 40
0.01
  1

100
AcDbAttributeDefinition
280
     0
  3
Look-at Y
  2
LAY
 70
     1
280
     0
  0
ATTDEF
  5
79
330
5F
100
AcDbEntity
  8
ASHADE
  6
Continuous
 62
     7
100
AcDbText
 10
0.0
 20
-0.165
 30
0.0
 40
0.01
  1

100
AcDbAttributeDefinition
280
     0
  3
Look-at X
  2
LAX
 70
     1
280
     0
  0
LINE
  5
7A
330
5F
100
AcDbEntity
  8
ASHADE
  6
Continuous
 62
     7
100
AcDbLine
 10
0.25
 20
-0.3399999999999999
 30
0.0
 11
0.25
 21
-0.13
 31
0.0
  0
LINE
  5
7B
330
5F
100
AcDbEntity
  8
ASHADE
  6
Continuous
 62
     7
100
AcDbLine
 10
0.25
 20
-0.18
 30
0.0
 11
0.29
 21
-0.18
 31
0.0
  0
LINE
  5
7C
330
5F
100
AcDbEntity
  8
ASHADE
  6
Continuous
 62
     7
100
AcDbLine
 10
0.29
 20
-0.22
 30
0.0
 11
0.25
 21
-0.22
 31
0.0
  0
LINE
  5
7D
330
5F
100
AcDbEntity
  8
ASHADE
  6
Continuous
 62
     7
100
AcDbLine
 10
0.29
 20
-0.18
 30
0.0
 11
0.29
 21
-0.22
 31
0.0
  0
LINE
  5
7E
330
5F
100
AcDbEntity
  8
ASHADE
  6
Continuous
 62
     7
100
AcDbLine
 10
0.21
 20
0.26
 30
0.0
 11
0.301304347826087
 21
0.46
 31
0.0
  0
LINE
  5
7F
330
5F
100
AcDbEntity
  8
ASHADE
  6
Continuous
 62
     7
100
AcDbLine
 10
0.1045454545454545
 20
0.26
 30
0.0
 11
0.15
 21
0.46
 31
0.0
  0
LINE
  5
80
330
5F
100
AcDbEntity
  8
ASHADE
  6
Continuous
 62
     7
100
AcDbLine
 10
0.0
 20
0.26
 30
0.0
 11
0.0
 21
0.46
 31
0.0
  0
LINE
  5
81
330
5F
100
AcDbEntity
  8
ASHADE
  6
Continuous
 62
     7
100
AcDbLine
 10
0.25
 20
0.13
 30
0.0
 11
0.25
 21
0.26
 31
0.0
  0
LINE
  5
82
330
5F
100
AcDbEntity
  8
ASHADE
  6
Continuous
 62
     7
100
AcDbLine
 10
0.25
 20
0.22
 30
0.0
 11
0.29
 21
0.22
 31
0.0
  0
LINE
  5
83
330
5F
100
AcDbEntity
  8
ASHADE
  6
Continuous
 62
     7
100
AcDbLine
 10
0.29
 20
0.1799999999999999
 30
0.0
 11
0.25
 21
0.1799999999999999
 31
0.0
  0
LINE
  5
84
330
5F
100
AcDbEntity
  8
ASHADE
  6
Continuous
 62
     7
100
AcDbLine
 10
0.29
 20
0.22
 30
0.0
 11
0.29
 21
0.1799999999999999
 31
0.0
  0
ENDBLK
  5
86
330
5F
100
AcDbEntity
  8
0
100
AcDbBlockEnd
  0
BLOCK
  5
92
330
91
100
AcDbEntity
  8
ASHADE
100
AcDbBlockBegin
  2
AVE_RENDER
 70
     0
 10
0.0
 20
0.0
 30
0.0
  3
AVE_RENDER
  1
AVE_RENDER
  0
ENDBLK
  5
93
330
91
100
AcDbEntity
  8
0
100
AcDbBlockEnd
  0
BLOCK
  5
A0
330
9F
100
AcDbEntity
  8
ASHADE
100
AcDbBlockBegin
  2
AVE_GLOBAL
 70
     0
 10
0.0
 20
0.0
 30
0.0
  3
AVE_GLOBAL
  1
AVE_GLOBAL
  0
ENDBLK
  5
A1
330
9F
100
AcDbEntity
  8
0
100
AcDbBlockEnd
  0
ENDSEC
  0
SECTION
  2
ENTITIES
  0
INSERT
  5
94
330
1F
100
AcDbEntity
  8
ASHADE
 62
     1
100
AcDbBlockReference
  2
AVE_RENDER
 10
0.0
 20
0.0
 30
0.0
1001
AVE_RENDER
1002
{
1070
     7
1000
Pref
1070
    30
1070
    20
1070
     1
1070
     0
1000

1070
    10
1070
     1
1070
    10
1040
1.0
1070
     1
1040
0.3
1040
0.7
1040
0.0
1040
10.0
1010
-1.0
1020
-1.0
1030
-1.0
1040
0.3
1070
    49
1070
     0
1070
     0
1010
1.0
1020
1.0
1030
1.0
1040
45.0
1070
     1
1070
     0
1000
WCS
1040
0.0
1070
     0
1040
10.0
1002
}
  0
INSERT
  5
95
330
1F
100
AcDbEntity
  8
ASHADE
 62
     3
100
AcDbBlockReference
  2
AVE_RENDER
 10
0.0
 20
0.0
 30
0.0
1001
AVE_RENDER
1002
{
1070
     0
1000
Full Opt
1070
     0
1070
     1
1070
     1
1070
     1
1070
     0
1070
     0
1070
     0
1070
     1
1070
     1
1040
0.0001
1040
0.0001
1002
}
  0
INSERT
  5
96
330
1F
100
AcDbEntity
  8
ASHADE
 62
     4
100
AcDbBlockReference
  2
AVE_RENDER
 10
0.0
 20
0.0
 30
0.0
1001
AVE_RENDER
1002
{
1070
     0
1000
Quick Opt
1070
     0
1070
     1
1070
     1
1070
     1
1070
     0
1070
     0
1070
     1
1002
}
  0
INSERT
  5
97
330
1F
100
AcDbEntity
  8
ASHADE
 62
     5
100
AcDbBlockReference
  2
AVE_RENDER
 10
0.0
 20
0.0
 30
0.0
1001
AVE_RENDER
1002
{
1070
     1
1000
Scanl Opt
1070
     2
1070
     0
1070
     2
1040
2.0
1040
4.0
1070
     0
1070
     1
1070
     0
1040
0.03
1002
}
  0
INSERT
  5
98
330
1F
100
AcDbEntity
  8
ASHADE
 62
     6
100
AcDbBlockReference
  2
AVE_RENDER
 10
0.0
 20
0.0
 30
0.0
1001
AVE_RENDER
1002
{
1070
     2
1000
Raytr Opt
1070
     2
1070
     0
1070
     2
1040
2.0
1040
4.0
1070
     0
1070
     1
1070
     1
1040
0.03
1070
     3
1040
0.03
1002
}
  0
INSERT
  5
99
330
1F
100
AcDbEntity
  8
ASHADE
 62
     7
100
AcDbBlockReference
  2
AVE_RENDER
 10
0.0
 20
0.0
 30
0.0
1001
AVE_RENDER
1002
{
1070
     0
1000
RFile Opt
1070
     1
1070
   640
1070
   480
1070
 10000
1070
     1
1070
     8
1070
     8
1070
     0
1070
     0
1070
     0
1070
     0
1070
     0
1070
     0
1070
     0
1002
}
  0
INSERT
  5
9A
330
1F
100
AcDbEntity
  8
ASHADE
 62
     8
100
AcDbBlockReference
  2
AVE_RENDER
 10
0.0
 20
0.0
 30
0.0
1001
AVE_RENDER
1002
{
1070
     0
1000
Fog Opt
1070
     0
1070
     0
1040
0.0
1040
1.0
1040
0.0
1040
1.0
1010
0.5
1020
0.5
1030
0.5
1002
}
  0
INSERT
  5
9B
330
1F
100
AcDbEntity
  8
ASHADE
 62
     9
100
AcDbBlockReference
  2
AVE_RENDER
 10
0.0
 20
0.0
 30
0.0
1001
AVE_RENDER
1002
{
1070
     0
1000
BG Opt
1070
     0
1070
     1
1010
0.0
1020
0.0
1030
0.0
1010
1.0
1020
0.0
1030
0.0
1010
0.0
1020
1.0
1030
0.0
1010
0.0
1020
0.0
1030
1.0
1040
0.5
1040
0.33
1040
0.0
1000

1070
     1
1000

1070
     1
1070
     1
1040
1.0
1040
1.0
1040
0.0
1040
0.0
1070
     0
1002
}
  0
INSERT
  5
A2
330
1F
100
AcDbEntity
  8
ASHADE
 62
     1
100
AcDbBlockReference
  2
AVE_GLOBAL
 10
0.0
 20
0.0
 30
0.0
1001
AVE_MATERIAL
1002
{
1000
*GLOBAL*
1000
2
1000
Global finish.
1002
{
1002
}
1002
{
1070
    63
1002
{
1002
{
1010
-1.0
1020
-1.0
1030
-1.0
1002
}
1040
0.1000000014901161
1000

1040
0.0
1002
{
1002
}
1040
0.0
1002
{
1002
}
1040
0.0
1002
}
1002
{
1002
{
1010
-1.0
1020
-1.0
1030
-1.0
1002
}
1040
0.6999999880790711
1000

1040
0.0
1002
{
1002
}
1040
0.0
1002
{
1002
}
1040
0.0
1002
}
1002
{
1002
{
1010
-1.0
1020
-1.0
1030
-1.0
1002
}
1040
0.2000000029802322
1000

1040
0.0
1002
{
1002
}
1040
0.0
1002
{
1002
}
1040
0.0
1002
}
1002
{
1070
     0
1002
{
1070
     1
1002
{
1040
1.0
1040
1.0
1000

1040
0.0
1002
{
1002
}
1040
0.0
1002
{
1002
}
1040
0.0
1002
}
1002
}
1040
1.0
1040
0.0
1040
0.0
1002
}
1002
{
1040
1.0
1040
1.0
1000

1040
0.0
1002
{
1002
}
1040
0.0
1002
{
1002
}
1040
0.0
1002
}
1002
{
1040
0.5
1040
1.0
1000

1040
0.0
1002
{
1002
}
1040
0.0
1002
{
1002
}
1040
0.0
1002
}
1002
{
1070
     0
1040
0.0
1002
{
1002
}
1040
1.0
1002
{
1002
}
1040
0.0
1002
}
1002
{
1040
0.0
1002
{
1002
{
1010
0.0
1020
0.0
1030
0.0
1002
}
1040
1.0
1000

1040
0.0
1002
{
1002
}
1040
0.0
1002
{
1002
}
1040
0.0
1002
}
1002
}
1002
{
1002
{
1070
     1
1002
{
1040
0.0
1040
1.0
1000

1040
0.0
1002
{
1002
}
1040
0.0
1002
{
1002
}
1040
0.0
1002
}
1002
}
1040
0.0
1002
{
1002
}
1010
1.0
1020
0.0
1030
0.0
1010
0.0
1020
1.0
1030
0.0
1010
0.0
1020
0.0
1030
1.0
1070
     0
1002
}
1002
{
1002
{
1040
1.0
1040
1.0
1002
{
1070
     1
1002
{
1040
1.0
1040
1.0
1000

1040
0.0
1002
{
1002
}
1040
0.0
1002
{
1002
}
1040
0.0
1002
}
1002
}
1002
}
1070
     0
1040
0.0
1002
{
1002
}
1002
}
1002
{
1002
}
1002
}
1002
{
1071
        3
1070
     3
1070
     0
1002
{
1070
     2
1070
     0
1070
     0
1040
0.0
1002
}
1070
     0
1070
     2
1002
{
1002
}
1002
}
1002
{
1040
8030.0
1040
190.3000030517578
1040
0.3050000071525574
1040
228.0
1040
545.0
1040
14.0
1040
17.39999961853027
1040
0.4560000002384186
1002
}
1002
}
  0
POLYLINE
  5
F9
330
1F
100
AcDbEntity
  8
OracDecor_indirect_lighting
 62
   183
420
  9197793
100
AcDb3dPolyline
 66
     1
 10
0.0
 20
0.0
 30
0.0
 70
     9
  0
VERTEX
  5
FA
330
F9
100
AcDbEntity
  8
OracDecor_indirect_lighting
 62
   183
420
  9197793
100
AcDbVertex
100
AcDb3dPolylineVertex
 10
0.0000304218738165
 20
39.563720703125
 30
-14.088134765625
 70
    32
  0
VERTEX
  5
FB
330
F9
100
AcDbEntity
  8
OracDecor_indirect_lighting
 62
   183
420
  9197793
100
AcDbVertex
100
AcDb3dPolylineVertex
 10
0.0000320438375638
 20
39.0125732421875
 30
-28.167236328125
 70
    32
  0
VERTEX
  5
FC
330
F9
100
AcDbEntity
  8
OracDecor_indirect_lighting
 62
   183
420
  9197793
100
AcDbVertex
100
AcDb3dPolylineVertex
 10
0.0000321265142702
 20
38.8394775390625
 30
-28.884765625
 70
    32
  0
VERTEX
  5
FD
330
F9
100
AcDbEntity
  8
OracDecor_indirect_lighting
 62
   183
420
  9197793
100
AcDbVertex
100
AcDb3dPolylineVertex
 10
0.0000321962943417
 20
38.4178466796875
 30
-29.4906005859375
 70
    32
  0
VERTEX
  5
FE
330
F9
100
AcDbEntity
  8
OracDecor_indirect_lighting
 62
   183
420
  9197793
100
AcDbVertex
100
AcDb3dPolylineVertex
 10
0.0000322436972056
 20
37.80517578125
 30
-29.90234375
 70
    32
  0
VERTEX
  5
FF
330
F9
100
AcDbEntity
  8
OracDecor_indirect_lighting
 62
   183
420
  9197793
100
AcDbVertex
100
AcDb3dPolylineVertex
 10
0.0000322623200191
 20
37.0849609375
 30
-30.0638427734375
 70
    32
  0
VERTEX
  5
100
330
F9
100
AcDbEntity
  8
OracDecor_indirect_lighting
 62
   183
420
  9197793
100
AcDbVertex
100
AcDb3dPolylineVertex
 10
-0.0000286236154352
 20
0.0000000000046758
 30
-31.35888671875
 70
    32
  0
VERTEX
  5
101
330
F9
100
AcDbEntity
  8
OracDecor_indirect_lighting
 62
   183
420
  9197793
100
AcDbVertex
100
AcDb3dPolylineVertex
 10
-0.0000277821836789
 20
0.0000000000045388
 30
-38.662841796875
 70
    32
  0
VERTEX
  5
102
330
F9
100
AcDbEntity
  8
OracDecor_indirect_lighting
 62
   183
420
  9197793
100
AcDbVertex
100
AcDb3dPolylineVertex
 10
0.0000333986354235
 20
36.2113037109375
 30
-39.9273681640625
 70
    32
  0
VERTEX
  5
103
330
F9
100
AcDbEntity
  8
OracDecor_indirect_lighting
 62
   183
420
  9197793
100
AcDbVertex
100
AcDb3dPolylineVertex
 10
0.0000334201940859
 20
36.989013671875
 30
-40.1146240234375
 70
    32
  0
VERTEX
  5
104
330
F9
100
AcDbEntity
  8
OracDecor_indirect_lighting
 62
   183
420
  9197793
100
AcDbVertex
100
AcDb3dPolylineVertex
 10
0.0000334751312039
 20
37.631103515625
 30
-40.59155273437499
 70
    32
  0
VERTEX
  5
105
330
F9
100
AcDbEntity
  8
OracDecor_indirect_lighting
 62
   183
420
  9197793
100
AcDbVertex
100
AcDb3dPolylineVertex
 10
0.0000335547119903
 20
38.0350341796875
 30
-41.2821044921875
 70
    32
  0
VERTEX
  5
106
330
F9
100
AcDbEntity
  8
OracDecor_indirect_lighting
 62
   183
420
  9197793
100
AcDbVertex
100
AcDb3dPolylineVertex
 10
0.0000336461234838
 20
38.135986328125
 30
-42.0755615234375
 70
    32
  0
VERTEX
  5
107
330
F9
100
AcDbEntity
  8
OracDecor_indirect_lighting
 62
   183
420
  9197793
100
AcDbVertex
100
AcDb3dPolylineVertex
 10
0.0000369000299543
 20
35.3333740234375
 30
-70.321044921875
 70
    32
  0
VERTEX
  5
108
330
F9
100
AcDbEntity
  8
OracDecor_indirect_lighting
 62
   183
420
  9197793
100
AcDbVertex
100
AcDb3dPolylineVertex
 10
0.0000401346478611
 20
31.172119140625
 30
-98.3985595703125
 70
    32
  0
VERTEX
  5
109
330
F9
100
AcDbEntity
  8
OracDecor_indirect_lighting
 62
   183
420
  9197793
100
AcDbVertex
100
AcDb3dPolylineVertex
 10
0.0000402083387598
 20
30.9444580078125
 30
-99.03833007812501
 70
    32
  0
VERTEX
  5
10A
330
F9
100
AcDbEntity
  8
OracDecor_indirect_lighting
 62
   183
420
  9197793
100
AcDbVertex
100
AcDb3dPolylineVertex
 10
0.0000402690166084
 20
30.5159912109375
 30
-99.56494140625
 70
    32
  0
VERTEX
  5
10B
330
F9
100
AcDbEntity
  8
OracDecor_indirect_lighting
 62
   183
420
  9197793
100
AcDbVertex
100
AcDb3dPolylineVertex
 10
0.0000403096746595
 20
29.9359130859375
 30
-99.91796875
 70
    32
  0
VERTEX
  5
10C
330
F9
100
AcDbEntity
  8
OracDecor_indirect_lighting
 62
   183
420
  9197793
100
AcDbVertex
100
AcDb3dPolylineVertex
 10
0.0000403256271966
 20
29.2711181640625
 30
-100.0565185546875
 70
    32
  0
VERTEX
  5
10D
330
F9
100
AcDbEntity
  8
OracDecor_indirect_lighting
 62
   183
420
  9197793
100
AcDbVertex
100
AcDb3dPolylineVertex
 10
-0.0000205917276617
 20
0.0000000000033673
 30
-101.0787353515625
 70
    32
  0
VERTEX
  5
10E
330
F9
100
AcDbEntity
  8
OracDecor_indirect_lighting
 62
   183
420
  9197793
100
AcDbVertex
100
AcDb3dPolylineVertex
 10
-0.000019680839614
 20
0.0000000000032189
 30
-108.985595703125
 70
    32
  0
VERTEX
  5
10F
330
F9
100
AcDbEntity
  8
OracDecor_indirect_lighting
 62
   183
420
  9197793
100
AcDbVertex
100
AcDb3dPolylineVertex
 10
0.0000414617170463
 20
26.702392578125
 30
-109.9180908203125
 70
    32
  0
VERTEX
  5
110
330
F9
100
AcDbEntity
  8
OracDecor_indirect_lighting
 62
   183
420
  9197793
100
AcDbVertex
100
AcDb3dPolylineVertex
 10
0.0000414863097831
 20
27.5343017578125
 30
-110.131591796875
 70
    32
  0
VERTEX
  5
111
330
F9
100
AcDbEntity
  8
OracDecor_indirect_lighting
 62
   183
420
  9197793
100
AcDbVertex
100
AcDb3dPolylineVertex
 10
0.0000415488575527
 20
28.199951171875
 30
-110.6744384765625
 70
    32
  0
VERTEX
  5
112
330
F9
100
AcDbEntity
  8
OracDecor_indirect_lighting
 62
   183
420
  9197793
100
AcDbVertex
100
AcDb3dPolylineVertex
 10
0.0000416377806687
 20
28.5765380859375
 30
-111.4462890625
 70
    32
  0
VERTEX
  5
113
330
F9
100
AcDbEntity
  8
OracDecor_indirect_lighting
 62
   183
420
  9197793
100
AcDbVertex
100
AcDb3dPolylineVertex
 10
0.0000417366682086
 20
28.5946044921875
 30
-112.304931640625
 70
    32
  0
VERTEX
  5
114
330
F9
100
AcDbEntity
  8
OracDecor_indirect_lighting
 62
   183
420
  9197793
100
AcDbVertex
100
AcDb3dPolylineVertex
 10
0.0000425092548539
 20
27.2230224609375
 30
-119.0113525390625
 70
    32
  0
VERTEX
  5
115
330
F9
100
AcDbEntity
  8
OracDecor_indirect_lighting
 62
   183
420
  9197793
100
AcDbVertex
100
AcDb3dPolylineVertex
 10
-0.0000161376883625
 20
21.7720947265625
 30
-139.74169921875
 70
    32
  0
VERTEX
  5
116
330
F9
100
AcDbEntity
  8
OracDecor_indirect_lighting
 62
   183
420
  9197793
100
AcDbVertex
100
AcDb3dPolylineVertex
 10
-0.0000141042564792
 20
14.327880859375
 30
-157.3927001953125
 70
    32
  0
VERTEX
  5
117
330
F9
100
AcDbEntity
  8
OracDecor_indirect_lighting
 62
   183
420
  9197793
100
AcDbVertex
100
AcDb3dPolylineVertex
 10
-0.0000135258214868
 20
11.2171630859375
 30
-162.41357421875
 70
    32
  0
VERTEX
  5
118
330
F9
100
AcDbEntity
  8
OracDecor_indirect_lighting
 62
   183
420
  9197793
100
AcDbVertex
100
AcDb3dPolylineVertex
 10
-0.0000130180396809
 20
7.2857666015625
 30
-166.821533203125
 70
    32
  0
VERTEX
  5
119
330
F9
100
AcDbEntity
  8
OracDecor_indirect_lighting
 62
   183
420
  9197793
100
AcDbVertex
100
AcDb3dPolylineVertex
 10
-0.0000128645597215
 20
5.5645751953125
 30
-168.153564453125
 70
    32
  0
VERTEX
  5
11A
330
F9
100
AcDbEntity
  8
OracDecor_indirect_lighting
 62
   183
420
  9197793
100
AcDbVertex
100
AcDb3dPolylineVertex
 10
-0.0000127436078401
 20
3.658203125
 30
-169.20361328125
 70
    32
  0
VERTEX
  5
11B
330
F9
100
AcDbEntity
  8
OracDecor_indirect_lighting
 62
   183
420
  9197793
100
AcDbVertex
100
AcDb3dPolylineVertex
 10
-0.0000126750646814
 20
1.8719482421875
 30
-169.7984619140625
 70
    32
  0
VERTEX
  5
11C
330
F9
100
AcDbEntity
  8
OracDecor_indirect_lighting
 62
   183
420
  9197793
100
AcDbVertex
100
AcDb3dPolylineVertex
 10
-0.0000126518552861
 20
0.0000000000020737
 30
-169.9998779296875
 70
    32
  0
VERTEX
  5
11D
330
F9
100
AcDbEntity
  8
OracDecor_indirect_lighting
 62
   183
420
  9197793
100
AcDbVertex
100
AcDb3dPolylineVertex
 10
-0.0000114998347271
 20
0.000000000001886
 30
-179.9998779296875
 70
    32
  0
VERTEX
  5
11E
330
F9
100
AcDbEntity
  8
OracDecor_indirect_lighting
 62
   183
420
  9197793
100
AcDbVertex
100
AcDb3dPolylineVertex
 10
-0.0000115066632134
 20
1.208984375
 30
-179.940673828125
 70
    32
  0
VERTEX
  5
11F
330
F9
100
AcDbEntity
  8
OracDecor_indirect_lighting
 62
   183
420
  9197793
100
AcDbVertex
100
AcDb3dPolylineVertex
 10
-0.0000115453485705
 20
3.05615234375
 30
-179.6051025390625
 70
    32
  0
VERTEX
  5
120
330
F9
100
AcDbEntity
  8
OracDecor_indirect_lighting
 62
   183
420
  9197793
100
AcDbVertex
100
AcDb3dPolylineVertex
 10
-0.0000116511346278
 20
5.646728515625
 30
-178.6865234375
 70
    32
  0
VERTEX
  5
121
330
F9
100
AcDbEntity
  8
OracDecor_indirect_lighting
 62
   183
420
  9197793
100
AcDbVertex
100
AcDb3dPolylineVertex
 10
-0.0000118411016956
 20
8.4971923828125
 30
-177.0377197265625
 70
    32
  0
VERTEX
  5
122
330
F9
100
AcDbEntity
  8
OracDecor_indirect_lighting
 62
   183
420
  9197793
100
AcDbVertex
100
AcDb3dPolylineVertex
 10
-0.0000121066668726
 20
11.3155517578125
 30
-174.7325439453125
 70
    32
  0
VERTEX
  5
123
330
F9
100
AcDbEntity
  8
OracDecor_indirect_lighting
 62
   183
420
  9197793
100
AcDbVertex
100
AcDb3dPolylineVertex
 10
-0.0000124305333884
 20
14.025634765625
 30
-171.9212646484375
 70
    32
  0
VERTEX
  5
124
330
F9
100
AcDbEntity
  8
OracDecor_indirect_lighting
 62
   183
420
  9197793
100
AcDbVertex
100
AcDb3dPolylineVertex
 10
-0.0000127221865114
 20
16.039306640625
 30
-169.3895263671875
 70
    32
  0
VERTEX
  5
125
330
F9
100
AcDbEntity
  8
OracDecor_indirect_lighting
 62
   183
420
  9197793
100
AcDbVertex
100
AcDb3dPolylineVertex
 10
-0.0000130854195959
 20
18.216552734375
 30
-166.2364501953125
 70
    32
  0
VERTEX
  5
126
330
F9
100
AcDbEntity
  8
OracDecor_indirect_lighting
 62
   183
420
  9197793
100
AcDbVertex
100
AcDb3dPolylineVertex
 10
-0.0000135601658258
 20
20.6573486328125
 30
-162.1153564453125
 70
    32
  0
VERTEX
  5
127
330
F9
100
AcDbEntity
  8
OracDecor_indirect_lighting
 62
   183
420
  9197793
100
AcDbVertex
100
AcDb3dPolylineVertex
 10
0.000046782388381
 20
23.6798095703125
 30
-156.1036376953125
 70
    32
  0
VERTEX
  5
128
330
F9
100
AcDbEntity
  8
OracDecor_indirect_lighting
 62
   183
420
  9197793
100
AcDbVertex
100
AcDb3dPolylineVertex
 10
0.000046103468776
 20
26.2376708984375
 30
-150.2103271484375
 70
    32
  0
VERTEX
  5
129
330
F9
100
AcDbEntity
  8
OracDecor_indirect_lighting
 62
   183
420
  9197793
100
AcDbVertex
100
AcDb3dPolylineVertex
 10
0.0000454235996585
 20
28.5048828125
 30
-144.3087158203125
 70
    32
  0
VERTEX
  5
12A
330
F9
100
AcDbEntity
  8
OracDecor_indirect_lighting
 62
   183
420
  9197793
100
AcDbVertex
100
AcDb3dPolylineVertex
 10
0.0000446294725407
 20
30.851318359375
 30
-137.4154052734375
 70
    32
  0
VERTEX
  5
12B
330
F9
100
AcDbEntity
  8
OracDecor_indirect_lighting
 62
   183
420
  9197793
100
AcDbVertex
100
AcDb3dPolylineVertex
 10
0.0000437994858657
 20
33.0198974609375
 30
-130.2108154296875
 70
    32
  0
VERTEX
  5
12C
330
F9
100
AcDbEntity
  8
OracDecor_indirect_lighting
 62
   183
420
  9197793
100
AcDbVertex
100
AcDb3dPolylineVertex
 10
0.0000429529500252
 20
34.9881591796875
 30
-122.862548828125
 70
    32
  0
VERTEX
  5
12D
330
F9
100
AcDbEntity
  8
OracDecor_indirect_lighting
 62
   183
420
  9197793
100
AcDbVertex
100
AcDb3dPolylineVertex
 10
0.000042186515202
 20
36.59912109375
 30
-116.209716796875
 70
    32
  0
VERTEX
  5
12E
330
F9
100
AcDbEntity
  8
OracDecor_indirect_lighting
 62
   183
420
  9197793
100
AcDbVertex
100
AcDb3dPolylineVertex
 10
0.0000413719681092
 20
38.162353515625
 30
-109.1390380859375
 70
    32
  0
VERTEX
  5
12F
330
F9
100
AcDbEntity
  8
OracDecor_indirect_lighting
 62
   183
420
  9197793
100
AcDbVertex
100
AcDb3dPolylineVertex
 10
0.0000405490354751
 20
39.597900390625
 30
-101.99560546875
 70
    32
  0
VERTEX
  5
130
330
F9
100
AcDbEntity
  8
OracDecor_indirect_lighting
 62
   183
420
  9197793
100
AcDbVertex
100
AcDb3dPolylineVertex
 10
0.0000396663526772
 20
40.997802734375
 30
-94.3338623046875
 70
    32
  0
VERTEX
  5
131
330
F9
100
AcDbEntity
  8
OracDecor_indirect_lighting
 62
   183
420
  9197793
100
AcDbVertex
100
AcDb3dPolylineVertex
 10
0.0000388430562452
 20
42.18762207031249
 30
-87.18713378906249
 70
    32
  0
VERTEX
  5
132
330
F9
100
AcDbEntity
  8
OracDecor_indirect_lighting
 62
   183
420
  9197793
100
AcDbVertex
100
AcDb3dPolylineVertex
 10
0.0000380068449886
 20
43.288330078125
 30
-79.9285888671875
 70
    32
  0
VERTEX
  5
133
330
F9
100
AcDbEntity
  8
OracDecor_indirect_lighting
 62
   183
420
  9197793
100
AcDbVertex
100
AcDb3dPolylineVertex
 10
0.000037144349335
 20
44.321533203125
 30
-72.4415283203125
 70
    32
  0
VERTEX
  5
134
330
F9
100
AcDbEntity
  8
OracDecor_indirect_lighting
 62
   183
420
  9197793
100
AcDbVertex
100
AcDb3dPolylineVertex
 10
0.0000363034887414
 20
45.230712890625
 30
-65.1427001953125
 70
    32
  0
VERTEX
  5
135
330
F9
100
AcDbEntity
  8
OracDecor_indirect_lighting
 62
   183
420
  9197793
100
AcDbVertex
100
AcDb3dPolylineVertex
 10
0.0000354365292878
 20
46.07495117187499
 30
-57.6173095703125
 70
    32
  0
VERTEX
  5
136
330
F9
100
AcDbEntity
  8
OracDecor_indirect_lighting
 62
   183
420
  9197793
100
AcDbVertex
100
AcDb3dPolylineVertex
 10
0.0000345540320268
 20
46.840576171875
 30
-49.9569091796875
 70
    32
  0
VERTEX
  5
137
330
F9
100
AcDbEntity
  8
OracDecor_indirect_lighting
 62
   183
420
  9197793
100
AcDbVertex
100
AcDb3dPolylineVertex
 10
0.0000336976117978
 20
47.4990234375
 30
-42.5228271484375
 70
    32
  0
VERTEX
  5
138
330
F9
100
AcDbEntity
  8
OracDecor_indirect_lighting
 62
   183
420
  9197793
100
AcDbVertex
100
AcDb3dPolylineVertex
 10
0.0000328256282955
 20
48.0849609375
 30
-34.9537353515625
 70
    32
  0
VERTEX
  5
139
330
F9
100
AcDbEntity
  8
OracDecor_indirect_lighting
 62
   183
420
  9197793
100
AcDbVertex
100
AcDb3dPolylineVertex
 10
0.0000319405371556
 20
48.595458984375
 30
-27.2706298828125
 70
    32
  0
VERTEX
  5
13A
330
F9
100
AcDbEntity
  8
OracDecor_indirect_lighting
 62
   183
420
  9197793
100
AcDbVertex
100
AcDb3dPolylineVertex
 10
0.0000310862451443
 20
49.0101318359375
 30
-19.8551025390625
 70
    32
  0
VERTEX
  5
13B
330
F9
100
AcDbEntity
  8
OracDecor_indirect_lighting
 62
   183
420
  9197793
100
AcDbVertex
100
AcDb3dPolylineVertex
 10
0.0000302277294395
 20
49.348876953125
 30
-12.40283203125
 70
    32
  0
VERTEX
  5
13C
330
F9
100
AcDbEntity
  8
OracDecor_indirect_lighting
 62
   183
420
  9197793
100
AcDbVertex
100
AcDb3dPolylineVertex
 10
0.0000293531174975
 20
49.6197509765625
 30
-4.8106689453125
 70
    32
  0
VERTEX
  5
13D
330
F9
100
AcDbEntity
  8
OracDecor_indirect_lighting
 62
   183
420
  9197793
100
AcDbVertex
100
AcDb3dPolylineVertex
 10
0.0000287988568743
 20
49.75732421875
 30
0.0001220703125
 70
    32
  0
VERTEX
  5
13E
330
F9
100
AcDbEntity
  8
OracDecor_indirect_lighting
 62
   183
420
  9197793
100
AcDbVertex
100
AcDb3dPolylineVertex
 10
0.0000287988768832
 20
39.77783203125
 30
0.0001220703125
 70
    32
  0
SEQEND
  5
13F
330
F9
100
AcDbEntity
  8
OracDecor_indirect_lighting
 62
   183
420
  9197793
  0
MESH
  5
140
330
1F
100
AcDbEntity
  8
OracDecor_indirect_lighting
 62
   206
420
  7080072
160
             20528
310
305000003A0200000C00000013000000020000003C0000000600000002000000000000E0FF3F8FC00000000090E343C0000000000000203F000000E0FF3F8FC000000000F0E048C0000000000000203F0C000000130000000A0000003C0000000600000002000000000000E0FF3F8FC000000000F0E048C000000000000020
310
3F0000004000408F4000000000ECE048C0000000000000203F0C00000013000000120000003C00000006000000020000000000004000408F40000000008CE343C0000000000000203F0000004000408F4000000000ECE048C0000000000000203F0C000000130000001A0000003C0000000600000002000000000000E0FF3F
310
8FC00000000090E343C0000000000000203F0000004000408F40000000008CE343C0000000000000203F0C00000013000000220000003C0000000600000002000000000000E0FF3F8FC000000000F0E048C0000000000000203F000000E0FF3F8FC00000000054CF48C000000000203E13C00C000000130000002A0000003C
310
0000000600000002000000000000E0FF3F8FC00000000054CF48C000000000203E13C00000004000408F400000000050CF48C000000000203E13C00C00000013000000320000003C00000006000000020000000000004000408F400000000050CF48C000000000203E13C00000004000408F4000000000ECE048C000000000
310
0000203F0C000000130000003A0000003C0000000600000002000000000000E0FF3F8FC000000000A8AC48C00000000040CE28C0000000E0FF3F8FC00000000054CF48C000000000203E13C00C00000013000000420000003C0000000600000002000000000000E0FF3F8FC000000000A8AC48C00000000040CE28C0000000
310
4000408F4000000000A4AC48C00000000040CE28C00C000000130000004A0000003C00000006000000020000000000004000408F400000000050CF48C000000000203E13C00000004000408F4000000000A4AC48C00000000040CE28C00C00000013000000520000003C0000000600000002000000000000E0FF3F8FC00000
310
00004C8148C000000000E8DA33C0000000E0FF3F8FC000000000A8AC48C00000000040CE28C00C000000130000005A0000003C0000000600000002000000000000E0FF3F8FC0000000004C8148C000000000E8DA33C00000004000408F4000000000488148C000000000E8DA33C00C00000013000000620000003C00000006
310
000000020000000000004000408F4000000000488148C000000000E8DA33C00000004000408F4000000000A4AC48C00000000040CE28C00C000000130000006A0000003C0000000600000002000000000000E0FF3F8FC000000000384C48C00000000048453BC0000000E0FF3F8FC0000000004C8148C000000000E8DA33C0
310
0C00000013000000720000003C0000000600000002000000000000E0FF3F8FC000000000384C48C00000000048453BC00000004000408F4000000000344C48C00000000048453BC00C000000130000007A0000003C00000006000000020000000000004000408F4000000000344C48C00000000048453BC00000004000408F
310
4000000000488148C000000000E8DA33C00C00000013000000820000003C0000000600000002000000000000E0FF3F8FC000000000E00A48C000000000147A41C0000000E0FF3F8FC000000000384C48C00000000048453BC00C000000130000008A0000003C0000000600000002000000000000E0FF3F8FC000000000E00A
310
48C000000000147A41C00000004000408F4000000000DC0A48C000000000147A41C00C00000013000000920000003C00000006000000020000000000004000408F4000000000DC0A48C000000000147A41C00000004000408F4000000000344C48C00000000048453BC00C000000130000009A0000003C0000000600000002
310
000000000000E0FF3F8FC000000000E0BF47C000000000EC4245C0000000E0FF3F8FC000000000E00A48C000000000147A41C00C00000013000000A20000003C0000000600000002000000000000E0FF3F8FC000000000E0BF47C000000000EC4245C00000004000408F4000000000DCBF47C000000000EC4245C00C000000
310
13000000AA0000003C00000006000000020000000000004000408F4000000000DCBF47C000000000EC4245C00000004000408F4000000000DC0A48C000000000147A41C00C00000013000000B20000003C0000000600000002000000000000E0FF3F8FC000000000986B47C0000000007CFA48C0000000E0FF3F8FC0000000
310
00E0BF47C000000000EC4245C00C00000013000000BA0000003C0000000600000002000000000000E0FF3F8FC000000000986B47C0000000007CFA48C00000004000408F4000000000946B47C0000000007CFA48C00C00000013000000C20000003C00000006000000020000000000004000408F4000000000946B47C00000
310
00007CFA48C00000004000408F4000000000DCBF47C000000000EC4245C00C00000013000000CA0000003C0000000600000002000000000000E0FF3F8FC000000000980947C00000000004CF4CC0000000E0FF3F8FC000000000986B47C0000000007CFA48C00C00000013000000D20000003C000000060000000200000000
310
0000E0FF3F8FC000000000980947C00000000004CF4CC00000004000408F4000000000940947C00000000004CF4CC00C00000013000000DA0000003C00000006000000020000000000004000408F4000000000946B47C0000000007CFA48C00000004000408F4000000000940947C00000000004CF4CC00C00000013000000
310
E20000003C0000000600000002000000000000E0FF3F8FC000000000889D46C000000000224950C0000000E0FF3F8FC000000000980947C00000000004CF4CC00C00000013000000EA0000003C0000000600000002000000000000E0FF3F8FC000000000889D46C000000000224950C00000004000408F4000000000849D46
310
C000000000224950C00C00000013000000F20000003C00000006000000020000000000004000408F4000000000940947C00000000004CF4CC00000004000408F4000000000849D46C000000000224950C00C00000013000000FA0000003C0000000600000002000000000000E0FF3F8FC000000000282946C000000000421C
310
52C0000000E0FF3F8FC000000000889D46C000000000224950C00C00000013000000020100003C0000000600000002000000000000E0FF3F8FC000000000282946C000000000421C52C00000004000408F4000000000242946C000000000421C52C00C000000130000000A0100003C00000006000000020000000000004000
310
408F4000000000849D46C000000000224950C00000004000408F4000000000242946C000000000421C52C00C00000013000000120100003C0000000600000002000000000000E0FF3F8FC000000000E8A445C0000000006EFB53C0000000E0FF3F8FC000000000282946C000000000421C52C00C000000130000001A010000
310
3C0000000600000002000000000000E0FF3F8FC000000000E8A445C0000000006EFB53C00000004000408F4000000000E4A445C0000000006EFB53C00C00000013000000220100003C00000006000000020000000000004000408F4000000000242946C000000000421C52C00000004000408F4000000000E4A445C0000000
310
006EFB53C00C000000130000002A0100003C0000000600000002000000000000E0FF3F8FC000000000041845C000000000FACB55C0000000E0FF3F8FC000000000E8A445C0000000006EFB53C00C00000013000000320100003C0000000600000002000000000000E0FF3F8FC000000000041845C000000000FACB55C00000
310
004000408F4000000000001845C000000000FACB55C00C000000130000003A0100003C00000006000000020000000000004000408F4000000000E4A445C0000000006EFB53C00000004000408F4000000000001845C000000000FACB55C00C00000013000000420100003C0000000600000002000000000000E0FF3F8FC000
310
000000B87F44C0000000005E9557C0000000E0FF3F8FC000000000041845C000000000FACB55C00C000000130000004A0100003C0000000600000002000000000000E0FF3F8FC000000000B87F44C0000000005E9557C00000004000408F4000000000B47F44C0000000005E9557C00C00000013000000520100003C000000
310
06000000020000000000004000408F4000000000001845C000000000FACB55C00000004000408F4000000000B47F44C0000000005E9557C00C000000130000005A0100003C0000000600000002000000000000E0FF3F8FC00000000088CC43C000000000B87F59C0000000E0FF3F8FC000000000B87F44C0000000005E9557
310
C00C00000013000000620100003C0000000600000002000000000000E0FF3F8FC00000000088CC43C000000000B87F59C00000004000408F400000000084CC43C000000000B87F59C00C000000130000006A0100003C00000006000000020000000000004000408F4000000000B47F44C0000000005E9557C0000000400040
310
8F400000000084CC43C000000000B87F59C00C00000013000000720100003C0000000600000002000000000000E0FF3F8FC000000000C81443C000000000E6485BC0000000E0FF3F8FC00000000088CC43C000000000B87F59C00C000000130000007A0100003C0000000600000002000000000000E0FF3F8FC000000000C8
310
1443C000000000E6485BC00000004000408F4000000000C41443C000000000E6485BC00C00000013000000820100003C00000006000000020000000000004000408F4000000000C41443C000000000E6485BC00000004000408F400000000084CC43C000000000B87F59C00C000000130000008A0100003C00000006000000
310
02000000000000E0FF3F8FC000000000B04C42C0000000006C0D5DC0000000E0FF3F8FC000000000C81443C000000000E6485BC00C00000013000000920100003C0000000600000002000000000000E0FF3F8FC000000000B04C42C0000000006C0D5DC00000004000408F4000000000AC4C42C0000000006C0D5DC00C0000
310
00130000009A0100003C00000006000000020000000000004000408F4000000000C41443C000000000E6485BC00000004000408F4000000000AC4C42C0000000006C0D5DC00C00000013000000A20100003C0000000600000002000000000000E0FF3F8FC0000000007C7E41C00000000034B75EC0000000E0FF3F8FC00000
310
0000B04C42C0000000006C0D5DC00C00000013000000AA0100003C0000000600000002000000000000E0FF3F8FC0000000007C7E41C00000000034B75EC00000004000408F4000000000787E41C00000000034B75EC00C00000013000000B20100003C00000006000000020000000000004000408F4000000000AC4C42C000
310
0000006C0D5DC00000004000408F4000000000787E41C00000000034B75EC00C00000013000000BA0100003C0000000600000002000000000000E0FF3F8FC0000000008C8240C000000000BF4660C0000000E0FF3F8FC0000000007C7E41C00000000034B75EC00C00000013000000C20100003C0000000600000002000000
310
000000E0FF3F8FC0000000008C8240C000000000BF4660C00000004000408F4000000000888240C000000000BF4660C00C00000013000000CA0100003C00000006000000020000000000004000408F4000000000787E41C00000000034B75EC00000004000408F4000000000888240C000000000BF4660C00C000000130000
310
00D20100003C0000000600000002000000000000E0FF3F8FC000000000F0D93EC0000000004B2D61C0000000E0FF3F8FC0000000008C8240C000000000BF4660C00C00000013000000DA0100003C0000000600000002000000000000E0FF3F8FC000000000F0D93EC0000000004B2D61C00000004000408F4000000000E8D9
310
3EC0000000004B2D61C00C00000013000000E20100003C00000006000000020000000000004000408F4000000000E8D93EC0000000004B2D61C00000004000408F4000000000888240C000000000BF4660C00C00000013000000EA0100003C0000000600000002000000000000E0FF3F8FC00000000040813CC000000000E1
310
0962C0000000E0FF3F8FC000000000F0D93EC0000000004B2D61C00C00000013000000F20100003C0000000600000002000000000000E0FF3F8FC00000000040813CC000000000E10962C00000004000408F400000000038813CC000000000E10962C00C00000013000000FA0100003C000000060000000200000000000040
310
00408F4000000000E8D93EC0000000004B2D61C00000004000408F400000000038813CC000000000E10962C00C00000013000000020200003C0000000600000002000000000000E0FF3F8FC000000000D83C3AC000000000BBC662C0000000E0FF3F8FC00000000040813CC000000000E10962C00C000000130000000A0200
310
003C0000000600000002000000000000E0FF3F8FC000000000D83C3AC000000000BBC662C00000004000408F4000000000D03C3AC000000000BBC662C00C00000013000000120200003C00000006000000020000000000004000408F4000000000D03C3AC000000000BBC662C00000004000408F400000000038813CC00000
310
0000E10962C00C000000130000001A0200003C0000000600000002000000000000E0FF3F8FC00000000008AE37C000000000518363C0000000E0FF3F8FC000000000D83C3AC000000000BBC662C00C00000013000000220200003C0000000600000002000000000000E0FF3F8FC00000000008AE37C000000000518363C000
310
00004000408F400000000000AE37C000000000518363C00C000000130000002A0200003C00000006000000020000000000004000408F4000000000D03C3AC000000000BBC662C00000004000408F400000000000AE37C000000000518363C00C00000013000000320200003C0000000600000002000000000000E0FF3F8FC0
310
0000000048A834C000000000B14364C0000000E0FF3F8FC00000000008AE37C000000000518363C00C000000130000003A0200003C0000000600000002000000000000E0FF3F8FC00000000048A834C000000000B14364C00000002000408F400000000040A834C000000000B14364C00C00000013000000420200003C0000
310
0006000000020000000000004000408F400000000000AE37C000000000518363C00000002000408F400000000040A834C000000000B14364C00C000000130000004A0200003C0000000600000002000000000000E0FF3F8FC000000000703732C00000000091C764C0000000E0FF3F8FC00000000048A834C000000000B143
310
64C00C00000013000000520200003C0000000600000002000000000000E0FF3F8FC000000000703732C00000000091C764C00000002000408F4000000000683732C00000000091C764C00C000000130000005A0200003C00000006000000020000000000002000408F400000000040A834C000000000B14364C00000002000
310
408F4000000000683732C00000000091C764C00C00000013000000620200003C0000000600000002000000000000E0FF3F8FC000000000100A30C000000000772C65C0000000E0FF3F8FC000000000703732C00000000091C764C00C000000130000006A0200003C0000000600000002000000000000E0FF3F8FC000000000
310
100A30C000000000772C65C00000002000408F4000000000080A30C000000000772C65C00C00000013000000720200003C00000006000000020000000000002000408F4000000000683732C00000000091C764C00000002000408F4000000000080A30C000000000772C65C00C000000130000007A0200003C000000060000
310
0002000000000000E0FF3F8FC000000000200D2CC0000000007B7D65C0000000E0FF3F8FC000000000100A30C000000000772C65C00C00000013000000820200003C0000000600000002000000000000E0FF3F8FC000000000200D2CC0000000007B7D65C00000002000408F4000000000100D2CC0000000007B7D65C00C00
310
0000130000008A0200003C00000006000000020000000000002000408F4000000000080A30C000000000772C65C00000002000408F4000000000100D2CC0000000007B7D65C00C00000013000000920200003C0000000600000002000000000000E0FF3F8FC00000000090A126C00000000071D765C0000000E0FF3F8FC000
310
000000200D2CC0000000007B7D65C00C000000130000009A0200003C0000000600000002000000000000E0FF3F8FC00000000090A126C00000000071D765C00000002000408F400000000080A126C00000000071D765C00C00000013000000A20200003C00000006000000020000000000002000408F4000000000100D2CC0
310
000000007B7D65C00000002000408F400000000080A126C00000000071D765C00C00000013000000AA0200003C0000000600000002000000000000E0FF3F8FC00000000090FE20C000000000352166C0000000E0FF3F8FC00000000090A126C00000000071D765C00C00000013000000B20200003C00000006000000020000
310
00000000E0FF3F8FC00000000090FE20C000000000352166C00000002000408F400000000080FE20C000000000352166C00C00000013000000BA0200003C00000006000000020000000000002000408F400000000080A126C00000000071D765C00000002000408F400000000080FE20C000000000352166C00C0000001300
310
0000C20200003C0000000600000002000000000000E0FF3F8FC000000000409616C000000000F85566C0000000E0FF3F8FC00000000090FE20C000000000352166C00C00000013000000CA0200003C0000000600000002000000000000E0FF3F8FC000000000409616C000000000F85566C00000002000408F400000000020
310
9616C000000000F85566C00C00000013000000D20200003C00000006000000020000000000002000408F4000000000209616C000000000F85566C00000002000408F400000000080FE20C000000000352166C00C00000013000000DA0200003C0000000600000002000000000000E0FF3F8FC000000000007308C000000000
310
5D7366C0000000E0FF3F8FC000000000409616C000000000F85566C00C00000013000000E20200003C0000000600000002000000000000E0FF3F8FC000000000007308C0000000005D7366C00000002000408F4000000000C07208C0000000005D7366C00C00000013000000EA0200003C0000000600000002000000000000
310
2000408F4000000000C07208C0000000005D7366C00000002000408F4000000000209616C000000000F85566C00C00000013000000F20200003C0000000600000002000000000000E0FF3F8FC0000000000058F3BF000000001A7E66C0000000E0FF3F8FC000000000007308C0000000005D7366C00C00000013000000FA02
310
00003C0000000600000002000000000000E0FF3F8FC0000000000058F3BF000000001A7E66C00000002000408F40000000008057F3BF000000001A7E66C00C00000013000000020300003C00000006000000020000000000002000408F40000000008057F3BF000000001A7E66C00000002000408F4000000000C07208C000
310
0000005D7366C00C000000130000000A0300003C0000000600000002000000000000E0FF3F8FC0000000000000000000000000FF7F66C0000000E0FF3F8FC0000000000058F3BF000000001A7E66C00C00000013000000120300003C0000000600000002000000000000E0FF3F8FC0000000000000000000000000FF7F66C0
310
0000002000408F40000000000000203F00000000FF7F66C00C000000130000001A0300003C00000006000000020000000000002000408F40000000000000203F00000000FF7F66C00000002000408F40000000008057F3BF000000001A7E66C00C00000013000000220300003C0000000600000002000000000000E0FF3F8F
310
C0000000000000000000000000FF7F66C0000000E0FF3F8FC0000000000000000000000000FF3F65C00C000000130000002A0300003C0000000600000002000000000000E0FF3F8FC0000000000000000000000000FF3F65C00000002000408F40000000000000203F00000000FF3F65C00C00000013000000320300003C00
310
000006000000020000000000002000408F40000000000000203F00000000FF3F65C00000002000408F40000000000000203F00000000FF7F66C00C000000130000003A0300003C0000000600000002000000000000E0FF3F8FC00000000080F3FDBF000000008D3965C0000000E0FF3F8FC0000000000000000000000000FF
310
3F65C00C00000013000000420300003C0000000600000002000000000000E0FF3F8FC00000000080F3FDBF000000008D3965C00000002000408F400000000000F3FDBF000000008D3965C00C000000130000004A0300003C00000006000000020000000000002000408F400000000000F3FDBF000000008D3965C000000020
310
00408F40000000000000203F00000000FF3F65C00C00000013000000520300003C0000000600000002000000000000E0FF3F8FC00000000000440DC000000000842665C0000000E0FF3F8FC00000000080F3FDBF000000008D3965C00C000000130000005A0300003C0000000600000002000000000000E0FF3F8FC0000000
310
0000440DC000000000842665C00000002000408F4000000000C0430DC000000000842665C00C00000013000000620300003C00000006000000020000000000002000408F400000000000F3FDBF000000008D3965C00000002000408F4000000000C0430DC000000000842665C00C000000130000006A0300003C0000000600
310
000002000000000000E0FF3F8FC00000000000440DC000000000842665C0000000E0FF3F8FC000000000204216C000000000EA0465C00C00000013000000720300003C0000000600000002000000000000E0FF3F8FC000000000204216C000000000EA0465C00000002000408F4000000000004216C000000000EA0465C00C
310
000000130000007A0300003C00000006000000020000000000002000408F4000000000C0430DC000000000842665C00000002000408F4000000000004216C000000000EA0465C00C00000013000000820300003C0000000600000002000000000000E0FF3F8FC000000000A0241DC0000000004ADA64C0000000E0FF3F8FC0
310
00000000204216C000000000EA0465C00C000000130000008A0300003C0000000600000002000000000000E0FF3F8FC000000000A0241DC0000000004ADA64C00000002000408F400000000080241DC0000000004ADA64C00C00000013000000920300003C00000006000000020000000000002000408F400000000080241D
310
C0000000004ADA64C00000002000408F4000000000004216C000000000EA0465C00C000000130000009A0300003C0000000600000002000000000000E0FF3F8FC000000000A0241DC0000000004ADA64C0000000E0FF3F8FC000000000306F26C0000000003C4D64C00C00000013000000A20300003C000000060000000200
310
0000000000E0FF3F8FC000000000306F26C0000000003C4D64C00000002000408F4000000000206F26C0000000003C4D64C00C00000013000000AA0300003C00000006000000020000000000002000408F4000000000206F26C0000000003C4D64C00000002000408F400000000080241DC0000000004ADA64C00C00000013
310
000000B20300003C0000000600000002000000000000E0FF3F8FC000000000E0A72CC00000000091AC63C0000000E0FF3F8FC000000000306F26C0000000003C4D64C00C00000013000000BA0300003C0000000600000002000000000000E0FF3F8FC000000000E0A72CC00000000091AC63C00000002000408F4000000000
310
D0A72CC00000000091AC63C00C00000013000000C20300003C00000006000000020000000000002000408F4000000000D0A72CC00000000091AC63C00000002000408F4000000000206F26C0000000003C4D64C00C00000013000000CA0300003C0000000600000002000000000000E0FF3F8FC000000000E0A72CC0000000
310
0091AC63C0000000E0FF3F8FC000000000A8C535C000000000BC7761C00C00000013000000D20300003C0000000600000002000000000000E0FF3F8FC000000000A8C535C000000000BC7761C00000002000408F4000000000A0C535C000000000BC7761C00C00000013000000DA0300003C00000006000000020000000000
310
002000408F4000000000A0C535C000000000BC7761C00000002000408F4000000000D0A72CC00000000091AC63C00C00000013000000E20300003C0000000600000002000000000000E0FF3F8FC00000000018393BC000000000BAC05DC0000000E0FF3F8FC000000000A8C535C000000000BC7761C00C00000013000000EA
310
0300003C0000000600000002000000000000E0FF3F8FC00000000018393BC000000000BAC05DC00000004000408F400000000010393BC000000000BAC05DC00C00000013000000F20300003C00000006000000020000000000004000408F400000000010393BC000000000BAC05DC00000002000408F4000000000A0C535C0
310
00000000BC7761C00C00000013000000FA0300003C0000000600000002000000000000E0FF3F8FC00000000018393BC000000000BAC05DC0000000E0FF3F8FC00000000038983CC00000000084135CC00C00000013000000020400003C0000000600000002000000000000E0FF3F8FC00000000038983CC00000000084135C
310
C00000004000408F400000000030983CC00000000084135CC00C000000130000000A0400003C00000006000000020000000000004000408F400000000030983CC00000000084135CC00000004000408F400000000010393BC000000000BAC05DC00C00000013000000120400003C0000000600000002000000000000E0FF3F
310
8FC00000000038983CC00000000084135CC0000000E0FF3F8FC00000000098933CC00000000090DC5BC00C000000130000001A0400003C0000000600000002000000000000E0FF3F8FC00000000098933CC00000000090DC5BC00000004000408F400000000090933CC00000000090DC5BC00C00000013000000220400003C
310
00000006000000020000000000004000408F400000000090933CC00000000090DC5BC00000004000408F400000000030983CC00000000084135CC00C000000130000002A0400003C0000000600000002000000000000E0FF3F8FC00000000030333CC0000000002AAB5BC0000000E0FF3F8FC00000000098933CC000000000
310
90DC5BC00C00000013000000320400003C0000000600000002000000000000E0FF3F8FC00000000030333CC0000000002AAB5BC00000004000408F400000000028333CC0000000002AAB5BC00C000000130000003A0400003C00000006000000020000000000004000408F400000000028333CC0000000002AAB5BC0000000
310
4000408F400000000090933CC00000000090DC5BC00C00000013000000420400003C0000000600000002000000000000E0FF3F8FC000000000C8883BC0000000006C885BC0000000E0FF3F8FC00000000030333CC0000000002AAB5BC00C000000130000004A0400003C0000000600000002000000000000E0FF3F8FC00000
310
0000C8883BC0000000006C885BC00000004000408F4000000000C0883BC0000000006C885BC00C00000013000000520400003C00000006000000020000000000004000408F4000000000C0883BC0000000006C885BC00000004000408F400000000028333CC0000000002AAB5BC00C000000130000005A0400003C00000006
310
00000002000000000000E0FF3F8FC000000000D0B33AC000000000C27A5BC0000000E0FF3F8FC000000000C8883BC0000000006C885BC00C00000013000000620400003C0000000600000002000000000000E0FF3F8FC000000000D0B33AC000000000C27A5BC00000004000408F4000000000C8B33AC000000000C27A5BC0
310
0C000000130000006A0400003C00000006000000020000000000004000408F4000000000C8B33AC000000000C27A5BC00000004000408F4000000000C0883BC0000000006C885BC00C00000013000000720400003C0000000600000002000000000000E0FF3F8FC000000000D0B33AC000000000C27A5BC0000000E0FF3F8F
310
C0000000000000000000000000143F5BC00C000000130000007A0400003C0000000600000002000000000000E0FF3F8FC0000000000000000000000000143F5BC00000002000408F40000000000000203F00000000143F5BC00C00000013000000820400003C00000006000000020000000000002000408F40000000000000
310
203F00000000143F5BC00000004000408F4000000000C8B33AC000000000C27A5BC00C000000130000008A0400003C0000000600000002000000000000E0FF3F8FC0000000000000000000000000143F5BC0000000E0FF3F8FC00000000000000000000000000A4559C00C00000013000000920400003C0000000600000002
310
000000000000E0FF3F8FC00000000000000000000000000A4559C00000002000408F40000000000000203F000000000A4559C00C000000130000009A0400003C00000006000000020000000000002000408F40000000000000203F000000000A4559C00000002000408F40000000000000203F00000000143F5BC00C000000
310
13000000A20400003C0000000600000002000000000000E0FF3F8FC00000000068453DC0000000009E0359C0000000E0FF3F8FC00000000000000000000000000A4559C00C00000013000000AA0400003C0000000600000002000000000000E0FF3F8FC00000000068453DC0000000009E0359C00000004000408F40000000
310
0060453DC0000000009E0359C00C00000013000000B20400003C00000006000000020000000000004000408F400000000060453DC0000000009E0359C00000002000408F40000000000000203F000000000A4559C00C00000013000000BA0400003C0000000600000002000000000000E0FF3F8FC00000000098EF3DC00000
310
0000C0FA58C0000000E0FF3F8FC00000000068453DC0000000009E0359C00C00000013000000C20400003C0000000600000002000000000000E0FF3F8FC00000000098EF3DC000000000C0FA58C00000004000408F400000000090EF3DC000000000C0FA58C00C00000013000000CA0400003C000000060000000200000000
310
00004000408F400000000060453DC0000000009E0359C00000004000408F400000000090EF3DC000000000C0FA58C00C00000013000000D20400003C0000000600000002000000000000E0FF3F8FC00000000018843EC00000000028E458C0000000E0FF3F8FC00000000098EF3DC000000000C0FA58C00C00000013000000
310
DA0400003C0000000600000002000000000000E0FF3F8FC00000000018843EC00000000028E458C00000004000408F400000000010843EC00000000028E458C00C00000013000000E20400003C00000006000000020000000000004000408F400000000090EF3DC000000000C0FA58C00000004000408F400000000010843E
310
C00000000028E458C00C00000013000000EA0400003C0000000600000002000000000000E0FF3F8FC000000000C8F13EC00000000074C258C0000000E0FF3F8FC00000000018843EC00000000028E458C00C00000013000000F20400003C0000000600000002000000000000E0FF3F8FC000000000C8F13EC00000000074C2
310
58C00000004000408F4000000000C0F13EC00000000074C258C00C00000013000000FA0400003C00000006000000020000000000004000408F400000000010843EC00000000028E458C00000004000408F4000000000C0F13EC00000000074C258C00C00000013000000020500003C0000000600000002000000000000E0FF
310
3F8FC000000000102C3FC000000000829958C0000000E0FF3F8FC000000000C8F13EC00000000074C258C00C000000130000000A0500003C0000000600000002000000000000E0FF3F8FC000000000102C3FC000000000829958C00000004000408F4000000000082C3FC000000000829958C00C0000001300000012050000
310
3C00000006000000020000000000004000408F4000000000082C3FC000000000829958C00000004000408F4000000000C0F13EC00000000074C258C00C000000130000001A0500003C0000000600000002000000000000E0FF3F8FC000000000ACAA41C0000000008C9451C0000000E0FF3F8FC000000000102C3FC0000000
310
00829958C00C00000013000000220500003C0000000600000002000000000000E0FF3F8FC000000000ACAA41C0000000008C9451C00000004000408F4000000000A8AA41C0000000008C9451C00C000000130000002A0500003C00000006000000020000000000004000408F4000000000A8AA41C0000000008C9451C00000
310
004000408F4000000000082C3FC000000000829958C00C00000013000000320500003C0000000600000002000000000000E0FF3F8FC000000000681143C000000000AC0945C0000000E0FF3F8FC000000000ACAA41C0000000008C9451C00C000000130000003A0500003C0000000600000002000000000000E0FF3F8FC000
310
000000681143C000000000AC0945C00000004000408F4000000000641143C000000000AC0945C00C00000013000000420500003C00000006000000020000000000004000408F4000000000641143C000000000AC0945C00000004000408F4000000000A8AA41C0000000008C9451C00C000000130000004A0500003C000000
310
0600000002000000000000E0FF3F8FC000000000681143C000000000AC0945C0000000E0FF3F8FC0000000007C0443C0000000001CA444C00C00000013000000520500003C0000000600000002000000000000E0FF3F8FC0000000007C0443C0000000001CA444C00000004000408F4000000000780443C0000000001CA444
310
C00C000000130000005A0500003C00000006000000020000000000004000408F4000000000780443C0000000001CA444C00000004000408F4000000000641143C000000000AC0945C00C00000013000000620500003C0000000600000002000000000000E0FF3F8FC000000000C8D042C000000000B84B44C0000000E0FF3F
310
8FC0000000007C0443C0000000001CA444C00C000000130000006A0500003C0000000600000002000000000000E0FF3F8FC000000000C8D042C000000000B84B44C00000004000408F4000000000C4D042C000000000B84B44C00C00000013000000720500003C00000006000000020000000000004000408F4000000000C4
310
D042C000000000B84B44C00000004000408F4000000000780443C0000000001CA444C00C000000130000007A0500003C0000000600000002000000000000E0FF3F8FC000000000987E42C000000000AC0E44C0000000E0FF3F8FC000000000C8D042C000000000B84B44C00C00000013000000820500003C00000006000000
310
02000000000000E0FF3F8FC000000000987E42C000000000AC0E44C00000004000408F4000000000947E42C000000000AC0E44C00C000000130000008A0500003C00000006000000020000000000004000408F4000000000947E42C000000000AC0E44C00000004000408F4000000000C4D042C000000000B84B44C00C0000
310
0013000000920500003C0000000600000002000000000000E0FF3F8FC0000000000C1B42C000000000B4F643C0000000E0FF3F8FC000000000987E42C000000000AC0E44C00C000000130000009A0500003C0000000600000002000000000000E0FF3F8FC0000000000C1B42C000000000B4F643C00000004000408F400000
310
0000081B42C000000000B4F643C00C00000013000000A20500003C00000006000000020000000000004000408F4000000000081B42C000000000B4F643C00000004000408F4000000000947E42C000000000AC0E44C00C00000013000000AA0500003C0000000600000002000000000000E0FF3F8FC0000000000C1B42C000
310
000000B4F643C0000000E0FF3F8FC0000000000000000000000000D85443C00C00000013000000B20500003C0000000600000002000000000000E0FF3F8FC0000000000000000000000000D85443C00000002000408F40000000000000203F00000000D85443C00C00000013000000BA0500003C0000000600000002000000
310
0000002000408F40000000000000203F00000000D85443C00000004000408F4000000000081B42C000000000B4F643C00C00000013000000C20500003C0000000600000002000000000000E0FF3F8FC0000000000000000000000000D85443C0000000E0FF3F8FC0000000000000000000000000E05B3FC00C000000130000
310
00CA0500003C0000000600000002000000000000E0FF3F8FC0000000000000000000000000E05B3FC00000002000408F40000000000000203F00000000E05B3FC00C00000013000000D20500003C00000006000000020000000000002000408F40000000000000203F00000000E05B3FC00000002000408F40000000000000
310
203F00000000D85443C00C00000013000000DA0500003C0000000600000002000000000000E0FF3F8FC000000000E08A42C00000000058103EC0000000E0FF3F8FC0000000000000000000000000E05B3FC00C00000013000000E20500003C0000000600000002000000000000E0FF3F8FC000000000E08A42C00000000058
310
103EC00000004000408F4000000000DC8A42C00000000058103EC00C00000013000000EA0500003C00000006000000020000000000004000408F4000000000DC8A42C00000000058103EC00000002000408F40000000000000203F00000000E05B3FC00C00000013000000F20500003C0000000600000002000000000000E0
310
FF3F8FC00000000010E742C00000000000E73DC0000000E0FF3F8FC000000000E08A42C00000000058103EC00C00000013000000FA0500003C0000000600000002000000000000E0FF3F8FC00000000010E742C00000000000E73DC00000004000408F40000000000CE742C00000000000E73DC00C00000013000000020600
310
003C00000006000000020000000000004000408F4000000000DC8A42C00000000058103EC00000004000408F40000000000CE742C00000000000E73DC00C000000130000000A0600003C0000000600000002000000000000E0FF3F8FC0000000007C3543C000000000987D3DC0000000E0FF3F8FC00000000010E742C00000
310
000000E73DC00C00000013000000120600003C0000000600000002000000000000E0FF3F8FC0000000007C3543C000000000987D3DC00000004000408F4000000000783543C000000000987D3DC00C000000130000001A0600003C00000006000000020000000000004000408F40000000000CE742C00000000000E73DC000
310
00004000408F4000000000783543C000000000987D3DC00C00000013000000220600003C0000000600000002000000000000E0FF3F8FC000000000746B43C00000000080E23CC0000000E0FF3F8FC0000000007C3543C000000000987D3DC00C000000130000002A0600003C0000000600000002000000000000E0FF3F8FC0
310
00000000746B43C00000000080E23CC00000004000408F4000000000706B43C00000000080E23CC00C00000013000000320600003C00000006000000020000000000004000408F4000000000783543C000000000987D3DC00000004000408F4000000000706B43C00000000080E23CC00C000000130000003A0600003C0000
310
000600000002000000000000E0FF3F8FC0000000009C8143C000000000D02A3CC0000000E0FF3F8FC000000000746B43C00000000080E23CC00C00000013000000420600003C0000000600000002000000000000E0FF3F8FC0000000009C8143C000000000D02A3CC00000004000408F4000000000988143C000000000D02A
310
3CC00C000000130000004A0600003C00000006000000020000000000004000408F4000000000706B43C00000000080E23CC00000004000408F4000000000988143C000000000D02A3CC00C00000013000000520600003C0000000600000002000000000000E0FF3F8FC00000000028C843C000000000202D2CC0000000E0FF
310
3F8FC0000000009C8143C000000000D02A3CC00C000000130000005A0600003C0000000600000002000000000000E0FF3F8FC00000000028C843C000000000202D2CC00000004000408F400000000024C843C000000000202D2CC00C00000013000000620600003C00000006000000020000000000004000408F4000000000
310
24C843C000000000202D2CC00000004000408F4000000000988143C000000000D02A3CC00C000000130000006A0600003C0000000600000002000000000000E0FF3F8FC00000000090E343C0000000000000203F000000E0FF3F8FC00000000028C843C000000000202D2CC00C00000013000000720600003C000000060000
310
00020000000000004000408F40000000008CE343C0000000000000203F0000004000408F400000000024C843C000000000202D2CC00C000000130000007A0600003C0000000600000002000000000000E0FF3F8FC00000000028C843C000000000202D2CC0000000E0FF3F8FC00000000054CF48C000000000203E13C00C00
310
000013000000820600003C0000000600000002000000000000E0FF3F8FC0000000000C1B42C000000000B4F643C0000000E0FF3F8FC000000000E08A42C00000000058103EC00C000000130000008A0600003C0000000600000002000000000000E0FF3F8FC000000000987E42C000000000AC0E44C0000000E0FF3F8FC000
310
00000010E742C00000000000E73DC00C00000013000000920600003C0000000600000002000000000000E0FF3F8FC000000000C8D042C000000000B84B44C0000000E0FF3F8FC0000000007C3543C000000000987D3DC00C000000130000009A0600003C0000000600000002000000000000E0FF3F8FC0000000007C0443C0
310
000000001CA444C0000000E0FF3F8FC000000000746B43C00000000080E23CC00C00000013000000A20600003C0000000600000002000000000000E0FF3F8FC000000000986B47C0000000007CFA48C0000000E0FF3F8FC000000000681143C000000000AC0945C00C00000013000000AA0600003C00000006000000020000
310
00000000E0FF3F8FC000000000E0BF47C000000000EC4245C0000000E0FF3F8FC0000000007C0443C0000000001CA444C00C00000013000000B20600003C0000000600000002000000000000E0FF3F8FC000000000980947C00000000004CF4CC0000000E0FF3F8FC000000000ACAA41C0000000008C9451C00C0000001300
310
0000BA0600003C0000000600000002000000000000E0FF3F8FC000000000E00A48C000000000147A41C0000000E0FF3F8FC000000000746B43C00000000080E23CC00C00000013000000C20600003C0000000600000002000000000000E0FF3F8FC0000000009C8143C000000000D02A3CC0000000E0FF3F8FC00000000038
310
4C48C00000000048453BC00C00000013000000CA0600003C0000000600000002000000000000E0FF3F8FC00000000028C843C000000000202D2CC0000000E0FF3F8FC0000000004C8148C000000000E8DA33C00C00000013000000D20600003C0000000600000002000000000000E0FF3F8FC00000000028C843C000000000
310
202D2CC0000000E0FF3F8FC000000000A8AC48C00000000040CE28C00C00000013000000DA0600003C0000000600000002000000000000E0FF3F8FC000000000889D46C000000000224950C0000000E0FF3F8FC000000000ACAA41C0000000008C9451C00C00000013000000E20600003C0000000600000002000000000000
310
E0FF3F8FC000000000282946C000000000421C52C0000000E0FF3F8FC000000000ACAA41C0000000008C9451C00C00000013000000EA0600003C0000000600000002000000000000E0FF3F8FC000000000E8A445C0000000006EFB53C0000000E0FF3F8FC000000000ACAA41C0000000008C9451C00C00000013000000F206
310
00003C0000000600000002000000000000E0FF3F8FC000000000041845C000000000FACB55C0000000E0FF3F8FC000000000ACAA41C0000000008C9451C00C00000013000000FA0600003C0000000600000002000000000000E0FF3F8FC000000000B87F44C0000000005E9557C0000000E0FF3F8FC000000000102C3FC000
310
000000829958C00C00000013000000020700003C0000000600000002000000000000E0FF3F8FC000000000D0B33AC000000000C27A5BC0000000E0FF3F8FC00000000068453DC0000000009E0359C00C000000130000000A0700003C0000000600000002000000000000E0FF3F8FC000000000C8883BC0000000006C885BC0
310
000000E0FF3F8FC00000000098EF3DC000000000C0FA58C00C00000013000000120700003C0000000600000002000000000000E0FF3F8FC00000000030333CC0000000002AAB5BC0000000E0FF3F8FC00000000018843EC00000000028E458C00C000000130000001A0700003C0000000600000002000000000000E0FF3F8F
310
C00000000098933CC00000000090DC5BC0000000E0FF3F8FC000000000C8F13EC00000000074C258C00C00000013000000220700003C0000000600000002000000000000E0FF3F8FC000000000C81443C000000000E6485BC0000000E0FF3F8FC00000000098933CC00000000090DC5BC00C000000130000002A0700003C00
310
00000600000002000000000000E0FF3F8FC00000000088CC43C000000000B87F59C0000000E0FF3F8FC000000000C8F13EC00000000074C258C00C00000013000000320700003C0000000600000002000000000000E0FF3F8FC000000000B04C42C0000000006C0D5DC0000000E0FF3F8FC00000000038983CC00000000084
310
135CC00C000000130000003A0700003C0000000600000002000000000000E0FF3F8FC0000000007C7E41C00000000034B75EC0000000E0FF3F8FC00000000018393BC000000000BAC05DC00C00000013000000420700003C0000000600000002000000000000E0FF3F8FC000000000F0D93EC0000000004B2D61C0000000E0
310
FF3F8FC000000000A8C535C000000000BC7761C00C000000130000004A0700003C0000000600000002000000000000E0FF3F8FC0000000008C8240C000000000BF4660C0000000E0FF3F8FC00000000018393BC000000000BAC05DC00C00000013000000520700003C0000000600000002000000000000E0FF3F8FC0000000
310
00D83C3AC000000000BBC662C0000000E0FF3F8FC000000000A8C535C000000000BC7761C00C000000130000005A0700003C0000000600000002000000000000E0FF3F8FC00000000040813CC000000000E10962C0000000E0FF3F8FC000000000A8C535C000000000BC7761C00C00000013000000620700003C0000000600
310
000002000000000000E0FF3F8FC00000000008AE37C000000000518363C0000000E0FF3F8FC000000000E0A72CC00000000091AC63C00C000000130000006A0700003C0000000600000002000000000000E0FF3F8FC00000000048A834C000000000B14364C0000000E0FF3F8FC000000000E0A72CC00000000091AC63C00C
310
00000013000000720700003C0000000600000002000000000000E0FF3F8FC000000000703732C00000000091C764C0000000E0FF3F8FC000000000306F26C0000000003C4D64C00C000000130000007A0700003C0000000600000002000000000000E0FF3F8FC0000000000058F3BF000000001A7E66C0000000E0FF3F8FC0
310
0000000080F3FDBF000000008D3965C00C00000013000000820700003C0000000600000002000000000000E0FF3F8FC000000000007308C0000000005D7366C0000000E0FF3F8FC00000000000440DC000000000842665C00C000000130000008A0700003C0000000600000002000000000000E0FF3F8FC000000000100A30
310
C000000000772C65C0000000E0FF3F8FC000000000A0241DC0000000004ADA64C00C00000013000000920700003C0000000600000002000000000000E0FF3F8FC000000000200D2CC0000000007B7D65C0000000E0FF3F8FC000000000A0241DC0000000004ADA64C00C000000130000009A0700003C000000060000000200
310
0000000000E0FF3F8FC00000000090A126C00000000071D765C0000000E0FF3F8FC000000000204216C000000000EA0465C00C00000013000000A20700003C0000000600000002000000000000E0FF3F8FC000000000409616C000000000F85566C0000000E0FF3F8FC00000000000440DC000000000842665C00C00000013
310
000000AA0700003C0000000600000002000000000000E0FF3F8FC00000000090FE20C000000000352166C0000000E0FF3F8FC000000000204216C000000000EA0465C00C00000013000000B20700003C00000006000000020000000000004000408F400000000024C843C000000000202D2CC00000004000408F4000000000
310
50CF48C000000000203E13C00C00000013000000BA0700003C00000006000000020000000000004000408F4000000000DC8A42C00000000058103EC00000004000408F4000000000081B42C000000000B4F643C00C00000013000000C20700003C00000006000000020000000000004000408F40000000000CE742C0000000
310
0000E73DC00000004000408F4000000000947E42C000000000AC0E44C00C00000013000000CA0700003C00000006000000020000000000004000408F4000000000783543C000000000987D3DC00000004000408F4000000000C4D042C000000000B84B44C00C00000013000000D20700003C00000006000000020000000000
310
004000408F4000000000706B43C00000000080E23CC00000004000408F4000000000780443C0000000001CA444C00C00000013000000DA0700003C00000006000000020000000000004000408F4000000000780443C0000000001CA444C00000004000408F4000000000DCBF47C000000000EC4245C00C00000013000000E2
310
0700003C00000006000000020000000000004000408F4000000000641143C000000000AC0945C00000004000408F4000000000946B47C0000000007CFA48C00C00000013000000EA0700003C00000006000000020000000000004000408F4000000000A8AA41C0000000008C9451C00000004000408F4000000000940947C0
310
0000000004CF4CC00C00000013000000F20700003C00000006000000020000000000004000408F4000000000706B43C00000000080E23CC00000004000408F4000000000DC0A48C000000000147A41C00C00000013000000FA0700003C00000006000000020000000000004000408F4000000000988143C000000000D02A3C
310
C00000004000408F4000000000344C48C00000000048453BC00C00000013000000020800003C00000006000000020000000000004000408F400000000024C843C000000000202D2CC00000004000408F4000000000488148C000000000E8DA33C00C000000130000000A0800003C0000000600000002000000000000400040
310
8F400000000024C843C000000000202D2CC00000004000408F4000000000A4AC48C00000000040CE28C00C00000013000000120800003C00000006000000020000000000004000408F4000000000A8AA41C0000000008C9451C00000004000408F4000000000849D46C000000000224950C00C000000130000001A0800003C
310
00000006000000020000000000004000408F4000000000A8AA41C0000000008C9451C00000004000408F4000000000242946C000000000421C52C00C00000013000000220800003C00000006000000020000000000004000408F4000000000A8AA41C0000000008C9451C00000004000408F4000000000E4A445C000000000
310
6EFB53C00C000000130000002A0800003C00000006000000020000000000004000408F4000000000A8AA41C0000000008C9451C00000004000408F4000000000001845C000000000FACB55C00C00000013000000320800003C00000006000000020000000000004000408F4000000000082C3FC000000000829958C0000000
310
4000408F4000000000B47F44C0000000005E9557C00C000000130000003A0800003C00000006000000020000000000004000408F400000000060453DC0000000009E0359C00000004000408F4000000000C8B33AC000000000C27A5BC00C00000013000000420800003C00000006000000020000000000004000408F400000
310
000090EF3DC000000000C0FA58C00000004000408F4000000000C0883BC0000000006C885BC00C000000130000004A0800003C00000006000000020000000000004000408F400000000010843EC00000000028E458C00000004000408F400000000028333CC0000000002AAB5BC00C00000013000000520800003C00000006
310
000000020000000000004000408F4000000000C0F13EC00000000074C258C00000004000408F400000000090933CC00000000090DC5BC00C000000130000005A0800003C00000006000000020000000000004000408F4000000000C0F13EC00000000074C258C00000004000408F400000000084CC43C000000000B87F59C0
310
0C00000013000000620800003C00000006000000020000000000004000408F400000000090933CC00000000090DC5BC00000004000408F4000000000C41443C000000000E6485BC00C000000130000006A0800003C00000006000000020000000000004000408F400000000030983CC00000000084135CC00000004000408F
310
4000000000AC4C42C0000000006C0D5DC00C00000013000000720800003C00000006000000020000000000004000408F400000000010393BC000000000BAC05DC00000004000408F4000000000787E41C00000000034B75EC00C000000130000007A0800003C00000006000000020000000000004000408F40000000001039
310
3BC000000000BAC05DC00000004000408F4000000000888240C000000000BF4660C00C00000013000000820800003C00000006000000020000000000002000408F4000000000A0C535C000000000BC7761C00000004000408F4000000000E8D93EC0000000004B2D61C00C000000130000008A0800003C0000000600000002
310
0000000000002000408F4000000000A0C535C000000000BC7761C00000004000408F400000000038813CC000000000E10962C00C00000013000000920800003C00000006000000020000000000002000408F4000000000A0C535C000000000BC7761C00000004000408F4000000000D03C3AC000000000BBC662C00C000000
310
130000009A0800003C00000006000000020000000000002000408F4000000000D0A72CC00000000091AC63C00000004000408F400000000000AE37C000000000518363C00C00000013000000A20800003C00000006000000020000000000002000408F4000000000D0A72CC00000000091AC63C00000002000408F40000000
310
0040A834C000000000B14364C00C00000013000000AA0800003C00000006000000020000000000002000408F4000000000206F26C0000000003C4D64C00000002000408F4000000000683732C00000000091C764C00C00000013000000B20800003C00000006000000020000000000002000408F400000000000F3FDBF0000
310
00008D3965C00000002000408F40000000008057F3BF000000001A7E66C00C00000013000000BA0800003C00000006000000020000000000002000408F4000000000C0430DC000000000842665C00000002000408F4000000000C07208C0000000005D7366C00C00000013000000C20800003C000000060000000200000000
310
00002000408F400000000080241DC0000000004ADA64C00000002000408F4000000000080A30C000000000772C65C00C00000013000000CA0800003C00000006000000020000000000002000408F400000000080241DC0000000004ADA64C00000002000408F4000000000100D2CC0000000007B7D65C00C00000013000000
310
D20800003C00000006000000020000000000002000408F4000000000004216C000000000EA0465C00000002000408F400000000080A126C00000000071D765C00C00000013000000DA0800003C00000006000000020000000000002000408F4000000000C0430DC000000000842665C00000002000408F4000000000209616
310
C000000000F85566C00C00000013000000E20800003C00000006000000020000000000002000408F4000000000004216C000000000EA0465C00000002000408F400000000080FE20C000000000352166C0
100
AcDbSubDMesh
 71
     2
 72
     0
 91
        0
 92
      138
 10
-999.9999389648436
 20
-39.77783203125
 30
0.0001220703125
 10
-999.9999389648436
 20
-39.563720703125
 30
-14.088134765625
 10
-999.9999389648436
 20
-39.0125732421875
 30
-28.167236328125
 10
-999.9999389648436
 20
-49.75732421875
 30
0.0001220703125
 10
-999.9999389648436
 20
0.0
 30
-179.9998779296875
 10
-999.9999389648436
 20
-1.208984375
 30
-179.940673828125
 10
-999.9999389648436
 20
-3.05615234375
 30
-179.6051025390625
 10
-999.9999389648436
 20
-5.646728515625
 30
-178.6865234375
 10
-999.9999389648436
 20
-8.4971923828125
 30
-177.0377197265625
 10
-999.9999389648436
 20
-11.3155517578125
 30
-174.7325439453125
 10
-999.9999389648436
 20
-14.025634765625
 30
-171.9212646484375
 10
-999.9999389648436
 20
-16.039306640625
 30
-169.3895263671875
 10
-999.9999389648436
 20
-18.216552734375
 30
-166.2364501953125
 10
-999.9999389648436
 20
-20.6573486328125
 30
-162.1153564453125
 10
-999.9999389648436
 20
-23.6798095703125
 30
-156.1036376953125
 10
-999.9999389648436
 20
-26.2376708984375
 30
-150.2103271484375
 10
-999.9999389648436
 20
-28.5048828125
 30
-144.3087158203125
 10
-999.9999389648436
 20
-30.851318359375
 30
-137.4154052734375
 10
-999.9999389648436
 20
-33.0198974609375
 30
-130.2108154296875
 10
-999.9999389648436
 20
-34.9881591796875
 30
-122.862548828125
 10
-999.9999389648436
 20
-36.59912109375
 30
-116.209716796875
 10
-999.9999389648436
 20
-38.162353515625
 30
-109.1390380859375
 10
-999.9999389648436
 20
-39.597900390625
 30
-101.99560546875
 10
-999.9999389648436
 20
-40.997802734375
 30
-94.3338623046875
 10
-999.9999389648436
 20
-42.18762207031249
 30
-87.18713378906249
 10
-999.9999389648436
 20
-43.288330078125
 30
-79.9285888671875
 10
-999.9999389648436
 20
-44.321533203125
 30
-72.4415283203125
 10
-999.9999389648436
 20
-45.230712890625
 30
-65.1427001953125
 10
-999.9999389648436
 20
-46.07495117187499
 30
-57.6173095703125
 10
-999.9999389648436
 20
-46.840576171875
 30
-49.9569091796875
 10
-999.9999389648436
 20
-47.4990234375
 30
-42.5228271484375
 10
-999.9999389648436
 20
-48.0849609375
 30
-34.9537353515625
 10
-999.9999389648436
 20
-48.595458984375
 30
-27.2706298828125
 10
-999.9999389648436
 20
-49.0101318359375
 30
-19.8551025390625
 10
-999.9999389648436
 20
-49.348876953125
 30
-12.40283203125
 10
-999.9999389648436
 20
-49.6197509765625
 30
-4.8106689453125
 10
-999.9999389648436
 20
-3.658203125
 30
-169.20361328125
 10
-999.9999389648436
 20
-1.8719482421875
 30
-169.7984619140625
 10
-999.9999389648436
 20
0.0
 30
-169.9998779296875
 10
-999.9999389648436
 20
-7.2857666015625
 30
-166.821533203125
 10
-999.9999389648436
 20
-5.5645751953125
 30
-168.153564453125
 10
-999.9999389648436
 20
-14.327880859375
 30
-157.3927001953125
 10
-999.9999389648436
 20
-11.2171630859375
 30
-162.41357421875
 10
-999.9999389648436
 20
-27.2230224609375
 30
-119.0113525390625
 10
-999.9999389648436
 20
-21.7720947265625
 30
-139.74169921875
 10
-999.9999389648436
 20
-28.5946044921875
 30
-112.304931640625
 10
-999.9999389648436
 20
-38.135986328125
 30
-42.0755615234375
 10
-999.9999389648436
 20
-35.3333740234375
 30
-70.321044921875
 10
-999.9999389648436
 20
-31.172119140625
 30
-98.3985595703125
 10
-999.9999389648436
 20
-36.2113037109375
 30
-39.9273681640625
 10
-999.9999389648436
 20
-36.989013671875
 30
-40.1146240234375
 10
-999.9999389648436
 20
-37.631103515625
 30
-40.59155273437499
 10
-999.9999389648436
 20
-38.0350341796875
 30
-41.2821044921875
 10
-999.9999389648436
 20
-38.8394775390625
 30
-28.884765625
 10
-999.9999389648436
 20
-38.4178466796875
 30
-29.4906005859375
 10
-999.9999389648436
 20
-37.80517578125
 30
-29.90234375
 10
-999.9999389648436
 20
-37.0849609375
 30
-30.0638427734375
 10
-999.9999389648436
 20
-26.702392578125
 30
-109.9180908203125
 10
-999.9999389648436
 20
-27.5343017578125
 30
-110.131591796875
 10
-999.9999389648436
 20
-28.199951171875
 30
-110.6744384765625
 10
-999.9999389648436
 20
-28.5765380859375
 30
-111.4462890625
 10
-999.9999389648436
 20
-30.9444580078125
 30
-99.03833007812501
 10
-999.9999389648436
 20
-30.5159912109375
 30
-99.56494140625
 10
-999.9999389648436
 20
-29.9359130859375
 30
-99.91796875
 10
-999.9999389648436
 20
-29.2711181640625
 30
-100.0565185546875
 10
-999.9999389648436
 20
0.0
 30
-108.985595703125
 10
-999.9999389648436
 20
0.0
 30
-101.0787353515625
 10
-999.9999389648436
 20
0.0
 30
-38.662841796875
 10
-999.9999389648436
 20
0.0
 30
-31.35888671875
 10
1000.000122070312
 20
-39.7777099609375
 30
0.0001220703125
 10
1000.000122070312
 20
-39.5635986328125
 30
-14.088134765625
 10
1000.000122070312
 20
-49.61962890625
 30
-4.8106689453125
 10
1000.000122070312
 20
-49.7572021484375
 30
0.0001220703125
 10
1000.000122070312
 20
-37.0848388671875
 30
-30.0638427734375
 10
1000.000061035156
 20
0.0001220703125
 30
-31.35888671875
 10
1000.000061035156
 20
0.0001220703125
 30
-38.662841796875
 10
1000.000122070312
 20
-36.211181640625
 30
-39.9273681640625
 10
1000.000122070312
 20
-37.8050537109375
 30
-29.90234375
 10
1000.000122070312
 20
-36.9888916015625
 30
-40.1146240234375
 10
1000.000122070312
 20
-38.417724609375
 30
-29.4906005859375
 10
1000.000122070312
 20
-37.6309814453125
 30
-40.59155273437499
 10
1000.000122070312
 20
-38.83935546875
 30
-28.884765625
 10
1000.000122070312
 20
-38.034912109375
 30
-41.2821044921875
 10
1000.000122070312
 20
-38.1358642578125
 30
-42.0755615234375
 10
1000.000122070312
 20
-46.8404541015625
 30
-49.9569091796875
 10
1000.000122070312
 20
-47.49890136718749
 30
-42.5228271484375
 10
1000.000122070312
 20
-35.333251953125
 30
-70.321044921875
 10
1000.000122070312
 20
-46.0748291015625
 30
-57.6173095703125
 10
1000.000122070312
 20
-48.0848388671875
 30
-34.9537353515625
 10
1000.000122070312
 20
-39.012451171875
 30
-28.167236328125
 10
1000.000122070312
 20
-48.5953369140625
 30
-27.2706298828125
 10
1000.000122070312
 20
-49.010009765625
 30
-19.8551025390625
 10
1000.000122070312
 20
-49.3487548828125
 30
-12.40283203125
 10
1000.000122070312
 20
-45.2305908203125
 30
-65.1427001953125
 10
1000.000122070312
 20
-44.32141113281249
 30
-72.4415283203125
 10
1000.000122070312
 20
-43.2882080078125
 30
-79.9285888671875
 10
1000.000122070312
 20
-42.1875
 30
-87.18713378906249
 10
1000.000122070312
 20
-31.1719970703125
 30
-98.3985595703125
 10
1000.000122070312
 20
-40.9976806640625
 30
-94.3338623046875
 10
1000.000122070312
 20
-29.27099609375
 30
-100.0565185546875
 10
1000.000061035156
 20
0.0001220703125
 30
-101.0787353515625
 10
1000.000061035156
 20
0.0001220703125
 30
-108.985595703125
 10
1000.000122070312
 20
-26.7022705078125
 30
-109.9180908203125
 10
1000.000122070312
 20
-29.935791015625
 30
-99.91796875
 10
1000.000122070312
 20
-27.5341796875
 30
-110.131591796875
 10
1000.000122070312
 20
-30.515869140625
 30
-99.56494140625
 10
1000.000122070312
 20
-28.1998291015625
 30
-110.6744384765625
 10
1000.000122070312
 20
-30.9443359375
 30
-99.03833007812501
 10
1000.000122070312
 20
-28.576416015625
 30
-111.4462890625
 10
1000.000122070312
 20
-38.1622314453125
 30
-109.1390380859375
 10
1000.000122070312
 20
-39.5977783203125
 30
-101.99560546875
 10
1000.000122070312
 20
-28.594482421875
 30
-112.304931640625
 10
1000.000122070312
 20
-36.5989990234375
 30
-116.209716796875
 10
1000.000122070312
 20
-27.222900390625
 30
-119.0113525390625
 10
1000.000122070312
 20
-34.988037109375
 30
-122.862548828125
 10
1000.000061035156
 20
-21.77197265625
 30
-139.74169921875
 10
1000.000122070312
 20
-30.8511962890625
 30
-137.4154052734375
 10
1000.000122070312
 20
-33.019775390625
 30
-130.2108154296875
 10
1000.000122070312
 20
-26.237548828125
 30
-150.2103271484375
 10
1000.000122070312
 20
-28.5047607421875
 30
-144.3087158203125
 10
1000.000061035156
 20
-14.3277587890625
 30
-157.3927001953125
 10
1000.000122070312
 20
-23.6796875
 30
-156.1036376953125
 10
1000.000061035156
 20
-20.6572265625
 30
-162.1153564453125
 10
1000.000061035156
 20
-11.217041015625
 30
-162.41357421875
 10
1000.000061035156
 20
-18.2164306640625
 30
-166.2364501953125
 10
1000.000061035156
 20
-1.871826171875
 30
-169.7984619140625
 10
1000.000061035156
 20
0.0001220703125
 30
-169.9998779296875
 10
1000.000061035156
 20
0.0001220703125
 30
-179.9998779296875
 10
1000.000061035156
 20
-1.2088623046875
 30
-179.940673828125
 10
1000.000061035156
 20
-3.6580810546875
 30
-169.20361328125
 10
1000.000061035156
 20
-3.0560302734375
 30
-179.6051025390625
 10
1000.000061035156
 20
-7.28564453125
 30
-166.821533203125
 10
1000.000061035156
 20
-16.0391845703125
 30
-169.3895263671875
 10
1000.000061035156
 20
-14.0255126953125
 30
-171.9212646484375
 10
1000.000061035156
 20
-5.564453125
 30
-168.153564453125
 10
1000.000061035156
 20
-11.3154296875
 30
-174.7325439453125
 10
1000.000061035156
 20
-5.6466064453125
 30
-178.6865234375
 10
1000.000061035156
 20
-8.4970703125
 30
-177.0377197265625
 93
      719
 90
        4
 90
        0
 90
        3
 90
       72
 90
       69
 90
        4
 90
        3
 90
       35
 90
       71
 90
       72
 90
        4
 90
       35
 90
       34
 90
       92
 90
       71
 90
        4
 90
       34
 90
       33
 90
       91
 90
       92
 90
        4
 90
       33
 90
       32
 90
       90
 90
       91
 90
        4
 90
       32
 90
       31
 90
       88
 90
       90
 90
        4
 90
       31
 90
       30
 90
       85
 90
       88
 90
        4
 90
       30
 90
       29
 90
       84
 90
       85
 90
        4
 90
       29
 90
       28
 90
       87
 90
       84
 90
        4
 90
       28
 90
       27
 90
       93
 90
       87
 90
        4
 90
       27
 90
       26
 90
       94
 90
       93
 90
        4
 90
       26
 90
       25
 90
       95
 90
       94
 90
        4
 90
       25
 90
       24
 90
       96
 90
       95
 90
        4
 90
       24
 90
       23
 90
       98
 90
       96
 90
        4
 90
       23
 90
       22
 90
      110
 90
       98
 90
        4
 90
       22
 90
       21
 90
      109
 90
      110
 90
        4
 90
       21
 90
       20
 90
      112
 90
      109
 90
        4
 90
       20
 90
       19
 90
      114
 90
      112
 90
        4
 90
       19
 90
       18
 90
      117
 90
      114
 90
        4
 90
       18
 90
       17
 90
      116
 90
      117
 90
        4
 90
       17
 90
       16
 90
      119
 90
      116
 90
        4
 90
       16
 90
       15
 90
      118
 90
      119
 90
        4
 90
       15
 90
       14
 90
      121
 90
      118
 90
        4
 90
       14
 90
       13
 90
      122
 90
      121
 90
        4
 90
       13
 90
       12
 90
      124
 90
      122
 90
        4
 90
       12
 90
       11
 90
      132
 90
      124
 90
        4
 90
       11
 90
       10
 90
      133
 90
      132
 90
        4
 90
       10
 90
        9
 90
      135
 90
      133
 90
        4
 90
        9
 90
        8
 90
      137
 90
      135
 90
        4
 90
        8
 90
        7
 90
      136
 90
      137
 90
        4
 90
        7
 90
        6
 90
      130
 90
      136
 90
        4
 90
        6
 90
        5
 90
      128
 90
      130
 90
        4
 90
        5
 90
        4
 90
      127
 90
      128
 90
        4
 90
        4
 90
       38
 90
      126
 90
      127
 90
        4
 90
       38
 90
       37
 90
      125
 90
      126
 90
        4
 90
       37
 90
       36
 90
      129
 90
      125
 90
        4
 90
       36
 90
       40
 90
      134
 90
      129
 90
        4
 90
       40
 90
       39
 90
      131
 90
      134
 90
        4
 90
       39
 90
       42
 90
      123
 90
      131
 90
        4
 90
       42
 90
       41
 90
      120
 90
      123
 90
        4
 90
       41
 90
       44
 90
      115
 90
      120
 90
        4
 90
       44
 90
       43
 90
      113
 90
      115
 90
        4
 90
       43
 90
       45
 90
      111
 90
      113
 90
        4
 90
       45
 90
       60
 90
      108
 90
      111
 90
        4
 90
       60
 90
       59
 90
      106
 90
      108
 90
        4
 90
       59
 90
       58
 90
      104
 90
      106
 90
        4
 90
       58
 90
       57
 90
      102
 90
      104
 90
        4
 90
       57
 90
       65
 90
      101
 90
      102
 90
        4
 90
       65
 90
       66
 90
      100
 90
      101
 90
        4
 90
       66
 90
       64
 90
       99
 90
      100
 90
        4
 90
       64
 90
       63
 90
      103
 90
       99
 90
        4
 90
       63
 90
       62
 90
      105
 90
      103
 90
        4
 90
       62
 90
       61
 90
      107
 90
      105
 90
        4
 90
       61
 90
       48
 90
       97
 90
      107
 90
        4
 90
       48
 90
       47
 90
       86
 90
       97
 90
        4
 90
       47
 90
       46
 90
       83
 90
       86
 90
        4
 90
       46
 90
       52
 90
       82
 90
       83
 90
        4
 90
       52
 90
       51
 90
       80
 90
       82
 90
        4
 90
       51
 90
       50
 90
       78
 90
       80
 90
        4
 90
       50
 90
       49
 90
       76
 90
       78
 90
        4
 90
       49
 90
       67
 90
       75
 90
       76
 90
        4
 90
       67
 90
       68
 90
       74
 90
       75
 90
        4
 90
       68
 90
       56
 90
       73
 90
       74
 90
        4
 90
       56
 90
       55
 90
       77
 90
       73
 90
        4
 90
       55
 90
       54
 90
       79
 90
       77
 90
        4
 90
       54
 90
       53
 90
       81
 90
       79
 90
        4
 90
       53
 90
        2
 90
       89
 90
       81
 90
        4
 90
        2
 90
        1
 90
       70
 90
       89
 90
        4
 90
        1
 90
        0
 90
       69
 90
       70
 90
        4
 90
        0
 90
        1
 90
       35
 90
        3
 90
        4
 90
       56
 90
       68
 90
       67
 90
       49
 90
        4
 90
       55
 90
       56
 90
       49
 90
       50
 90
        4
 90
       54
 90
       55
 90
       50
 90
       51
 90
        4
 90
       53
 90
       54
 90
       51
 90
       52
 90
        4
 90
       52
 90
       46
 90
       29
 90
       30
 90
        4
 90
       46
 90
       47
 90
       28
 90
       29
 90
        4
 90
       53
 90
       52
 90
       30
 90
       31
 90
        4
 90
        2
 90
       53
 90
       31
 90
       32
 90
        4
 90
        1
 90
        2
 90
       32
 90
       33
 90
        3
 90
        1
 90
       33
 90
       34
 90
        3
 90
        1
 90
       34
 90
       35
 90
        3
 90
       47
 90
       27
 90
       28
 90
        3
 90
       47
 90
       26
 90
       27
 90
        3
 90
       47
 90
       25
 90
       26
 90
        3
 90
       47
 90
       24
 90
       25
 90
        4
 90
       47
 90
       48
 90
       23
 90
       24
 90
        4
 90
       64
 90
       66
 90
       65
 90
       57
 90
        4
 90
       63
 90
       64
 90
       57
 90
       58
 90
        4
 90
       62
 90
       63
 90
       58
 90
       59
 90
        4
 90
       61
 90
       62
 90
       59
 90
       60
 90
        4
 90
       61
 90
       60
 90
       21
 90
       22
 90
        4
 90
       48
 90
       61
 90
       22
 90
       23
 90
        4
 90
       60
 90
       45
 90
       20
 90
       21
 90
        4
 90
       45
 90
       43
 90
       19
 90
       20
 90
        4
 90
       43
 90
       44
 90
       17
 90
       18
 90
        3
 90
       43
 90
       18
 90
       19
 90
        3
 90
       44
 90
       15
 90
       16
 90
        3
 90
       44
 90
       16
 90
       17
 90
        4
 90
       44
 90
       41
 90
       14
 90
       15
 90
        3
 90
       41
 90
       13
 90
       14
 90
        4
 90
       41
 90
       42
 90
       12
 90
       13
 90
        4
 90
       37
 90
       38
 90
        4
 90
        5
 90
        4
 90
       36
 90
       37
 90
        5
 90
        6
 90
        4
 90
       42
 90
       39
 90
       11
 90
       12
 90
        3
 90
       39
 90
       10
 90
       11
 90
        4
 90
       39
 90
       40
 90
        9
 90
       10
 90
        3
 90
       36
 90
        6
 90
        7
 90
        3
 90
       40
 90
        8
 90
        9
 90
        4
 90
       40
 90
       36
 90
        7
 90
        8
 90
        4
 90
       69
 90
       72
 90
       71
 90
       70
 90
        4
 90
       73
 90
       76
 90
       75
 90
       74
 90
        4
 90
       77
 90
       78
 90
       76
 90
       73
 90
        4
 90
       79
 90
       80
 90
       78
 90
       77
 90
        4
 90
       81
 90
       82
 90
       80
 90
       79
 90
        4
 90
       82
 90
       85
 90
       84
 90
       83
 90
        4
 90
       83
 90
       84
 90
       87
 90
       86
 90
        4
 90
       81
 90
       88
 90
       85
 90
       82
 90
        4
 90
       89
 90
       90
 90
       88
 90
       81
 90
        4
 90
       70
 90
       91
 90
       90
 90
       89
 90
        3
 90
       70
 90
       92
 90
       91
 90
        3
 90
       70
 90
       71
 90
       92
 90
        3
 90
       86
 90
       87
 90
       93
 90
        3
 90
       86
 90
       93
 90
       94
 90
        3
 90
       86
 90
       94
 90
       95
 90
        3
 90
       86
 90
       95
 90
       96
 90
        4
 90
       86
 90
       96
 90
       98
 90
       97
 90
        4
 90
       99
 90
      102
 90
      101
 90
      100
 90
        4
 90
      103
 90
      104
 90
      102
 90
       99
 90
        4
 90
      105
 90
      106
 90
      104
 90
      103
 90
        4
 90
      107
 90
      108
 90
      106
 90
      105
 90
        4
 90
      107
 90
      110
 90
      109
 90
      108
 90
        4
 90
       97
 90
       98
 90
      110
 90
      107
 90
        4
 90
      108
 90
      109
 90
      112
 90
      111
 90
        4
 90
      111
 90
      112
 90
      114
 90
      113
 90
        4
 90
      113
 90
      117
 90
      116
 90
      115
 90
        3
 90
      113
 90
      114
 90
      117
 90
        3
 90
      115
 90
      119
 90
      118
 90
        3
 90
      115
 90
      116
 90
      119
 90
        4
 90
      115
 90
      118
 90
      121
 90
      120
 90
        3
 90
      120
 90
      121
 90
      122
 90
        4
 90
      120
 90
      122
 90
      124
 90
      123
 90
        4
 90
      125
 90
      128
 90
      127
 90
      126
 90
        4
 90
      129
 90
      130
 90
      128
 90
      125
 90
        4
 90
      123
 90
      124
 90
      132
 90
      131
 90
        3
 90
      131
 90
      132
 90
      133
 90
        4
 90
      131
 90
      133
 90
      135
 90
      134
 90
        3
 90
      129
 90
      136
 90
      130
 90
        3
 90
      134
 90
      135
 90
      137
 90
        4
 90
      134
 90
      137
 90
      136
 90
      129
 94
      285
 90
        0
 90
        3
 90
        3
 90
       72
 90
       69
 90
       72
 90
        0
 90
       69
 90
        3
 90
       35
 90
       35
 90
       71
 90
       71
 90
       72
 90
       34
 90
       35
 90
       34
 90
       92
 90
       71
 90
       92
 90
       33
 90
       34
 90
       33
 90
       91
 90
       91
 90
       92
 90
       32
 90
       33
 90
       32
 90
       90
 90
       90
 90
       91
 90
       31
 90
       32
 90
       31
 90
       88
 90
       88
 90
       90
 90
       30
 90
       31
 90
       30
 90
       85
 90
       85
 90
       88
 90
       29
 90
       30
 90
       29
 90
       84
 90
       84
 90
       85
 90
       28
 90
       29
 90
       28
 90
       87
 90
       84
 90
       87
 90
       27
 90
       28
 90
       27
 90
       93
 90
       87
 90
       93
 90
       26
 90
       27
 90
       26
 90
       94
 90
       93
 90
       94
 90
       25
 90
       26
 90
       25
 90
       95
 90
       94
 90
       95
 90
       24
 90
       25
 90
       24
 90
       96
 90
       95
 90
       96
 90
       23
 90
       24
 90
       23
 90
       98
 90
       96
 90
       98
 90
       22
 90
       23
 90
       22
 90
      110
 90
       98
 90
      110
 90
       21
 90
       22
 90
       21
 90
      109
 90
      109
 90
      110
 90
       20
 90
       21
 90
       20
 90
      112
 90
      109
 90
      112
 90
       19
 90
       20
 90
       19
 90
      114
 90
      112
 90
      114
 90
       18
 90
       19
 90
       18
 90
      117
 90
      114
 90
      117
 90
       17
 90
       18
 90
       17
 90
      116
 90
      116
 90
      117
 90
       16
 90
       17
 90
       16
 90
      119
 90
      116
 90
      119
 90
       15
 90
       16
 90
       15
 90
      118
 90
      118
 90
      119
 90
       14
 90
       15
 90
       14
 90
      121
 90
      118
 90
      121
 90
       13
 90
       14
 90
       13
 90
      122
 90
      121
 90
      122
 90
       12
 90
       13
 90
       12
 90
      124
 90
      122
 90
      124
 90
       11
 90
       12
 90
       11
 90
      132
 90
      124
 90
      132
 90
       10
 90
       11
 90
       10
 90
      133
 90
      132
 90
      133
 90
        9
 90
       10
 90
        9
 90
      135
 90
      133
 90
      135
 90
        8
 90
        9
 90
        8
 90
      137
 90
      135
 90
      137
 90
        7
 90
        8
 90
        7
 90
      136
 90
      136
 90
      137
 90
        6
 90
        7
 90
        6
 90
      130
 90
      130
 90
      136
 90
        5
 90
        6
 90
        5
 90
      128
 90
      128
 90
      130
 90
        4
 90
        5
 90
        4
 90
      127
 90
      127
 90
      128
 90
        4
 90
       38
 90
       38
 90
      126
 90
      126
 90
      127
 90
       37
 90
       38
 90
       37
 90
      125
 90
      125
 90
      126
 90
       36
 90
       37
 90
       36
 90
      129
 90
      125
 90
      129
 90
       36
 90
       40
 90
       40
 90
      134
 90
      129
 90
      134
 90
       39
 90
       40
 90
       39
 90
      131
 90
      131
 90
      134
 90
       39
 90
       42
 90
       42
 90
      123
 90
      123
 90
      131
 90
       41
 90
       42
 90
       41
 90
      120
 90
      120
 90
      123
 90
       41
 90
       44
 90
       44
 90
      115
 90
      115
 90
      120
 90
       43
 90
       44
 90
       43
 90
      113
 90
      113
 90
      115
 90
       43
 90
       45
 90
       45
 90
      111
 90
      111
 90
      113
 90
       45
 90
       60
 90
       60
 90
      108
 90
      108
 90
      111
 90
       59
 90
       60
 90
       59
 90
      106
 90
      106
 90
      108
 90
       58
 90
       59
 90
       58
 90
      104
 90
      104
 90
      106
 90
       57
 90
       58
 90
       57
 90
      102
 90
      102
 90
      104
 90
       57
 90
       65
 90
       65
 90
      101
 90
      101
 90
      102
 90
       65
 90
       66
 90
       66
 90
      100
 90
      100
 90
      101
 90
       64
 90
       66
 90
       64
 90
       99
 90
       99
 90
      100
 90
       63
 90
       64
 90
       63
 90
      103
 90
       99
 90
      103
 90
       62
 90
       63
 90
       62
 90
      105
 90
      103
 90
      105
 90
       61
 90
       62
 90
       61
 90
      107
 90
      105
 90
      107
 90
       48
 90
       61
 90
       48
 90
       97
 90
       97
 90
      107
 90
       47
 90
       48
 90
       47
 90
       86
 90
       86
 90
       97
 90
       46
 90
       47
 90
       46
 90
       83
 90
       83
 90
       86
 90
       46
 90
       52
 90
       52
 90
       82
 90
       82
 90
       83
 90
       51
 90
       52
 90
       51
 90
       80
 90
       80
 90
       82
 90
       50
 90
       51
 90
       50
 90
       78
 90
       78
 90
       80
 90
       49
 90
       50
 90
       49
 90
       76
 90
       76
 90
       78
 90
       49
 90
       67
 90
       67
 90
       75
 90
       75
 90
       76
 90
       67
 90
       68
 90
       68
 90
       74
 90
       74
 90
       75
 90
       56
 90
       68
 90
       56
 90
       73
 90
       73
 90
       74
 90
       55
 90
       56
 90
       55
 90
       77
 90
       73
 90
       77
 90
       54
 90
       55
 90
       54
 90
       79
 90
       77
 90
       79
 90
       53
 90
       54
 90
       53
 90
       81
 90
       79
 90
       81
 90
        2
 90
       53
 90
        2
 90
       89
 90
       81
 90
       89
 90
        1
 90
        2
 90
        1
 90
       70
 90
       70
 90
       89
 90
        0
 90
        1
 90
       69
 90
       70
 90
        1
 90
       35
 90
       49
 90
       56
 90
       50
 90
       55
 90
       51
 90
       54
 90
       52
 90
       53
 90
       29
 90
       46
 90
       30
 90
       52
 90
       28
 90
       47
 90
       31
 90
       53
 90
        2
 90
       32
 90
        1
 90
       33
 90
        1
 90
       34
 90
       27
 90
       47
 90
       26
 90
       47
 90
       25
 90
       47
 90
       24
 90
       47
 90
       23
 90
       48
 90
       57
 90
       64
 90
       58
 90
       63
 90
       59
 90
       62
 90
       60
 90
       61
 90
       21
 90
       60
 90
       22
 90
       61
 90
       20
 90
       45
 90
       19
 90
       43
 90
       17
 90
       44
 90
       18
 90
       43
 90
       15
 90
       44
 90
       16
 90
       44
 90
       14
 90
       41
 90
       13
 90
       41
 90
       12
 90
       42
 90
        5
 90
       37
 90
        6
 90
       36
 90
       11
 90
       39
 90
       10
 90
       39
 90
        9
 90
       40
 90
        7
 90
       36
 90
        8
 90
       40
 90
       70
 90
       71
 90
       73
 90
       76
 90
       77
 90
       78
 90
       79
 90
       80
 90
       81
 90
       82
 90
       82
 90
       85
 90
       83
 90
       84
 90
       86
 90
       87
 90
       81
 90
       88
 90
       89
 90
       90
 90
       70
 90
       91
 90
       70
 90
       92
 90
       86
 90
       93
 90
       86
 90
       94
 90
       86
 90
       95
 90
       86
 90
       96
 90
       97
 90
       98
 90
       99
 90
      102
 90
      103
 90
      104
 90
      105
 90
      106
 90
      107
 90
      108
 90
      107
 90
      110
 90
      108
 90
      109
 90
      111
 90
      112
 90
      113
 90
      114
 90
      113
 90
      117
 90
      115
 90
      116
 90
      115
 90
      119
 90
      115
 90
      118
 90
      120
 90
      121
 90
      120
 90
      122
 90
      123
 90
      124
 90
      125
 90
      128
 90
      129
 90
      130
 90
      131
 90
      132
 90
      131
 90
      133
 90
      134
 90
      135
 90
      129
 90
      136
 90
      134
 90
      137
 95
      285
140
0.0
140
0.0
140
0.0
140
0.0
140
0.0
140
0.0
140
0.0
140
0.0
140
0.0
140
0.0
140
0.0
140
0.0
140
0.0
140
0.0
140
0.0
140
0.0
140
0.0
140
0.0
140
0.0
140
0.0
140
0.0
140
0.0
140
0.0
140
0.0
140
0.0
140
0.0
140
0.0
140
0.0
140
0.0
140
0.0
140
0.0
140
0.0
140
0.0
140
0.0
140
0.0
140
0.0
140
0.0
140
0.0
140
0.0
140
0.0
140
0.0
140
0.0
140
0.0
140
0.0
140
0.0
140
0.0
140
0.0
140
0.0
140
0.0
140
0.0
140
0.0
140
0.0
140
0.0
140
0.0
140
0.0
140
0.0
140
0.0
140
0.0
140
0.0
140
0.0
140
0.0
140
0.0
140
0.0
140
0.0
140
0.0
140
0.0
140
0.0
140
0.0
140
0.0
140
0.0
140
0.0
140
0.0
140
0.0
140
0.0
140
0.0
140
0.0
140
0.0
140
0.0
140
0.0
140
0.0
140
0.0
140
0.0
140
0.0
140
0.0
140
0.0
140
0.0
140
0.0
140
0.0
140
0.0
140
0.0
140
0.0
140
0.0
140
0.0
140
0.0
140
0.0
140
0.0
140
0.0
140
0.0
140
0.0
140
0.0
140
0.0
140
0.0
140
0.0
140
0.0
140
0.0
140
0.0
140
0.0
140
0.0
140
0.0
140
0.0
140
0.0
140
0.0
140
0.0
140
0.0
140
0.0
140
0.0
140
0.0
140
0.0
140
0.0
140
0.0
140
0.0
140
0.0
140
0.0
140
0.0
140
0.0
140
0.0
140
0.0
140
0.0
140
0.0
140
0.0
140
0.0
140
0.0
140
0.0
140
0.0
140
0.0
140
0.0
140
0.0
140
0.0
140
0.0
140
0.0
140
0.0
140
0.0
140
0.0
140
0.0
140
0.0
140
0.0
140
0.0
140
0.0
140
0.0
140
0.0
140
0.0
140
0.0
140
0.0
140
0.0
140
0.0
140
0.0
140
0.0
140
0.0
140
0.0
140
0.0
140
0.0
140
0.0
140
0.0
140
0.0
140
0.0
140
0.0
140
0.0
140
0.0
140
0.0
140
0.0
140
0.0
140
0.0
140
0.0
140
0.0
140
0.0
140
0.0
140
0.0
140
0.0
140
0.0
140
0.0
140
0.0
140
0.0
140
0.0
140
0.0
140
0.0
140
0.0
140
0.0
140
0.0
140
0.0
140
0.0
140
0.0
140
0.0
140
0.0
140
0.0
140
0.0
140
0.0
140
0.0
140
0.0
140
0.0
140
0.0
140
0.0
140
0.0
140
0.0
140
0.0
140
0.0
140
0.0
140
0.0
140
0.0
140
0.0
140
0.0
140
0.0
140
0.0
140
0.0
140
0.0
140
0.0
140
0.0
140
0.0
140
0.0
140
0.0
140
0.0
140
0.0
140
0.0
140
0.0
140
0.0
140
0.0
140
0.0
140
0.0
140
0.0
140
0.0
140
0.0
140
0.0
140
0.0
140
0.0
140
0.0
140
0.0
140
0.0
140
0.0
140
0.0
140
0.0
140
0.0
140
0.0
140
0.0
140
0.0
140
0.0
140
0.0
140
0.0
140
0.0
140
0.0
140
0.0
140
0.0
140
0.0
140
0.0
140
0.0
140
0.0
140
0.0
140
0.0
140
0.0
140
0.0
140
0.0
140
0.0
140
0.0
140
0.0
140
0.0
140
0.0
140
0.0
140
0.0
140
0.0
140
0.0
140
0.0
140
0.0
140
0.0
140
0.0
140
0.0
140
0.0
140
0.0
140
0.0
140
0.0
140
0.0
140
0.0
140
0.0
140
0.0
140
0.0
140
0.0
140
0.0
140
0.0
 90
        0
  0
ENDSEC
  0
SECTION
  2
OBJECTS
  0
DICTIONARY
  5
C
330
0
100
AcDbDictionary
281
     1
  3
ACAD_COLOR
350
DC
  3
ACAD_DETAILVIEWSTYLE
350
F5
  3
ACAD_GROUP
350
D
  3
ACAD_LAYOUT
350
1A
  3
ACAD_MATERIAL
350
AA
  3
ACAD_MLEADERSTYLE
350
F1
  3
ACAD_MLINESTYLE
350
17
  3
ACAD_PLOTSETTINGS
350
19
  3
ACAD_PLOTSTYLENAME
350
E
  3
ACAD_SCALELIST
350
DF
  3
ACAD_SECTIONVIEWSTYLE
350
F3
  3
ACAD_TABLESTYLE
350
DD
  3
ACAD_VISUALSTYLE
350
C3
  3
ACDB_RECOMPOSE_DATA
350
14D
  3
AcDbVariableDictionary
350
141
  0
DICTIONARY
  5
DC
102
{ACAD_REACTORS
330
C
102
}
330
C
100
AcDbDictionary
281
     1
  0
DICTIONARY
  5
F5
102
{ACAD_REACTORS
330
C
102
}
330
C
100
AcDbDictionary
281
     1
  3
Imperial24
350
F6
  0
DICTIONARY
  5
D
102
{ACAD_REACTORS
330
C
102
}
330
C
100
AcDbDictionary
281
     1
  0
DICTIONARY
  5
1A
102
{ACAD_REACTORS
330
C
102
}
330
C
100
AcDbDictionary
281
     1
  3
Layout1
350
1E
  3
Layout2
350
26
  3
Model
350
22
  0
DICTIONARY
  5
AA
102
{ACAD_REACTORS
330
C
102
}
330
C
100
AcDbDictionary
281
     1
  3
ByBlock
350
B3
  3
ByLayer
350
AB
  3
Global
350
BB
  0
DICTIONARY
  5
F1
102
{ACAD_REACTORS
330
C
102
}
330
C
100
AcDbDictionary
281
     1
  3
Standard
350
F2
  0
DICTIONARY
  5
17
102
{ACAD_REACTORS
330
C
102
}
330
C
100
AcDbDictionary
281
     1
  3
Standard
350
18
  0
DICTIONARY
  5
19
102
{ACAD_REACTORS
330
C
102
}
330
C
100
AcDbDictionary
281
     1
  0
ACDBDICTIONARYWDFLT
  5
E
102
{ACAD_REACTORS
330
C
102
}
330
C
100
AcDbDictionary
281
     1
  3
ByLayer
350
2D
  3
Normal
350
F
100
AcDbDictionaryWithDefault
340
F
  0
DICTIONARY
  5
DF
102
{ACAD_REACTORS
330
C
102
}
330
C
100
AcDbDictionary
281
     1
  3
A0
350
E0
  3
A1
350
E1
  3
A2
350
E2
  3
A3
350
E3
  3
A4
350
E4
  3
A5
350
E5
  3
A6
350
E6
  3
A7
350
E7
  3
A8
350
E8
  3
A9
350
E9
  3
B0
350
EA
  3
B1
350
EB
  3
B2
350
EC
  3
B3
350
ED
  3
B4
350
EE
  3
B5
350
EF
  3
B6
350
F0
  0
DICTIONARY
  5
F3
102
{ACAD_REACTORS
330
C
102
}
330
C
100
AcDbDictionary
281
     1
  3
Imperial24
350
F4
  0
DICTIONARY
  5
DD
102
{ACAD_REACTORS
330
C
102
}
330
C
100
AcDbDictionary
281
     1
  3
Standard
350
DE
  0
DICTIONARY
  5
C3
102
{ACAD_REACTORS
330
C
102
}
330
C
100
AcDbDictionary
281
     1
  3
2dWireframe
350
C9
  3
Basic
350
C8
  3
Brighten
350
CF
  3
ColorChange
350
D3
  3
Conceptual
350
CC
  3
Dim
350
CE
  3
EdgeColorOff
350
DB
  3
Facepattern
350
D2
  3
Flat
350
C4
  3
FlatWithEdges
350
C5
  3
Gouraud
350
C6
  3
GouraudWithEdges
350
C7
  3
Hidden
350
CB
  3
JitterOff
350
D9
  3
Linepattern
350
D1
  3
OverhangOff
350
DA
  3
Realistic
350
CD
  3
Shaded
350
D8
  3
Shaded with edges
350
D7
  3
Shades of Gray
350
D4
  3
Sketchy
350
D5
  3
Thicken
350
D0
  3
Wireframe
350
CA
  3
X-Ray
350
D6
  0
XRECORD
  5
14D
102
{ACAD_REACTORS
330
C
102
}
330
C
100
AcDbXrecord
280
     1
 90
        1
330
DE
  0
DICTIONARY
  5
141
102
{ACAD_REACTORS
330
C
102
}
330
C
100
AcDbDictionary
281
     1
  3
CANNOSCALE
350
147
  3
CMLEADERSTYLE
350
143
  3
CTABLESTYLE
350
142
  3
CVIEWDETAILSTYLE
350
144
  3
CVIEWSECTIONSTYLE
350
145
  3
LAYEREVAL
350
149
  3
LAYERNOTIFY
350
14A
  3
LIGHTINGUNITS
350
148
  3
MSLTSCALE
350
146
  0
ACDBDETAILVIEWSTYLE
  5
F6
102
{ACAD_XDICTIONARY
360
182
102
}
102
{ACAD_REACTORS
330
F5
102
}
330
F5
100
AcDbModelDocViewStyle
 70
     0
  3
Imperial24
290
     0
100
AcDbDetailViewStyle
 70
     0
 71
     0
 90
        3
 71
     1
340
11
 62
   256
 40
0.24
340
0
 62
   256
 40
0.24
300

 40
0.36
280
     3
 71
     2
340
16
 90
       25
 62
   256
 71
     3
340
11
 62
   256
 40
0.24
 90
        1
 40
0.75
 90
        1
300
%<\AcVar ViewType \f "%tc1">% %<\AcVar ViewDetailId>%\PSCALE %<\AcVar ViewScale \f "%sn">%
 71
     4
340
16
 90
       25
 62
   256
340
16
 90
       25
 62
   256
280
     0
  0
LAYOUT
  5
1E
102
{ACAD_REACTORS
330
1A
102
}
330
1A
100
AcDbPlotSettings
  1

  2
\\KTXNTBDC\CASF2PN1
  4

  6

 40
0.0
 41
0.0
 42
0.0
 43
0.0
 44
0.0
 45
0.0
 46
0.0
 47
0.0
 48
0.0
 49
0.0
140
0.0
141
0.0
142
1.0
143
1.0
 70
   688
 72
     0
 73
     0
 74
     5
  7

 75
    16
147
1.0
 76
     0
 77
     2
 78
   300
148
0.0
149
0.0
100
AcDbLayout
  1
Layout1
 70
     1
 71
     1
 10
0.0
 20
0.0
 11
12.0
 21
9.0
 12
0.0
 22
0.0
 32
0.0
 14
1.000000000000000E+20
 24
1.000000000000000E+20
 34
1.000000000000000E+20
 15
-1.000000000000000E+20
 25
-1.000000000000000E+20
 35
-1.000000000000000E+20
146
0.0
 13
0.0
 23
0.0
 33
0.0
 16
1.0
 26
0.0
 36
0.0
 17
0.0
 27
1.0
 37
0.0
 76
     0
330
1B
  0
LAYOUT
  5
26
102
{ACAD_REACTORS
330
1A
102
}
330
1A
100
AcDbPlotSettings
  1

  2
\\KTXNTBDC\CASF2PN1
  4

  6

 40
0.0
 41
0.0
 42
0.0
 43
0.0
 44
0.0
 45
0.0
 46
0.0
 47
0.0
 48
0.0
 49
0.0
140
0.0
141
0.0
142
1.0
143
1.0
 70
   688
 72
     0
 73
     0
 74
     5
  7

 75
    16
147
1.0
 76
     0
 77
     2
 78
   300
148
0.0
149
0.0
100
AcDbLayout
  1
Layout2
 70
     1
 71
     2
 10
0.0
 20
0.0
 11
12.0
 21
9.0
 12
0.0
 22
0.0
 32
0.0
 14
0.0
 24
0.0
 34
0.0
 15
0.0
 25
0.0
 35
0.0
146
0.0
 13
0.0
 23
0.0
 33
0.0
 16
1.0
 26
0.0
 36
0.0
 17
0.0
 27
1.0
 37
0.0
 76
     0
330
23
  0
LAYOUT
  5
22
102
{ACAD_REACTORS
330
1A
102
}
330
1A
100
AcDbPlotSettings
  1

  2
\\KTXNTBDC\CASF2PN1
  4

  6

 40
0.0
 41
0.0
 42
0.0
 43
0.0
 44
0.0
 45
0.0
 46
0.0
 47
0.0
 48
0.0
 49
0.0
140
0.0
141
0.0
142
1.0
143
1.0
 70
  1712
 72
     0
 73
     0
 74
     0
  7

 75
     0
147
1.0
 76
     0
 77
     2
 78
   300
148
0.0
149
0.0
100
AcDbLayout
  1
Model
 70
     1
 71
     0
 10
0.0
 20
0.0
 11
12.0
 21
9.0
 12
0.0
 22
0.0
 32
0.0
 14
0.0
 24
0.0
 34
0.0
 15
0.0
 25
0.0
 35
0.0
146
0.0
 13
0.0
 23
0.0
 33
0.0
 16
1.0
 26
0.0
 36
0.0
 17
0.0
 27
1.0
 37
0.0
 76
     0
330
1F
  0
MATERIAL
  5
B3
102
{ACAD_XDICTIONARY
360
B4
102
}
102
{ACAD_REACTORS
330
AA
102
}
330
AA
100
AcDbMaterial
  1
ByBlock
 72
     0
 43
0.0208333333333333
 43
0.0
 43
0.0
 43
0.0
 43
0.0
 43
0.0208333333333333
 43
0.0
 43
0.0
 43
0.0
 43
0.0
 43
1.0
 43
0.0
 43
0.0
 43
0.0
 43
0.0
 43
1.0
 77
     0
 47
0.0208333333333333
 47
0.0
 47
0.0
 47
0.0
 47
0.0
 47
0.0208333333333333
 47
0.0
 47
0.0
 47
0.0
 47
0.0
 47
1.0
 47
0.0
 47
0.0
 47
0.0
 47
0.0
 47
1.0
171
     0
 49
0.0208333333333333
 49
0.0
 49
0.0
 49
0.0
 49
0.0
 49
0.0208333333333333
 49
0.0
 49
0.0
 49
0.0
 49
0.0
 49
1.0
 49
0.0
 49
0.0
 49
0.0
 49
0.0
 49
1.0
175
     0
142
0.0208333333333333
142
0.0
142
0.0
142
0.0
142
0.0
142
0.0208333333333333
142
0.0
142
0.0
142
0.0
142
0.0
142
1.0
142
0.0
142
0.0
142
0.0
142
0.0
142
1.0
179
     0
144
0.0208333333333333
144
0.0
144
0.0
144
0.0
144
0.0
144
0.0208333333333333
144
0.0
144
0.0
144
0.0
144
0.0
144
1.0
144
0.0
144
0.0
144
0.0
144
0.0
144
1.0
147
0.0208333333333333
147
0.0
147
0.0
147
0.0
147
0.0
147
0.0208333333333333
147
0.0
147
0.0
147
0.0
147
0.0
147
1.0
147
0.0
147
0.0
147
0.0
147
0.0
147
1.0
  0
MATERIAL
  5
AB
102
{ACAD_XDICTIONARY
360
AC
102
}
102
{ACAD_REACTORS
330
AA
102
}
330
AA
100
AcDbMaterial
  1
ByLayer
 72
     0
 43
0.0208333333333333
 43
0.0
 43
0.0
 43
0.0
 43
0.0
 43
0.0208333333333333
 43
0.0
 43
0.0
 43
0.0
 43
0.0
 43
1.0
 43
0.0
 43
0.0
 43
0.0
 43
0.0
 43
1.0
 77
     0
 47
0.0208333333333333
 47
0.0
 47
0.0
 47
0.0
 47
0.0
 47
0.0208333333333333
 47
0.0
 47
0.0
 47
0.0
 47
0.0
 47
1.0
 47
0.0
 47
0.0
 47
0.0
 47
0.0
 47
1.0
171
     0
 49
0.0208333333333333
 49
0.0
 49
0.0
 49
0.0
 49
0.0
 49
0.0208333333333333
 49
0.0
 49
0.0
 49
0.0
 49
0.0
 49
1.0
 49
0.0
 49
0.0
 49
0.0
 49
0.0
 49
1.0
175
     0
142
0.0208333333333333
142
0.0
142
0.0
142
0.0
142
0.0
142
0.0208333333333333
142
0.0
142
0.0
142
0.0
142
0.0
142
1.0
142
0.0
142
0.0
142
0.0
142
0.0
142
1.0
179
     0
144
0.0208333333333333
144
0.0
144
0.0
144
0.0
144
0.0
144
0.0208333333333333
144
0.0
144
0.0
144
0.0
144
0.0
144
1.0
144
0.0
144
0.0
144
0.0
144
0.0
144
1.0
147
0.0208333333333333
147
0.0
147
0.0
147
0.0
147
0.0
147
0.0208333333333333
147
0.0
147
0.0
147
0.0
147
0.0
147
1.0
147
0.0
147
0.0
147
0.0
147
0.0
147
1.0
  0
MATERIAL
  5
BB
102
{ACAD_XDICTIONARY
360
BC
102
}
102
{ACAD_REACTORS
330
AA
102
}
330
AA
100
AcDbMaterial
  1
Global
 72
     0
 43
0.0208333333333333
 43
0.0
 43
0.0
 43
0.0
 43
0.0
 43
0.0208333333333333
 43
0.0
 43
0.0
 43
0.0
 43
0.0
 43
1.0
 43
0.0
 43
0.0
 43
0.0
 43
0.0
 43
1.0
 77
     0
 47
0.0208333333333333
 47
0.0
 47
0.0
 47
0.0
 47
0.0
 47
0.0208333333333333
 47
0.0
 47
0.0
 47
0.0
 47
0.0
 47
1.0
 47
0.0
 47
0.0
 47
0.0
 47
0.0
 47
1.0
171
     0
 49
0.0208333333333333
 49
0.0
 49
0.0
 49
0.0
 49
0.0
 49
0.0208333333333333
 49
0.0
 49
0.0
 49
0.0
 49
0.0
 49
1.0
 49
0.0
 49
0.0
 49
0.0
 49
0.0
 49
1.0
175
     0
142
0.0208333333333333
142
0.0
142
0.0
142
0.0
142
0.0
142
0.0208333333333333
142
0.0
142
0.0
142
0.0
142
0.0
142
1.0
142
0.0
142
0.0
142
0.0
142
0.0
142
1.0
179
     0
144
0.0208333333333333
144
0.0
144
0.0
144
0.0
144
0.0
144
0.0208333333333333
144
0.0
144
0.0
144
0.0
144
0.0
144
1.0
144
0.0
144
0.0
144
0.0
144
0.0
144
1.0
147
0.0208333333333333
147
0.0
147
0.0
147
0.0
147
0.0
147
0.0208333333333333
147
0.0
147
0.0
147
0.0
147
0.0
147
1.0
147
0.0
147
0.0
147
0.0
147
0.0
147
1.0
  0
MLEADERSTYLE
  5
F2
102
{ACAD_XDICTIONARY
360
17E
102
}
102
{ACAD_REACTORS
330
F1
102
}
330
F1
100
AcDbMLeaderStyle
179
     2
170
     2
171
     1
172
     0
 90
        2
 40
0.0
 41
0.0
173
     1
 91
-1056964608
340
14
 92
       -2
290
     1
 42
0.09
291
     1
 43
0.36
  3
Standard
 44
0.18
300

342
11
174
     1
178
     6
175
     1
176
     0
 93
-1056964608
 45
0.18
292
     0
297
     0
 46
0.18
 94
-1056964608
 47
1.0
 49
1.0
140
1.0
293
     1
141
0.0
294
     1
177
     0
142
1.0
295
     0
296
     0
143
0.125
271
     0
272
     9
273
     9
  0
MLINESTYLE
  5
18
102
{ACAD_REACTORS
330
17
102
}
330
17
100
AcDbMlineStyle
  2
STANDARD
 70
     0
  3

 62
   256
 51
90.0
 52
90.0
 71
     2
 49
0.5
 62
   256
  6
BYLAYER
 49
-0.5
 62
   256
  6
BYLAYER
  0
ACDBPLACEHOLDER
  5
2D
102
{ACAD_REACTORS
330
E
102
}
330
E
  0
ACDBPLACEHOLDER
  5
F
102
{ACAD_REACTORS
330
E
102
}
330
E
  0
SCALE
  5
E0
102
{ACAD_REACTORS
330
DF
102
}
330
DF
100
AcDbScale
 70
     0
300
1:1
140
1.0
141
1.0
290
     1
  0
SCALE
  5
E1
102
{ACAD_REACTORS
330
DF
102
}
330
DF
100
AcDbScale
 70
     0
300
1/128" = 1'-0"
140
0.0078125
141
12.0
290
     0
  0
SCALE
  5
E2
102
{ACAD_REACTORS
330
DF
102
}
330
DF
100
AcDbScale
 70
     0
300
1/64" = 1'-0"
140
0.015625
141
12.0
290
     0
  0
SCALE
  5
E3
102
{ACAD_REACTORS
330
DF
102
}
330
DF
100
AcDbScale
 70
     0
300
1/32" = 1'-0"
140
0.03125
141
12.0
290
     0
  0
SCALE
  5
E4
102
{ACAD_REACTORS
330
DF
102
}
330
DF
100
AcDbScale
 70
     0
300
1/16" = 1'-0"
140
0.0625
141
12.0
290
     0
  0
SCALE
  5
E5
102
{ACAD_REACTORS
330
DF
102
}
330
DF
100
AcDbScale
 70
     0
300
3/32" = 1'-0"
140
0.09375
141
12.0
290
     0
  0
SCALE
  5
E6
102
{ACAD_REACTORS
330
DF
102
}
330
DF
100
AcDbScale
 70
     0
300
1/8" = 1'-0"
140
0.125
141
12.0
290
     0
  0
SCALE
  5
E7
102
{ACAD_REACTORS
330
DF
102
}
330
DF
100
AcDbScale
 70
     0
300
3/16" = 1'-0"
140
0.1875
141
12.0
290
     0
  0
SCALE
  5
E8
102
{ACAD_REACTORS
330
DF
102
}
330
DF
100
AcDbScale
 70
     0
300
1/4" = 1'-0"
140
0.25
141
12.0
290
     0
  0
SCALE
  5
E9
102
{ACAD_REACTORS
330
DF
102
}
330
DF
100
AcDbScale
 70
     0
300
3/8" = 1'-0"
140
0.375
141
12.0
290
     0
  0
SCALE
  5
EA
102
{ACAD_REACTORS
330
DF
102
}
330
DF
100
AcDbScale
 70
     0
300
1/2" = 1'-0"
140
0.5
141
12.0
290
     0
  0
SCALE
  5
EB
102
{ACAD_REACTORS
330
DF
102
}
330
DF
100
AcDbScale
 70
     0
300
3/4" = 1'-0"
140
0.75
141
12.0
290
     0
  0
SCALE
  5
EC
102
{ACAD_REACTORS
330
DF
102
}
330
DF
100
AcDbScale
 70
     0
300
1" = 1'-0"
140
1.0
141
12.0
290
     0
  0
SCALE
  5
ED
102
{ACAD_REACTORS
330
DF
102
}
330
DF
100
AcDbScale
 70
     0
300
1-1/2" = 1'-0"
140
1.5
141
12.0
290
     0
  0
SCALE
  5
EE
102
{ACAD_REACTORS
330
DF
102
}
330
DF
100
AcDbScale
 70
     0
300
3" = 1'-0"
140
3.0
141
12.0
290
     0
  0
SCALE
  5
EF
102
{ACAD_REACTORS
330
DF
102
}
330
DF
100
AcDbScale
 70
     0
300
6" = 1'-0"
140
6.0
141
12.0
290
     0
  0
SCALE
  5
F0
102
{ACAD_REACTORS
330
DF
102
}
330
DF
100
AcDbScale
 70
     0
300
1'-0" = 1'-0"
140
12.0
141
12.0
290
     0
  0
ACDBSECTIONVIEWSTYLE
  5
F4
102
{ACAD_XDICTIONARY
360
180
102
}
102
{ACAD_REACTORS
330
F3
102
}
330
F3
100
AcDbModelDocViewStyle
 70
     0
  3
Imperial24
290
     0
100
AcDbSectionViewStyle
 70
     0
 71
     0
 90
       78
 71
     1
340
11
 62
   256
 40
0.24
340
0
340
0
 62
   256
 40
0.24
300
I, O, Q, S, X, Z
 40
0.48
 90
        3
 40
0.18
 90
        1
 71
     2
340
16
 90
       25
 62
   256
340
16
 90
       50
 62
   256
 40
0.24
 40
0.0
 40
0.24
 71
     3
340
11
 62
   256
 40
0.24
 90
        1
 40
0.75
 90
        1
300
%<\AcVar ViewType \f "%tc1">% %<\AcVar ViewSectionStartId>%-%<\AcVar ViewSectionEndId>%\PSCALE %<\AcVar ViewScale \f "%sn">%
 71
     4
 62
   256
 62
   257
300
ANSI31
 40
1.0
 90
        0
290
     0
290
     0
 90
        6
 40
0.0
 40
1.570796326794896
 40
0.2617993877991494
 40
1.308996938995747
 40
-0.2617993877991494
 40
1.832595714594046
  0
TABLESTYLE
  5
DE
102
{ACAD_XDICTIONARY
360
14B
102
}
102
{ACAD_REACTORS
330
DD
102
}
330
DD
100
AcDbTableStyle
280
     0
  3
Standard
 70
     0
 71
     0
 40
0.06
 41
0.06
280
     0
281
     0
  7
Standard
140
0.18
170
     2
 62
     0
 63
     7
283
     0
 90
      512
 91
        0
  1

274
    -2
284
     1
 64
     0
275
    -2
285
     1
 65
     0
276
    -2
286
     1
 66
     0
277
    -2
287
     1
 67
     0
278
    -2
288
     1
 68
     0
279
    -2
289
     1
 69
     0
  7
Standard
140
0.25
170
     5
 62
     0
 63
     7
283
     0
 90
      512
 91
        0
  1

274
    -2
284
     1
 64
     0
275
    -2
285
     1
 65
     0
276
    -2
286
     1
 66
     0
277
    -2
287
     1
 67
     0
278
    -2
288
     1
 68
     0
279
    -2
289
     1
 69
     0
  7
Standard
140
0.18
170
     5
 62
     0
 63
     7
283
     0
 90
      512
 91
        0
  1

274
    -2
284
     1
 64
     0
275
    -2
285
     1
 65
     0
276
    -2
286
     1
 66
     0
277
    -2
287
     1
 67
     0
278
    -2
288
     1
 68
     0
279
    -2
289
     1
 69
     0
  0
VISUALSTYLE
  5
C9
102
{ACAD_XDICTIONARY
360
158
102
}
102
{ACAD_REACTORS
330
C3
102
}
330
C3
100
AcDbVisualStyle
  2
2dWireframe
 70
     4
177
     2
291
     0
 71
     0
176
     1
 72
     2
176
     1
 73
     0
176
     1
 90
        0
176
     1
 40
0.6
176
     1
 41
30.0
176
     1
 63
     7
421
 16777215
176
     1
 74
     1
176
     1
 91
        4
176
     1
 64
     7
176
     1
 65
   257
176
     1
 75
     1
176
     1
175
     1
176
     1
 42
1.0
176
     1
 92
        0
176
     1
 66
   257
176
     1
 43
1.0
176
     1
 76
     1
176
     1
 77
     6
176
     1
 78
     2
176
     1
 67
     7
176
     1
 79
     5
176
     1
170
     0
176
     1
171
     0
176
     1
290
     0
176
     1
 93
        1
176
     1
 44
0.0
176
     1
173
     0
176
     1
1001
ACAD
1000
AcDbSavedByObjectVersion
1070
     0
  0
VISUALSTYLE
  5
C8
102
{ACAD_XDICTIONARY
360
156
102
}
102
{ACAD_REACTORS
330
C3
102
}
330
C3
100
AcDbVisualStyle
  2
Basic
 70
     7
177
     2
291
     1
 71
     1
176
     1
 72
     0
176
     1
 73
     1
176
     1
 90
        0
176
     1
 40
0.6
176
     1
 41
30.0
176
     1
 63
     7
421
 16777215
176
     1
 74
     0
176
     1
 91
        4
176
     1
 64
     7
176
     1
 65
   257
176
     1
 75
     1
176
     1
175
     1
176
     1
 42
1.0
176
     1
 92
        8
176
     1
 66
     7
176
     1
 43
1.0
176
     1
 76
     1
176
     1
 77
     6
176
     1
 78
     2
176
     1
 67
     7
176
     1
 79
     5
176
     1
170
     0
176
     1
171
     0
176
     1
290
     0
176
     1
 93
        1
176
     1
 44
0.0
176
     1
173
     0
176
     1
1001
ACAD
1000
AcDbSavedByObjectVersion
1070
     0
  0
VISUALSTYLE
  5
CF
102
{ACAD_XDICTIONARY
360
164
102
}
102
{ACAD_REACTORS
330
C3
102
}
330
C3
100
AcDbVisualStyle
  2
Brighten
 70
    12
177
     2
291
     1
 71
     2
176
     1
 72
     2
176
     1
 73
     0
176
     1
 90
        0
176
     1
 40
0.6
176
     1
 41
30.0
176
     1
 63
     7
421
 16777215
176
     1
 74
     1
176
     1
 91
        4
176
     1
 64
     7
176
     1
 65
   257
176
     1
 75
     1
176
     1
175
     1
176
     1
 42
1.0
176
     1
 92
        8
176
     1
 66
     7
176
     1
 43
1.0
176
     1
 76
     1
176
     1
 77
     6
176
     1
 78
     2
176
     1
 67
     7
176
     1
 79
     5
176
     1
170
     0
176
     1
171
     0
176
     1
290
     0
176
     1
 93
        1
176
     1
 44
50.0
176
     1
173
     0
176
     1
1001
ACAD
1000
AcDbSavedByObjectVersion
1070
     0
  0
VISUALSTYLE
  5
D3
102
{ACAD_XDICTIONARY
360
16C
102
}
102
{ACAD_REACTORS
330
C3
102
}
330
C3
100
AcDbVisualStyle
  2
ColorChange
 70
    16
177
     2
291
     1
 71
     2
176
     1
 72
     2
176
     1
 73
     3
176
     1
 90
        0
176
     1
 40
0.6
176
     1
 41
30.0
176
     1
 63
     8
421
  8421504
176
     1
 74
     1
176
     1
 91
        4
176
     1
 64
     7
176
     1
 65
   257
176
     1
 75
     1
176
     1
175
     1
176
     1
 42
1.0
176
     1
 92
        8
176
     1
 66
     8
424
  8421504
176
     1
 43
1.0
176
     1
 76
     1
176
     1
 77
     6
176
     1
 78
     2
176
     1
 67
     7
176
     1
 79
     5
176
     1
170
     0
176
     1
171
     0
176
     1
290
     0
176
     1
 93
        1
176
     1
 44
0.0
176
     1
173
     0
176
     1
1001
ACAD
1000
AcDbSavedByObjectVersion
1070
     0
  0
VISUALSTYLE
  5
CC
102
{ACAD_XDICTIONARY
360
15E
102
}
102
{ACAD_REACTORS
330
C3
102
}
330
C3
100
AcDbVisualStyle
  2
Conceptual
 70
     9
177
     2
291
     0
 71
     3
176
     1
 72
     2
176
     1
 73
     0
176
     1
 90
        0
176
     1
 40
0.6
176
     1
 41
30.0
176
     1
 63
     7
421
 16777215
176
     1
 74
     2
176
     1
 91
        2
176
     1
 64
     7
176
     1
 65
   257
176
     1
 75
     1
176
     1
175
     1
176
     1
 42
179.0
176
     1
 92
        8
176
     1
 66
     7
176
     1
 43
1.0
176
     1
 76
     1
176
     1
 77
     6
176
     1
 78
     2
176
     1
 67
     7
176
     1
 79
     3
176
     1
170
     0
176
     1
171
     0
176
     1
290
     0
176
     1
 93
        1
176
     1
 44
0.0
176
     1
173
     0
176
     1
1001
ACAD
1000
AcDbSavedByObjectVersion
1070
     0
  0
VISUALSTYLE
  5
CE
102
{ACAD_XDICTIONARY
360
162
102
}
102
{ACAD_REACTORS
330
C3
102
}
330
C3
100
AcDbVisualStyle
  2
Dim
 70
    11
177
     2
291
     1
 71
     2
176
     1
 72
     2
176
     1
 73
     0
176
     1
 90
        0
176
     1
 40
0.6
176
     1
 41
30.0
176
     1
 63
     7
421
 16777215
176
     1
 74
     1
176
     1
 91
        4
176
     1
 64
     7
176
     1
 65
   257
176
     1
 75
     1
176
     1
175
     1
176
     1
 42
1.0
176
     1
 92
        8
176
     1
 66
     7
176
     1
 43
1.0
176
     1
 76
     1
176
     1
 77
     6
176
     1
 78
     2
176
     1
 67
     7
176
     1
 79
     5
176
     1
170
     0
176
     1
171
     0
176
     1
290
     0
176
     1
 93
        1
176
     1
 44
-50.0
176
     1
173
     0
176
     1
1001
ACAD
1000
AcDbSavedByObjectVersion
1070
     0
  0
VISUALSTYLE
  5
DB
102
{ACAD_XDICTIONARY
360
17C
102
}
102
{ACAD_REACTORS
330
C3
102
}
330
C3
100
AcDbVisualStyle
  2
EdgeColorOff
 70
    22
177
     2
291
     1
 71
     2
176
     0
 72
     2
176
     0
 73
     0
176
     0
 90
        0
176
     0
 40
0.6
176
     0
 41
30.0
176
     0
 63
     7
421
 16777215
176
     0
 74
     1
176
     0
 91
        4
176
     0
 64
     7
176
     0
 65
   257
176
     0
 75
     1
176
     0
175
     1
176
     0
 42
1.0
176
     0
 92
        8
176
     2
 66
     7
176
     0
 43
1.0
176
     0
 76
     1
176
     0
 77
     6
176
     0
 78
     2
176
     0
 67
     7
176
     0
 79
     5
176
     0
170
     0
176
     0
171
     0
176
     0
290
     0
176
     0
 93
        1
176
     0
 44
0.0
176
     0
173
     0
176
     0
1001
ACAD
1000
AcDbSavedByObjectVersion
1070
     0
  0
VISUALSTYLE
  5
D2
102
{ACAD_XDICTIONARY
360
16A
102
}
102
{ACAD_REACTORS
330
C3
102
}
330
C3
100
AcDbVisualStyle
  2
Facepattern
 70
    15
177
     2
291
     1
 71
     2
176
     1
 72
     2
176
     1
 73
     0
176
     1
 90
        0
176
     1
 40
0.6
176
     1
 41
30.0
176
     1
 63
     7
421
 16777215
176
     1
 74
     1
176
     1
 91
        4
176
     1
 64
     7
176
     1
 65
   257
176
     1
 75
     1
176
     1
175
     1
176
     1
 42
1.0
176
     1
 92
        8
176
     1
 66
     7
176
     1
 43
1.0
176
     1
 76
     1
176
     1
 77
     6
176
     1
 78
     2
176
     1
 67
     7
176
     1
 79
     5
176
     1
170
     0
176
     1
171
     0
176
     1
290
     0
176
     1
 93
        1
176
     1
 44
0.0
176
     1
173
     0
176
     1
1001
ACAD
1000
AcDbSavedByObjectVersion
1070
     0
  0
VISUALSTYLE
  5
C4
102
{ACAD_XDICTIONARY
360
14E
102
}
102
{ACAD_REACTORS
330
C3
102
}
330
C3
100
AcDbVisualStyle
  2
Flat
 70
     0
177
     2
291
     1
 71
     2
176
     1
 72
     1
176
     1
 73
     1
176
     1
 90
        2
176
     1
 40
0.6
176
     1
 41
30.0
176
     1
 63
     7
421
 16777215
176
     1
 74
     0
176
     1
 91
        0
176
     1
 64
     7
176
     1
 65
   257
176
     1
 75
     1
176
     1
175
     1
176
     1
 42
1.0
176
     1
 92
        8
176
     1
 66
     7
176
     1
 43
1.0
176
     1
 76
     1
176
     1
 77
     6
176
     1
 78
     2
176
     1
 67
     7
176
     1
 79
     5
176
     1
170
     0
176
     1
171
     0
176
     1
290
     0
176
     1
 93
       13
176
     1
 44
0.0
176
     1
173
     0
176
     1
1001
ACAD
1000
AcDbSavedByObjectVersion
1070
     0
  0
VISUALSTYLE
  5
C5
102
{ACAD_XDICTIONARY
360
150
102
}
102
{ACAD_REACTORS
330
C3
102
}
330
C3
100
AcDbVisualStyle
  2
FlatWithEdges
 70
     1
177
     2
291
     1
 71
     2
176
     1
 72
     1
176
     1
 73
     1
176
     1
 90
        2
176
     1
 40
0.6
176
     1
 41
30.0
176
     1
 63
     7
421
 16777215
176
     1
 74
     1
176
     1
 91
        0
176
     1
 64
     7
176
     1
 65
   257
176
     1
 75
     1
176
     1
175
     1
176
     1
 42
1.0
176
     1
 92
        0
176
     1
 66
   257
176
     1
 43
1.0
176
     1
 76
     1
176
     1
 77
     6
176
     1
 78
     2
176
     1
 67
     7
176
     1
 79
     5
176
     1
170
     0
176
     1
171
     0
176
     1
290
     0
176
     1
 93
       13
176
     1
 44
0.0
176
     1
173
     0
176
     1
1001
ACAD
1000
AcDbSavedByObjectVersion
1070
     0
  0
VISUALSTYLE
  5
C6
102
{ACAD_XDICTIONARY
360
152
102
}
102
{ACAD_REACTORS
330
C3
102
}
330
C3
100
AcDbVisualStyle
  2
Gouraud
 70
     2
177
     2
291
     1
 71
     2
176
     1
 72
     2
176
     1
 73
     1
176
     1
 90
        2
176
     1
 40
0.6
176
     1
 41
30.0
176
     1
 63
     7
421
 16777215
176
     1
 74
     0
176
     1
 91
        0
176
     1
 64
     7
176
     1
 65
   257
176
     1
 75
     1
176
     1
175
     1
176
     1
 42
1.0
176
     1
 92
        0
176
     1
 66
     7
176
     1
 43
1.0
176
     1
 76
     1
176
     1
 77
     6
176
     1
 78
     2
176
     1
 67
     7
176
     1
 79
     5
176
     1
170
     0
176
     1
171
     0
176
     1
290
     0
176
     1
 93
       13
176
     1
 44
0.0
176
     1
173
     0
176
     1
1001
ACAD
1000
AcDbSavedByObjectVersion
1070
     0
  0
VISUALSTYLE
  5
C7
102
{ACAD_XDICTIONARY
360
154
102
}
102
{ACAD_REACTORS
330
C3
102
}
330
C3
100
AcDbVisualStyle
  2
GouraudWithEdges
 70
     3
177
     2
291
     1
 71
     2
176
     1
 72
     2
176
     1
 73
     1
176
     1
 90
        2
176
     1
 40
0.6
176
     1
 41
30.0
176
     1
 63
     7
421
 16777215
176
     1
 74
     1
176
     1
 91
        0
176
     1
 64
     7
176
     1
 65
   257
176
     1
 75
     1
176
     1
175
     1
176
     1
 42
1.0
176
     1
 92
        0
176
     1
 66
   257
176
     1
 43
1.0
176
     1
 76
     1
176
     1
 77
     6
176
     1
 78
     2
176
     1
 67
     7
176
     1
 79
     5
176
     1
170
     0
176
     1
171
     0
176
     1
290
     0
176
     1
 93
       13
176
     1
 44
0.0
176
     1
173
     0
176
     1
1001
ACAD
1000
AcDbSavedByObjectVersion
1070
     0
  0
VISUALSTYLE
  5
CB
102
{ACAD_XDICTIONARY
360
15C
102
}
102
{ACAD_REACTORS
330
C3
102
}
330
C3
100
AcDbVisualStyle
  2
Hidden
 70
     6
177
     2
291
     0
 71
     1
176
     1
 72
     2
176
     1
 73
     2
176
     1
 90
        0
176
     1
 40
0.6
176
     1
 41
30.0
176
     1
 63
     7
421
 16777215
176
     1
 74
     2
176
     1
 91
        2
176
     1
 64
     7
176
     1
 65
   257
176
     1
 75
     2
176
     1
175
     1
176
     1
 42
40.0
176
     1
 92
        0
176
     1
 66
   257
176
     1
 43
1.0
176
     1
 76
     1
176
     1
 77
     6
176
     1
 78
     2
176
     1
 67
     7
176
     1
 79
     3
176
     1
170
     0
176
     1
171
     0
176
     1
290
     0
176
     1
 93
        1
176
     1
 44
0.0
176
     1
173
     0
176
     1
1001
ACAD
1000
AcDbSavedByObjectVersion
1070
     0
  0
VISUALSTYLE
  5
D9
102
{ACAD_XDICTIONARY
360
178
102
}
102
{ACAD_REACTORS
330
C3
102
}
330
C3
100
AcDbVisualStyle
  2
JitterOff
 70
    20
177
     2
291
     1
 71
     2
176
     0
 72
     2
176
     0
 73
     0
176
     0
 90
        0
176
     0
 40
0.6
176
     0
 41
30.0
176
     0
 63
     7
421
 16777215
176
     0
 74
     1
176
     0
 91
        4
176
     0
 64
     7
176
     0
 65
   257
176
     0
 75
     1
176
     0
175
     1
176
     0
 42
1.0
176
     0
 92
       10
176
     2
 66
     7
176
     0
 43
1.0
176
     0
 76
     1
176
     0
 77
     6
176
     0
 78
     2
176
     0
 67
     7
176
     0
 79
     5
176
     0
170
     0
176
     0
171
     0
176
     0
290
     0
176
     0
 93
        1
176
     0
 44
0.0
176
     0
173
     0
176
     0
1001
ACAD
1000
AcDbSavedByObjectVersion
1070
     0
  0
VISUALSTYLE
  5
D1
102
{ACAD_XDICTIONARY
360
168
102
}
102
{ACAD_REACTORS
330
C3
102
}
330
C3
100
AcDbVisualStyle
  2
Linepattern
 70
    14
177
     2
291
     1
 71
     2
176
     1
 72
     2
176
     1
 73
     0
176
     1
 90
        0
176
     1
 40
0.6
176
     1
 41
30.0
176
     1
 63
     7
421
 16777215
176
     1
 74
     1
176
     1
 91
        4
176
     1
 64
     7
176
     1
 65
   257
176
     1
 75
     7
176
     1
175
     7
176
     1
 42
1.0
176
     1
 92
        8
176
     1
 66
     7
176
     1
 43
1.0
176
     1
 76
     1
176
     1
 77
     6
176
     1
 78
     2
176
     1
 67
     7
176
     1
 79
     5
176
     1
170
     0
176
     1
171
     0
176
     1
290
     0
176
     1
 93
        1
176
     1
 44
0.0
176
     1
173
     0
176
     1
1001
ACAD
1000
AcDbSavedByObjectVersion
1070
     0
  0
VISUALSTYLE
  5
DA
102
{ACAD_XDICTIONARY
360
17A
102
}
102
{ACAD_REACTORS
330
C3
102
}
330
C3
100
AcDbVisualStyle
  2
OverhangOff
 70
    21
177
     2
291
     1
 71
     2
176
     0
 72
     2
176
     0
 73
     0
176
     0
 90
        0
176
     0
 40
0.6
176
     0
 41
30.0
176
     0
 63
     7
421
 16777215
176
     0
 74
     1
176
     0
 91
        4
176
     0
 64
     7
176
     0
 65
   257
176
     0
 75
     1
176
     0
175
     1
176
     0
 42
1.0
176
     0
 92
        9
176
     2
 66
     7
176
     0
 43
1.0
176
     0
 76
     1
176
     0
 77
     6
176
     0
 78
     2
176
     0
 67
     7
176
     0
 79
     5
176
     0
170
     0
176
     0
171
     0
176
     0
290
     0
176
     0
 93
        1
176
     0
 44
0.0
176
     0
173
     0
176
     0
1001
ACAD
1000
AcDbSavedByObjectVersion
1070
     0
  0
VISUALSTYLE
  5
CD
102
{ACAD_XDICTIONARY
360
160
102
}
102
{ACAD_REACTORS
330
C3
102
}
330
C3
100
AcDbVisualStyle
  2
Realistic
 70
     8
177
     2
291
     0
 71
     2
176
     1
 72
     3
176
     1
 73
     0
176
     1
 90
        2
176
     1
 40
0.6
176
     1
 41
30.0
176
     1
 63
     7
421
 16777215
176
     1
 74
     0
176
     1
 91
        0
176
     1
 64
     7
176
     1
 65
   257
176
     1
 75
     1
176
     1
175
     1
176
     1
 42
1.0
176
     1
 92
        8
176
     1
 66
   257
176
     1
 43
1.0
176
     1
 76
     1
176
     1
 77
     6
176
     1
 78
     2
176
     1
 67
     7
176
     1
 79
     3
176
     1
170
     0
176
     1
171
     0
176
     1
290
     0
176
     1
 93
       13
176
     1
 44
0.0
176
     1
173
     0
176
     1
1001
ACAD
1000
AcDbSavedByObjectVersion
1070
     0
  0
VISUALSTYLE
  5
D8
102
{ACAD_XDICTIONARY
360
176
102
}
102
{ACAD_REACTORS
330
C3
102
}
330
C3
100
AcDbVisualStyle
  2
Shaded
 70
    27
177
     2
291
     0
 71
     2
176
     1
 72
     2
176
     1
 73
     1
176
     1
 90
        2
176
     1
 40
0.6
176
     1
 41
30.0
176
     1
 63
     7
421
 16777215
176
     1
 74
     0
176
     1
 91
        4
176
     1
 64
     7
176
     1
 65
   257
176
     1
 75
     1
176
     1
175
     1
176
     1
 42
1.0
176
     1
 92
        8
176
     1
 66
   257
176
     1
 43
1.0
176
     1
 76
     1
176
     1
 77
     6
176
     1
 78
     2
176
     1
 67
     8
425
  7895160
176
     1
 79
     3
176
     1
170
     0
176
     1
171
     0
176
     1
290
     0
176
     1
 93
        5
176
     1
 44
0.0
176
     1
173
     0
176
     1
1001
ACAD
1000
AcDbSavedByObjectVersion
1070
     0
  0
VISUALSTYLE
  5
D7
102
{ACAD_XDICTIONARY
360
174
102
}
102
{ACAD_REACTORS
330
C3
102
}
330
C3
100
AcDbVisualStyle
  2
Shaded with edges
 70
    26
177
     2
291
     0
 71
     2
176
     1
 72
     2
176
     1
 73
     1
176
     1
 90
        2
176
     1
 40
0.6
176
     1
 41
30.0
176
     1
 63
     7
421
 16777215
176
     1
 74
     1
176
     1
 91
       10
176
     1
 64
     7
176
     1
 65
   257
176
     1
 75
     2
176
     1
175
     1
176
     1
 42
1.0
176
     1
 92
        8
176
     1
 66
   257
176
     1
 43
1.0
176
     1
 76
     1
176
     1
 77
     6
176
     1
 78
     2
176
     1
 67
     7
176
     1
 79
     3
176
     1
170
     0
176
     1
171
     0
176
     1
290
     0
176
     1
 93
        5
176
     1
 44
0.0
176
     1
173
     0
176
     1
1001
ACAD
1000
AcDbSavedByObjectVersion
1070
     0
  0
VISUALSTYLE
  5
D4
102
{ACAD_XDICTIONARY
360
16E
102
}
102
{ACAD_REACTORS
330
C3
102
}
330
C3
100
AcDbVisualStyle
  2
Shades of Gray
 70
    23
177
     2
291
     0
 71
     2
176
     1
 72
     2
176
     1
 73
     3
176
     1
 90
        0
176
     1
 40
0.6
176
     1
 41
30.0
176
     1
 63
     7
421
 16777215
176
     1
 74
     2
176
     1
 91
        2
176
     1
 64
     7
176
     1
 65
     7
176
     1
 75
     1
176
     1
175
     1
176
     1
 42
40.0
176
     1
 92
        8
176
     1
 66
     7
176
     1
 43
1.0
176
     1
 76
     1
176
     1
 77
     6
176
     1
 78
     2
176
     1
 67
     7
176
     1
 79
     3
176
     1
170
     0
176
     1
171
     0
176
     1
290
     0
176
     1
 93
        1
176
     1
 44
0.0
176
     1
173
     0
176
     1
1001
ACAD
1000
AcDbSavedByObjectVersion
1070
     0
  0
VISUALSTYLE
  5
D5
102
{ACAD_XDICTIONARY
360
170
102
}
102
{ACAD_REACTORS
330
C3
102
}
330
C3
100
AcDbVisualStyle
  2
Sketchy
 70
    24
177
     2
291
     0
 71
     1
176
     1
 72
     2
176
     1
 73
     2
176
     1
 90
        0
176
     1
 40
0.6
176
     1
 41
30.0
176
     1
 63
     7
421
 16777215
176
     1
 74
     2
176
     1
 91
        2
176
     1
 64
     7
176
     1
 65
     7
176
     1
 75
     1
176
     1
175
     1
176
     1
 42
40.0
176
     1
 92
       11
176
     1
 66
     7
176
     1
 43
1.0
176
     1
 76
     1
176
     1
 77
     6
176
     1
 78
     2
176
     1
 67
     7
176
     1
 79
     6
176
     1
170
     0
176
     1
171
     0
176
     1
290
     0
176
     1
 93
        1
176
     1
 44
0.0
176
     1
173
     0
176
     1
1001
ACAD
1000
AcDbSavedByObjectVersion
1070
     0
  0
VISUALSTYLE
  5
D0
102
{ACAD_XDICTIONARY
360
166
102
}
102
{ACAD_REACTORS
330
C3
102
}
330
C3
100
AcDbVisualStyle
  2
Thicken
 70
    13
177
     2
291
     1
 71
     2
176
     1
 72
     2
176
     1
 73
     0
176
     1
 90
        0
176
     1
 40
0.6
176
     1
 41
30.0
176
     1
 63
     7
421
 16777215
176
     1
 74
     1
176
     1
 91
        4
176
     1
 64
     7
176
     1
 65
   257
176
     1
 75
     1
176
     1
175
     1
176
     1
 42
1.0
176
     1
 92
       12
176
     1
 66
     7
176
     1
 43
1.0
176
     1
 76
     1
176
     1
 77
     6
176
     1
 78
     2
176
     1
 67
     7
176
     1
 79
     5
176
     1
170
     0
176
     1
171
     0
176
     1
290
     0
176
     1
 93
        1
176
     1
 44
0.0
176
     1
173
     0
176
     1
1001
ACAD
1000
AcDbSavedByObjectVersion
1070
     0
  0
VISUALSTYLE
  5
CA
102
{ACAD_XDICTIONARY
360
15A
102
}
102
{ACAD_REACTORS
330
C3
102
}
330
C3
100
AcDbVisualStyle
  2
Wireframe
 70
     5
177
     2
291
     0
 71
     0
176
     1
 72
     2
176
     1
 73
     0
176
     1
 90
        0
176
     1
 40
0.6
176
     1
 41
30.0
176
     1
 63
     7
421
 16777215
176
     1
 74
     1
176
     1
 91
        4
176
     1
 64
     7
176
     1
 65
   257
176
     1
 75
     1
176
     1
175
     1
176
     1
 42
1.0
176
     1
 92
        0
176
     1
 66
   257
176
     1
 43
1.0
176
     1
 76
     1
176
     1
 77
     6
176
     1
 78
     2
176
     1
 67
     7
176
     1
 79
     3
176
     1
170
     0
176
     1
171
     0
176
     1
290
     0
176
     1
 93
        1
176
     1
 44
0.0
176
     1
173
     0
176
     1
1001
ACAD
1000
AcDbSavedByObjectVersion
1070
     0
  0
VISUALSTYLE
  5
D6
102
{ACAD_XDICTIONARY
360
172
102
}
102
{ACAD_REACTORS
330
C3
102
}
330
C3
100
AcDbVisualStyle
  2
X-Ray
 70
    25
177
     2
291
     0
 71
     2
176
     1
 72
     2
176
     1
 73
     1
176
     1
 90
        1
176
     1
 40
0.5
176
     1
 41
30.0
176
     1
 63
     7
421
 16777215
176
     1
 74
     1
176
     1
 91
        0
176
     1
 64
     7
176
     1
 65
   257
176
     1
 75
     1
176
     1
175
     1
176
     1
 42
1.0
176
     1
 92
        8
176
     1
 66
     7
176
     1
 43
1.0
176
     1
 76
     1
176
     1
 77
     6
176
     1
 78
     2
176
     1
 67
     7
176
     1
 79
     3
176
     1
170
     0
176
     1
171
     0
176
     1
290
     0
176
     1
 93
       13
176
     1
 44
0.0
176
     1
173
     0
176
     1
1001
ACAD
1000
AcDbSavedByObjectVersion
1070
     0
  0
DICTIONARYVAR
  5
147
102
{ACAD_REACTORS
330
141
102
}
330
141
100
DictionaryVariables
280
     0
  1
1:1
  0
DICTIONARYVAR
  5
143
102
{ACAD_REACTORS
330
141
102
}
330
141
100
DictionaryVariables
280
     0
  1
STANDARD
  0
DICTIONARYVAR
  5
142
102
{ACAD_REACTORS
330
141
102
}
330
141
100
DictionaryVariables
280
     0
  1
STANDARD
  0
DICTIONARYVAR
  5
144
102
{ACAD_REACTORS
330
141
102
}
330
141
100
DictionaryVariables
280
     0
  1
Imperial24
  0
DICTIONARYVAR
  5
145
102
{ACAD_REACTORS
330
141
102
}
330
141
100
DictionaryVariables
280
     0
  1
Imperial24
  0
DICTIONARYVAR
  5
149
102
{ACAD_REACTORS
330
141
102
}
330
141
100
DictionaryVariables
280
     0
  1
1
  0
DICTIONARYVAR
  5
14A
102
{ACAD_REACTORS
330
141
102
}
330
141
100
DictionaryVariables
280
     0
  1
15
  0
DICTIONARYVAR
  5
148
102
{ACAD_REACTORS
330
141
102
}
330
141
100
DictionaryVariables
280
     0
  1
0
  0
DICTIONARYVAR
  5
146
102
{ACAD_REACTORS
330
141
102
}
330
141
100
DictionaryVariables
280
     0
  1
0
  0
DICTIONARY
  5
182
330
F6
100
AcDbDictionary
280
     1
281
     1
  3
ACAD_XREC_ROUNDTRIP
360
183
  0
DICTIONARY
  5
B4
330
B3
100
AcDbDictionary
280
     1
281
     1
  3
BUMPTILE
360
B6
  3
DIFFUSETILE
360
B5
  3
OPACITYTILE
360
B9
  3
REFLECTIONTILE
360
B8
  3
REFRACTIONTILE
360
BA
  3
SPECULARTILE
360
B7
  0
DICTIONARY
  5
AC
330
AB
100
AcDbDictionary
280
     1
281
     1
  3
BUMPTILE
360
AE
  3
DIFFUSETILE
360
AD
  3
OPACITYTILE
360
B1
  3
REFLECTIONTILE
360
B0
  3
REFRACTIONTILE
360
B2
  3
SPECULARTILE
360
AF
  0
DICTIONARY
  5
BC
330
BB
100
AcDbDictionary
280
     1
281
     1
  3
BUMPTILE
360
BE
  3
DIFFUSETILE
360
BD
  3
OPACITYTILE
360
C1
  3
REFLECTIONTILE
360
C0
  3
REFRACTIONTILE
360
C2
  3
SPECULARTILE
360
BF
  0
DICTIONARY
  5
17E
330
F2
100
AcDbDictionary
280
     1
281
     1
  3
ACAD_XREC_ROUNDTRIP
360
17F
  0
DICTIONARY
  5
180
330
F4
100
AcDbDictionary
280
     1
281
     1
  3
ACAD_XREC_ROUNDTRIP
360
181
  0
DICTIONARY
  5
14B
330
DE
100
AcDbDictionary
280
     1
281
     1
  3
ACAD_ROUNDTRIP_2008_TABLESTYLE_CELLSTYLEMAP
360
14C
  0
DICTIONARY
  5
158
330
C9
100
AcDbDictionary
280
     1
281
     1
  3
ACAD_XREC_ROUNDTRIP
360
159
  0
DICTIONARY
  5
156
330
C8
100
AcDbDictionary
280
     1
281
     1
  3
ACAD_XREC_ROUNDTRIP
360
157
  0
DICTIONARY
  5
164
330
CF
100
AcDbDictionary
280
     1
281
     1
  3
ACAD_XREC_ROUNDTRIP
360
165
  0
DICTIONARY
  5
16C
330
D3
100
AcDbDictionary
280
     1
281
     1
  3
ACAD_XREC_ROUNDTRIP
360
16D
  0
DICTIONARY
  5
15E
330
CC
100
AcDbDictionary
280
     1
281
     1
  3
ACAD_XREC_ROUNDTRIP
360
15F
  0
DICTIONARY
  5
162
330
CE
100
AcDbDictionary
280
     1
281
     1
  3
ACAD_XREC_ROUNDTRIP
360
163
  0
DICTIONARY
  5
17C
330
DB
100
AcDbDictionary
280
     1
281
     1
  3
ACAD_XREC_ROUNDTRIP
360
17D
  0
DICTIONARY
  5
16A
330
D2
100
AcDbDictionary
280
     1
281
     1
  3
ACAD_XREC_ROUNDTRIP
360
16B
  0
DICTIONARY
  5
14E
330
C4
100
AcDbDictionary
280
     1
281
     1
  3
ACAD_XREC_ROUNDTRIP
360
14F
  0
DICTIONARY
  5
150
330
C5
100
AcDbDictionary
280
     1
281
     1
  3
ACAD_XREC_ROUNDTRIP
360
151
  0
DICTIONARY
  5
152
330
C6
100
AcDbDictionary
280
     1
281
     1
  3
ACAD_XREC_ROUNDTRIP
360
153
  0
DICTIONARY
  5
154
330
C7
100
AcDbDictionary
280
     1
281
     1
  3
ACAD_XREC_ROUNDTRIP
360
155
  0
DICTIONARY
  5
15C
330
CB
100
AcDbDictionary
280
     1
281
     1
  3
ACAD_XREC_ROUNDTRIP
360
15D
  0
DICTIONARY
  5
178
330
D9
100
AcDbDictionary
280
     1
281
     1
  3
ACAD_XREC_ROUNDTRIP
360
179
  0
DICTIONARY
  5
168
330
D1
100
AcDbDictionary
280
     1
281
     1
  3
ACAD_XREC_ROUNDTRIP
360
169
  0
DICTIONARY
  5
17A
330
DA
100
AcDbDictionary
280
     1
281
     1
  3
ACAD_XREC_ROUNDTRIP
360
17B
  0
DICTIONARY
  5
160
330
CD
100
AcDbDictionary
280
     1
281
     1
  3
ACAD_XREC_ROUNDTRIP
360
161
  0
DICTIONARY
  5
176
330
D8
100
AcDbDictionary
280
     1
281
     1
  3
ACAD_XREC_ROUNDTRIP
360
177
  0
DICTIONARY
  5
174
330
D7
100
AcDbDictionary
280
     1
281
     1
  3
ACAD_XREC_ROUNDTRIP
360
175
  0
DICTIONARY
  5
16E
330
D4
100
AcDbDictionary
280
     1
281
     1
  3
ACAD_XREC_ROUNDTRIP
360
16F
  0
DICTIONARY
  5
170
330
D5
100
AcDbDictionary
280
     1
281
     1
  3
ACAD_XREC_ROUNDTRIP
360
171
  0
DICTIONARY
  5
166
330
D0
100
AcDbDictionary
280
     1
281
     1
  3
ACAD_XREC_ROUNDTRIP
360
167
  0
DICTIONARY
  5
15A
330
CA
100
AcDbDictionary
280
     1
281
     1
  3
ACAD_XREC_ROUNDTRIP
360
15B
  0
DICTIONARY
  5
172
330
D6
100
AcDbDictionary
280
     1
281
     1
  3
ACAD_XREC_ROUNDTRIP
360
173
  0
XRECORD
  5
183
102
{ACAD_REACTORS
330
182
102
}
330
182
100
AcDbXrecord
280
     1
102
DISPLAYNAME
  1
Imperial24
102
FLAGS
 90
        0
  0
XRECORD
  5
B6
102
{ACAD_REACTORS
330
B4
102
}
330
B4
100
AcDbXrecord
280
     1
270
     1
271
     1
  0
XRECORD
  5
B5
102
{ACAD_REACTORS
330
B4
102
}
330
B4
100
AcDbXrecord
280
     1
270
     1
271
     1
  0
XRECORD
  5
B9
102
{ACAD_REACTORS
330
B4
102
}
330
B4
100
AcDbXrecord
280
     1
270
     1
271
     1
  0
XRECORD
  5
B8
102
{ACAD_REACTORS
330
B4
102
}
330
B4
100
AcDbXrecord
280
     1
270
     1
271
     1
  0
XRECORD
  5
BA
102
{ACAD_REACTORS
330
B4
102
}
330
B4
100
AcDbXrecord
280
     1
270
     1
271
     1
  0
XRECORD
  5
B7
102
{ACAD_REACTORS
330
B4
102
}
330
B4
100
AcDbXrecord
280
     1
270
     1
271
     1
  0
XRECORD
  5
AE
102
{ACAD_REACTORS
330
AC
102
}
330
AC
100
AcDbXrecord
280
     1
270
     1
271
     1
  0
XRECORD
  5
AD
102
{ACAD_REACTORS
330
AC
102
}
330
AC
100
AcDbXrecord
280
     1
270
     1
271
     1
  0
XRECORD
  5
B1
102
{ACAD_REACTORS
330
AC
102
}
330
AC
100
AcDbXrecord
280
     1
270
     1
271
     1
  0
XRECORD
  5
B0
102
{ACAD_REACTORS
330
AC
102
}
330
AC
100
AcDbXrecord
280
     1
270
     1
271
     1
  0
XRECORD
  5
B2
102
{ACAD_REACTORS
330
AC
102
}
330
AC
100
AcDbXrecord
280
     1
270
     1
271
     1
  0
XRECORD
  5
AF
102
{ACAD_REACTORS
330
AC
102
}
330
AC
100
AcDbXrecord
280
     1
270
     1
271
     1
  0
XRECORD
  5
BE
102
{ACAD_REACTORS
330
BC
102
}
330
BC
100
AcDbXrecord
280
     1
270
     1
271
     1
  0
XRECORD
  5
BD
102
{ACAD_REACTORS
330
BC
102
}
330
BC
100
AcDbXrecord
280
     1
270
     1
271
     1
  0
XRECORD
  5
C1
102
{ACAD_REACTORS
330
BC
102
}
330
BC
100
AcDbXrecord
280
     1
270
     1
271
     1
  0
XRECORD
  5
C0
102
{ACAD_REACTORS
330
BC
102
}
330
BC
100
AcDbXrecord
280
     1
270
     1
271
     1
  0
XRECORD
  5
C2
102
{ACAD_REACTORS
330
BC
102
}
330
BC
100
AcDbXrecord
280
     1
270
     1
271
     1
  0
XRECORD
  5
BF
102
{ACAD_REACTORS
330
BC
102
}
330
BC
100
AcDbXrecord
280
     1
270
     1
271
     1
  0
XRECORD
  5
17F
102
{ACAD_REACTORS
330
17E
102
}
330
17E
100
AcDbXrecord
280
     1
102
ACAD_ROUNDTRIP_2012_MLEADER_STYLE
298
     1
  0
XRECORD
  5
181
102
{ACAD_REACTORS
330
180
102
}
330
180
100
AcDbXrecord
280
     1
102
DISPLAYNAME
  1
Imperial24
102
FLAGS
 90
        0
  0
CELLSTYLEMAP
  5
14C
102
{ACAD_REACTORS
330
14B
102
}
330
14B
100
AcDbCellStyleMap
 90
        3
300
CELLSTYLE
  1
TABLEFORMAT_BEGIN
 90
        5
170
     1
 91
        0
 92
    32768
 62
   257
 93
        1
300
CONTENTFORMAT
  1
CONTENTFORMAT_BEGIN
 90
        0
 91
        0
 92
      512
 93
        0
300

 40
0.0
140
1.0
 94
        5
 62
     0
340
11
144
0.25
309
CONTENTFORMAT_END
171
     0
 94
        0
309
TABLEFORMAT_END
  1
CELLSTYLE_BEGIN
 90
        1
 91
        1
300
_TITLE
309
CELLSTYLE_END
300
CELLSTYLE
  1
TABLEFORMAT_BEGIN
 90
        5
170
     1
 91
        0
 92
        0
 62
   257
 93
        1
300
CONTENTFORMAT
  1
CONTENTFORMAT_BEGIN
 90
        0
 91
        0
 92
      512
 93
        0
300

 40
0.0
140
1.0
 94
        5
 62
     0
340
11
144
0.18
309
CONTENTFORMAT_END
171
     0
 94
        0
309
TABLEFORMAT_END
  1
CELLSTYLE_BEGIN
 90
        2
 91
        1
300
_HEADER
309
CELLSTYLE_END
300
CELLSTYLE
  1
TABLEFORMAT_BEGIN
 90
        5
170
     1
 91
        0
 92
        0
 62
   257
 93
        1
300
CONTENTFORMAT
  1
CONTENTFORMAT_BEGIN
 90
        0
 91
        0
 92
      512
 93
        0
300

 40
0.0
140
1.0
 94
        2
 62
     0
340
11
144
0.18
309
CONTENTFORMAT_END
171
     0
 94
        0
309
TABLEFORMAT_END
  1
CELLSTYLE_BEGIN
 90
        3
 91
        2
300
_DATA
309
CELLSTYLE_END
  0
XRECORD
  5
159
102
{ACAD_REACTORS
330
158
102
}
330
158
100
AcDbXrecord
280
     1
102
RTVSPost2010Prop28
280
     1
102
RTVSPost2010PropOp28
 70
     1
102
RTVSPost2010Prop29
280
     1
102
RTVSPost2010PropOp29
 70
     1
102
RTVSPost2010Prop30
280
     0
102
RTVSPost2010PropOp30
 70
     1
102
RTVSPost2010Prop31
280
     0
102
RTVSPost2010PropOp31
 70
     1
102
RTVSPost2010Prop32
280
     0
102
RTVSPost2010PropOp32
 70
     1
102
RTVSPost2010Prop33
280
     0
102
RTVSPost2010PropOp33
 70
     1
102
RTVSPost2010Prop34
280
     0
102
RTVSPost2010PropOp34
 70
     1
102
RTVSPost2010Prop35
280
     0
102
RTVSPost2010PropOp35
 70
     1
102
RTVSPost2010Prop36
280
     0
102
RTVSPost2010PropOp36
 70
     1
102
RTVSPost2010Prop37
 90
       50
102
RTVSPost2010PropOp37
 70
     1
102
RTVSPost2010Prop38
140
0.0
102
RTVSPost2010PropOp38
 70
     1
102
RTVSPost2010Prop39
140
1.0
102
RTVSPost2010PropOp39
 70
     1
102
RTVSPost2010Prop40
 90
        0
102
RTVSPost2010PropOp40
 70
     1
102
RTVSPost2010Prop41ColorIndex
 90
       18
102
RTVSPost2010Prop41ColorRGB
 90
        0
102
RTVSPost2010PropOp41
 70
     1
102
RTVSPost2010Prop42
 90
       50
102
RTVSPost2010PropOp42
 70
     1
102
RTVSPost2010Prop43
 90
        3
102
RTVSPost2010PropOp43
 70
     1
102
RTVSPost2010Prop44ColorIndex
 90
        5
102
RTVSPost2010Prop44ColorRGB
 90
      255
102
RTVSPost2010PropOp44
 70
     1
102
RTVSPost2010Prop45
280
     0
102
RTVSPost2010PropOp45
 70
     1
102
RTVSPost2010Prop46
 90
       50
102
RTVSPost2010PropOp46
 70
     1
102
RTVSPost2010Prop47
 90
       50
102
RTVSPost2010PropOp47
 70
     1
102
RTVSPost2010Prop48
 90
       50
102
RTVSPost2010PropOp48
 70
     1
102
RTVSPost2010Prop49
280
     0
102
RTVSPost2010PropOp49
 70
     1
102
RTVSPost2010Prop50
 90
       50
102
RTVSPost2010PropOp50
 70
     1
102
RTVSPost2010Prop51ColorIndex
 90
      256
102
RTVSPost2010Prop51ColorRGB
 90
-16777216
102
RTVSPost2010PropOp51
 70
     0
102
RTVSPost2010Prop52
140
1.0
102
RTVSPost2010PropOp52
 70
     0
102
RTVSPost2010Prop53
 90
        2
102
RTVSPost2010PropOp53
 70
     1
102
RTVSPost2010Prop54
  1
strokes_ogs.tif
102
RTVSPost2010PropOp54
 70
     1
102
RTVSPost2010Prop55
280
     0
102
RTVSPost2010PropOp55
 70
     1
102
RTVSPost2010Prop56
140
1.0
102
RTVSPost2010PropOp56
 70
     1
102
RTVSPost2010Prop57
140
1.0
102
RTVSPost2010PropOp57
 70
     1
  0
XRECORD
  5
157
102
{ACAD_REACTORS
330
156
102
}
330
156
100
AcDbXrecord
280
     1
102
RTVSPost2010Prop28
280
     0
102
RTVSPost2010PropOp28
 70
     1
102
RTVSPost2010Prop29
280
     1
102
RTVSPost2010PropOp29
 70
     1
102
RTVSPost2010Prop30
280
     1
102
RTVSPost2010PropOp30
 70
     1
102
RTVSPost2010Prop31
280
     0
102
RTVSPost2010PropOp31
 70
     1
102
RTVSPost2010Prop32
280
     0
102
RTVSPost2010PropOp32
 70
     1
102
RTVSPost2010Prop33
280
     0
102
RTVSPost2010PropOp33
 70
     1
102
RTVSPost2010Prop34
280
     0
102
RTVSPost2010PropOp34
 70
     1
102
RTVSPost2010Prop35
280
     0
102
RTVSPost2010PropOp35
 70
     1
102
RTVSPost2010Prop36
280
     0
102
RTVSPost2010PropOp36
 70
     1
102
RTVSPost2010Prop37
 90
       50
102
RTVSPost2010PropOp37
 70
     1
102
RTVSPost2010Prop38
140
0.0
102
RTVSPost2010PropOp38
 70
     1
102
RTVSPost2010Prop39
140
1.0
102
RTVSPost2010PropOp39
 70
     1
102
RTVSPost2010Prop40
 90
        0
102
RTVSPost2010PropOp40
 70
     1
102
RTVSPost2010Prop41ColorIndex
 90
       18
102
RTVSPost2010Prop41ColorRGB
 90
        0
102
RTVSPost2010PropOp41
 70
     1
102
RTVSPost2010Prop42
 90
       50
102
RTVSPost2010PropOp42
 70
     1
102
RTVSPost2010Prop43
 90
        3
102
RTVSPost2010PropOp43
 70
     1
102
RTVSPost2010Prop44ColorIndex
 90
        5
102
RTVSPost2010Prop44ColorRGB
 90
      255
102
RTVSPost2010PropOp44
 70
     1
102
RTVSPost2010Prop45
280
     0
102
RTVSPost2010PropOp45
 70
     1
102
RTVSPost2010Prop46
 90
       50
102
RTVSPost2010PropOp46
 70
     1
102
RTVSPost2010Prop47
 90
       50
102
RTVSPost2010PropOp47
 70
     1
102
RTVSPost2010Prop48
 90
       50
102
RTVSPost2010PropOp48
 70
     1
102
RTVSPost2010Prop49
280
     0
102
RTVSPost2010PropOp49
 70
     1
102
RTVSPost2010Prop50
 90
       50
102
RTVSPost2010PropOp50
 70
     1
102
RTVSPost2010Prop51ColorIndex
 90
      256
102
RTVSPost2010Prop51ColorRGB
 90
-16777216
102
RTVSPost2010PropOp51
 70
     0
102
RTVSPost2010Prop52
140
1.0
102
RTVSPost2010PropOp52
 70
     0
102
RTVSPost2010Prop53
 90
        2
102
RTVSPost2010PropOp53
 70
     1
102
RTVSPost2010Prop54
  1
strokes_ogs.tif
102
RTVSPost2010PropOp54
 70
     1
102
RTVSPost2010Prop55
280
     0
102
RTVSPost2010PropOp55
 70
     1
102
RTVSPost2010Prop56
140
1.0
102
RTVSPost2010PropOp56
 70
     1
102
RTVSPost2010Prop57
140
1.0
102
RTVSPost2010PropOp57
 70
     1
  0
XRECORD
  5
165
102
{ACAD_REACTORS
330
164
102
}
330
164
100
AcDbXrecord
280
     1
102
RTVSPost2010Prop28
280
     0
102
RTVSPost2010PropOp28
 70
     1
102
RTVSPost2010Prop29
280
     1
102
RTVSPost2010PropOp29
 70
     1
102
RTVSPost2010Prop30
280
     1
102
RTVSPost2010PropOp30
 70
     1
102
RTVSPost2010Prop31
280
     0
102
RTVSPost2010PropOp31
 70
     1
102
RTVSPost2010Prop32
280
     0
102
RTVSPost2010PropOp32
 70
     1
102
RTVSPost2010Prop33
280
     0
102
RTVSPost2010PropOp33
 70
     1
102
RTVSPost2010Prop34
280
     0
102
RTVSPost2010PropOp34
 70
     1
102
RTVSPost2010Prop35
280
     0
102
RTVSPost2010PropOp35
 70
     1
102
RTVSPost2010Prop36
280
     0
102
RTVSPost2010PropOp36
 70
     1
102
RTVSPost2010Prop37
 90
       50
102
RTVSPost2010PropOp37
 70
     1
102
RTVSPost2010Prop38
140
0.0
102
RTVSPost2010PropOp38
 70
     1
102
RTVSPost2010Prop39
140
1.0
102
RTVSPost2010PropOp39
 70
     1
102
RTVSPost2010Prop40
 90
        0
102
RTVSPost2010PropOp40
 70
     1
102
RTVSPost2010Prop41ColorIndex
 90
       18
102
RTVSPost2010Prop41ColorRGB
 90
        0
102
RTVSPost2010PropOp41
 70
     1
102
RTVSPost2010Prop42
 90
       50
102
RTVSPost2010PropOp42
 70
     1
102
RTVSPost2010Prop43
 90
        3
102
RTVSPost2010PropOp43
 70
     1
102
RTVSPost2010Prop44ColorIndex
 90
        5
102
RTVSPost2010Prop44ColorRGB
 90
      255
102
RTVSPost2010PropOp44
 70
     1
102
RTVSPost2010Prop45
280
     0
102
RTVSPost2010PropOp45
 70
     1
102
RTVSPost2010Prop46
 90
       50
102
RTVSPost2010PropOp46
 70
     1
102
RTVSPost2010Prop47
 90
       50
102
RTVSPost2010PropOp47
 70
     1
102
RTVSPost2010Prop48
 90
       50
102
RTVSPost2010PropOp48
 70
     1
102
RTVSPost2010Prop49
280
     0
102
RTVSPost2010PropOp49
 70
     1
102
RTVSPost2010Prop50
 90
       50
102
RTVSPost2010PropOp50
 70
     1
102
RTVSPost2010Prop51ColorIndex
 90
      256
102
RTVSPost2010Prop51ColorRGB
 90
-16777216
102
RTVSPost2010PropOp51
 70
     0
102
RTVSPost2010Prop52
140
1.0
102
RTVSPost2010PropOp52
 70
     0
102
RTVSPost2010Prop53
 90
        2
102
RTVSPost2010PropOp53
 70
     1
102
RTVSPost2010Prop54
  1
strokes_ogs.tif
102
RTVSPost2010PropOp54
 70
     1
102
RTVSPost2010Prop55
280
     0
102
RTVSPost2010PropOp55
 70
     1
102
RTVSPost2010Prop56
140
1.0
102
RTVSPost2010PropOp56
 70
     1
102
RTVSPost2010Prop57
140
1.0
102
RTVSPost2010PropOp57
 70
     1
  0
XRECORD
  5
16D
102
{ACAD_REACTORS
330
16C
102
}
330
16C
100
AcDbXrecord
280
     1
102
RTVSPost2010Prop28
280
     0
102
RTVSPost2010PropOp28
 70
     1
102
RTVSPost2010Prop29
280
     1
102
RTVSPost2010PropOp29
 70
     1
102
RTVSPost2010Prop30
280
     1
102
RTVSPost2010PropOp30
 70
     1
102
RTVSPost2010Prop31
280
     0
102
RTVSPost2010PropOp31
 70
     1
102
RTVSPost2010Prop32
280
     0
102
RTVSPost2010PropOp32
 70
     1
102
RTVSPost2010Prop33
280
     0
102
RTVSPost2010PropOp33
 70
     1
102
RTVSPost2010Prop34
280
     0
102
RTVSPost2010PropOp34
 70
     1
102
RTVSPost2010Prop35
280
     0
102
RTVSPost2010PropOp35
 70
     1
102
RTVSPost2010Prop36
280
     0
102
RTVSPost2010PropOp36
 70
     1
102
RTVSPost2010Prop37
 90
       50
102
RTVSPost2010PropOp37
 70
     1
102
RTVSPost2010Prop38
140
0.0
102
RTVSPost2010PropOp38
 70
     1
102
RTVSPost2010Prop39
140
1.0
102
RTVSPost2010PropOp39
 70
     1
102
RTVSPost2010Prop40
 90
        0
102
RTVSPost2010PropOp40
 70
     1
102
RTVSPost2010Prop41ColorIndex
 90
       18
102
RTVSPost2010Prop41ColorRGB
 90
        0
102
RTVSPost2010PropOp41
 70
     1
102
RTVSPost2010Prop42
 90
       50
102
RTVSPost2010PropOp42
 70
     1
102
RTVSPost2010Prop43
 90
        3
102
RTVSPost2010PropOp43
 70
     1
102
RTVSPost2010Prop44ColorIndex
 90
        5
102
RTVSPost2010Prop44ColorRGB
 90
      255
102
RTVSPost2010PropOp44
 70
     1
102
RTVSPost2010Prop45
280
     0
102
RTVSPost2010PropOp45
 70
     1
102
RTVSPost2010Prop46
 90
       50
102
RTVSPost2010PropOp46
 70
     1
102
RTVSPost2010Prop47
 90
       50
102
RTVSPost2010PropOp47
 70
     1
102
RTVSPost2010Prop48
 90
       50
102
RTVSPost2010PropOp48
 70
     1
102
RTVSPost2010Prop49
280
     0
102
RTVSPost2010PropOp49
 70
     1
102
RTVSPost2010Prop50
 90
       50
102
RTVSPost2010PropOp50
 70
     1
102
RTVSPost2010Prop51ColorIndex
 90
      256
102
RTVSPost2010Prop51ColorRGB
 90
-16777216
102
RTVSPost2010PropOp51
 70
     0
102
RTVSPost2010Prop52
140
1.0
102
RTVSPost2010PropOp52
 70
     0
102
RTVSPost2010Prop53
 90
        2
102
RTVSPost2010PropOp53
 70
     1
102
RTVSPost2010Prop54
  1
strokes_ogs.tif
102
RTVSPost2010PropOp54
 70
     1
102
RTVSPost2010Prop55
280
     0
102
RTVSPost2010PropOp55
 70
     1
102
RTVSPost2010Prop56
140
1.0
102
RTVSPost2010PropOp56
 70
     1
102
RTVSPost2010Prop57
140
1.0
102
RTVSPost2010PropOp57
 70
     1
  0
XRECORD
  5
15F
102
{ACAD_REACTORS
330
15E
102
}
330
15E
100
AcDbXrecord
280
     1
102
RTVSPost2010Prop28
280
     0
102
RTVSPost2010PropOp28
 70
     1
102
RTVSPost2010Prop29
280
     1
102
RTVSPost2010PropOp29
 70
     1
102
RTVSPost2010Prop30
280
     1
102
RTVSPost2010PropOp30
 70
     1
102
RTVSPost2010Prop31
280
     0
102
RTVSPost2010PropOp31
 70
     1
102
RTVSPost2010Prop32
280
     0
102
RTVSPost2010PropOp32
 70
     1
102
RTVSPost2010Prop33
280
     0
102
RTVSPost2010PropOp33
 70
     1
102
RTVSPost2010Prop34
280
     0
102
RTVSPost2010PropOp34
 70
     1
102
RTVSPost2010Prop35
280
     0
102
RTVSPost2010PropOp35
 70
     1
102
RTVSPost2010Prop36
280
     0
102
RTVSPost2010PropOp36
 70
     1
102
RTVSPost2010Prop37
 90
       50
102
RTVSPost2010PropOp37
 70
     1
102
RTVSPost2010Prop38
140
0.0
102
RTVSPost2010PropOp38
 70
     1
102
RTVSPost2010Prop39
140
1.0
102
RTVSPost2010PropOp39
 70
     1
102
RTVSPost2010Prop40
 90
        0
102
RTVSPost2010PropOp40
 70
     1
102
RTVSPost2010Prop41ColorIndex
 90
       18
102
RTVSPost2010Prop41ColorRGB
 90
        0
102
RTVSPost2010PropOp41
 70
     1
102
RTVSPost2010Prop42
 90
       50
102
RTVSPost2010PropOp42
 70
     1
102
RTVSPost2010Prop43
 90
        3
102
RTVSPost2010PropOp43
 70
     1
102
RTVSPost2010Prop44ColorIndex
 90
        5
102
RTVSPost2010Prop44ColorRGB
 90
      255
102
RTVSPost2010PropOp44
 70
     1
102
RTVSPost2010Prop45
280
     0
102
RTVSPost2010PropOp45
 70
     1
102
RTVSPost2010Prop46
 90
       50
102
RTVSPost2010PropOp46
 70
     1
102
RTVSPost2010Prop47
 90
       50
102
RTVSPost2010PropOp47
 70
     1
102
RTVSPost2010Prop48
 90
       50
102
RTVSPost2010PropOp48
 70
     1
102
RTVSPost2010Prop49
280
     0
102
RTVSPost2010PropOp49
 70
     1
102
RTVSPost2010Prop50
 90
       50
102
RTVSPost2010PropOp50
 70
     1
102
RTVSPost2010Prop51ColorIndex
 90
      256
102
RTVSPost2010Prop51ColorRGB
 90
-16777216
102
RTVSPost2010PropOp51
 70
     0
102
RTVSPost2010Prop52
140
1.0
102
RTVSPost2010PropOp52
 70
     0
102
RTVSPost2010Prop53
 90
        2
102
RTVSPost2010PropOp53
 70
     1
102
RTVSPost2010Prop54
  1
strokes_ogs.tif
102
RTVSPost2010PropOp54
 70
     1
102
RTVSPost2010Prop55
280
     0
102
RTVSPost2010PropOp55
 70
     1
102
RTVSPost2010Prop56
140
1.0
102
RTVSPost2010PropOp56
 70
     1
102
RTVSPost2010Prop57
140
1.0
102
RTVSPost2010PropOp57
 70
     1
  0
XRECORD
  5
163
102
{ACAD_REACTORS
330
162
102
}
330
162
100
AcDbXrecord
280
     1
102
RTVSPost2010Prop28
280
     0
102
RTVSPost2010PropOp28
 70
     1
102
RTVSPost2010Prop29
280
     1
102
RTVSPost2010PropOp29
 70
     1
102
RTVSPost2010Prop30
280
     1
102
RTVSPost2010PropOp30
 70
     1
102
RTVSPost2010Prop31
280
     0
102
RTVSPost2010PropOp31
 70
     1
102
RTVSPost2010Prop32
280
     0
102
RTVSPost2010PropOp32
 70
     1
102
RTVSPost2010Prop33
280
     0
102
RTVSPost2010PropOp33
 70
     1
102
RTVSPost2010Prop34
280
     0
102
RTVSPost2010PropOp34
 70
     1
102
RTVSPost2010Prop35
280
     0
102
RTVSPost2010PropOp35
 70
     1
102
RTVSPost2010Prop36
280
     0
102
RTVSPost2010PropOp36
 70
     1
102
RTVSPost2010Prop37
 90
       50
102
RTVSPost2010PropOp37
 70
     1
102
RTVSPost2010Prop38
140
0.0
102
RTVSPost2010PropOp38
 70
     1
102
RTVSPost2010Prop39
140
1.0
102
RTVSPost2010PropOp39
 70
     1
102
RTVSPost2010Prop40
 90
        0
102
RTVSPost2010PropOp40
 70
     1
102
RTVSPost2010Prop41ColorIndex
 90
       18
102
RTVSPost2010Prop41ColorRGB
 90
        0
102
RTVSPost2010PropOp41
 70
     1
102
RTVSPost2010Prop42
 90
       50
102
RTVSPost2010PropOp42
 70
     1
102
RTVSPost2010Prop43
 90
        3
102
RTVSPost2010PropOp43
 70
     1
102
RTVSPost2010Prop44ColorIndex
 90
        5
102
RTVSPost2010Prop44ColorRGB
 90
      255
102
RTVSPost2010PropOp44
 70
     1
102
RTVSPost2010Prop45
280
     0
102
RTVSPost2010PropOp45
 70
     1
102
RTVSPost2010Prop46
 90
       50
102
RTVSPost2010PropOp46
 70
     1
102
RTVSPost2010Prop47
 90
       50
102
RTVSPost2010PropOp47
 70
     1
102
RTVSPost2010Prop48
 90
       50
102
RTVSPost2010PropOp48
 70
     1
102
RTVSPost2010Prop49
280
     0
102
RTVSPost2010PropOp49
 70
     1
102
RTVSPost2010Prop50
 90
       50
102
RTVSPost2010PropOp50
 70
     1
102
RTVSPost2010Prop51ColorIndex
 90
      256
102
RTVSPost2010Prop51ColorRGB
 90
-16777216
102
RTVSPost2010PropOp51
 70
     0
102
RTVSPost2010Prop52
140
1.0
102
RTVSPost2010PropOp52
 70
     0
102
RTVSPost2010Prop53
 90
        2
102
RTVSPost2010PropOp53
 70
     1
102
RTVSPost2010Prop54
  1
strokes_ogs.tif
102
RTVSPost2010PropOp54
 70
     1
102
RTVSPost2010Prop55
280
     0
102
RTVSPost2010PropOp55
 70
     1
102
RTVSPost2010Prop56
140
1.0
102
RTVSPost2010PropOp56
 70
     1
102
RTVSPost2010Prop57
140
1.0
102
RTVSPost2010PropOp57
 70
     1
  0
XRECORD
  5
17D
102
{ACAD_REACTORS
330
17C
102
}
330
17C
100
AcDbXrecord
280
     1
102
RTVSPost2010Prop28
280
     0
102
RTVSPost2010PropOp28
 70
     0
102
RTVSPost2010Prop29
280
     1
102
RTVSPost2010PropOp29
 70
     0
102
RTVSPost2010Prop30
280
     1
102
RTVSPost2010PropOp30
 70
     0
102
RTVSPost2010Prop31
280
     0
102
RTVSPost2010PropOp31
 70
     0
102
RTVSPost2010Prop32
280
     0
102
RTVSPost2010PropOp32
 70
     0
102
RTVSPost2010Prop33
280
     0
102
RTVSPost2010PropOp33
 70
     0
102
RTVSPost2010Prop34
280
     0
102
RTVSPost2010PropOp34
 70
     0
102
RTVSPost2010Prop35
280
     0
102
RTVSPost2010PropOp35
 70
     0
102
RTVSPost2010Prop36
280
     0
102
RTVSPost2010PropOp36
 70
     0
102
RTVSPost2010Prop37
 90
       50
102
RTVSPost2010PropOp37
 70
     0
102
RTVSPost2010Prop38
140
0.0
102
RTVSPost2010PropOp38
 70
     0
102
RTVSPost2010Prop39
140
1.0
102
RTVSPost2010PropOp39
 70
     0
102
RTVSPost2010Prop40
 90
        0
102
RTVSPost2010PropOp40
 70
     0
102
RTVSPost2010Prop41ColorIndex
 90
       18
102
RTVSPost2010Prop41ColorRGB
 90
        0
102
RTVSPost2010PropOp41
 70
     0
102
RTVSPost2010Prop42
 90
       50
102
RTVSPost2010PropOp42
 70
     0
102
RTVSPost2010Prop43
 90
        3
102
RTVSPost2010PropOp43
 70
     0
102
RTVSPost2010Prop44ColorIndex
 90
        5
102
RTVSPost2010Prop44ColorRGB
 90
      255
102
RTVSPost2010PropOp44
 70
     0
102
RTVSPost2010Prop45
280
     0
102
RTVSPost2010PropOp45
 70
     0
102
RTVSPost2010Prop46
 90
       50
102
RTVSPost2010PropOp46
 70
     0
102
RTVSPost2010Prop47
 90
       50
102
RTVSPost2010PropOp47
 70
     0
102
RTVSPost2010Prop48
 90
       50
102
RTVSPost2010PropOp48
 70
     0
102
RTVSPost2010Prop49
280
     0
102
RTVSPost2010PropOp49
 70
     0
102
RTVSPost2010Prop50
 90
       50
102
RTVSPost2010PropOp50
 70
     0
102
RTVSPost2010Prop51ColorIndex
 90
      256
102
RTVSPost2010Prop51ColorRGB
 90
-16777216
102
RTVSPost2010PropOp51
 70
     0
102
RTVSPost2010Prop52
140
1.0
102
RTVSPost2010PropOp52
 70
     0
102
RTVSPost2010Prop53
 90
        2
102
RTVSPost2010PropOp53
 70
     0
102
RTVSPost2010Prop54
  1
strokes_ogs.tif
102
RTVSPost2010PropOp54
 70
     0
102
RTVSPost2010Prop55
280
     0
102
RTVSPost2010PropOp55
 70
     0
102
RTVSPost2010Prop56
140
1.0
102
RTVSPost2010PropOp56
 70
     0
102
RTVSPost2010Prop57
140
1.0
102
RTVSPost2010PropOp57
 70
     0
  0
XRECORD
  5
16B
102
{ACAD_REACTORS
330
16A
102
}
330
16A
100
AcDbXrecord
280
     1
102
RTVSPost2010Prop28
280
     0
102
RTVSPost2010PropOp28
 70
     1
102
RTVSPost2010Prop29
280
     1
102
RTVSPost2010PropOp29
 70
     1
102
RTVSPost2010Prop30
280
     1
102
RTVSPost2010PropOp30
 70
     1
102
RTVSPost2010Prop31
280
     0
102
RTVSPost2010PropOp31
 70
     1
102
RTVSPost2010Prop32
280
     0
102
RTVSPost2010PropOp32
 70
     1
102
RTVSPost2010Prop33
280
     0
102
RTVSPost2010PropOp33
 70
     1
102
RTVSPost2010Prop34
280
     0
102
RTVSPost2010PropOp34
 70
     1
102
RTVSPost2010Prop35
280
     0
102
RTVSPost2010PropOp35
 70
     1
102
RTVSPost2010Prop36
280
     0
102
RTVSPost2010PropOp36
 70
     1
102
RTVSPost2010Prop37
 90
       50
102
RTVSPost2010PropOp37
 70
     1
102
RTVSPost2010Prop38
140
0.0
102
RTVSPost2010PropOp38
 70
     1
102
RTVSPost2010Prop39
140
1.0
102
RTVSPost2010PropOp39
 70
     1
102
RTVSPost2010Prop40
 90
        0
102
RTVSPost2010PropOp40
 70
     1
102
RTVSPost2010Prop41ColorIndex
 90
       18
102
RTVSPost2010Prop41ColorRGB
 90
        0
102
RTVSPost2010PropOp41
 70
     1
102
RTVSPost2010Prop42
 90
       50
102
RTVSPost2010PropOp42
 70
     1
102
RTVSPost2010Prop43
 90
        3
102
RTVSPost2010PropOp43
 70
     1
102
RTVSPost2010Prop44ColorIndex
 90
        5
102
RTVSPost2010Prop44ColorRGB
 90
      255
102
RTVSPost2010PropOp44
 70
     1
102
RTVSPost2010Prop45
280
     0
102
RTVSPost2010PropOp45
 70
     1
102
RTVSPost2010Prop46
 90
       50
102
RTVSPost2010PropOp46
 70
     1
102
RTVSPost2010Prop47
 90
       50
102
RTVSPost2010PropOp47
 70
     1
102
RTVSPost2010Prop48
 90
       50
102
RTVSPost2010PropOp48
 70
     1
102
RTVSPost2010Prop49
280
     0
102
RTVSPost2010PropOp49
 70
     1
102
RTVSPost2010Prop50
 90
       50
102
RTVSPost2010PropOp50
 70
     1
102
RTVSPost2010Prop51ColorIndex
 90
      256
102
RTVSPost2010Prop51ColorRGB
 90
-16777216
102
RTVSPost2010PropOp51
 70
     0
102
RTVSPost2010Prop52
140
1.0
102
RTVSPost2010PropOp52
 70
     0
102
RTVSPost2010Prop53
 90
        2
102
RTVSPost2010PropOp53
 70
     1
102
RTVSPost2010Prop54
  1
strokes_ogs.tif
102
RTVSPost2010PropOp54
 70
     1
102
RTVSPost2010Prop55
280
     0
102
RTVSPost2010PropOp55
 70
     1
102
RTVSPost2010Prop56
140
1.0
102
RTVSPost2010PropOp56
 70
     1
102
RTVSPost2010Prop57
140
1.0
102
RTVSPost2010PropOp57
 70
     1
  0
XRECORD
  5
14F
102
{ACAD_REACTORS
330
14E
102
}
330
14E
100
AcDbXrecord
280
     1
102
RTVSPost2010Prop28
280
     0
102
RTVSPost2010PropOp28
 70
     1
102
RTVSPost2010Prop29
280
     1
102
RTVSPost2010PropOp29
 70
     1
102
RTVSPost2010Prop30
280
     1
102
RTVSPost2010PropOp30
 70
     1
102
RTVSPost2010Prop31
280
     0
102
RTVSPost2010PropOp31
 70
     1
102
RTVSPost2010Prop32
280
     0
102
RTVSPost2010PropOp32
 70
     1
102
RTVSPost2010Prop33
280
     0
102
RTVSPost2010PropOp33
 70
     1
102
RTVSPost2010Prop34
280
     0
102
RTVSPost2010PropOp34
 70
     1
102
RTVSPost2010Prop35
280
     0
102
RTVSPost2010PropOp35
 70
     1
102
RTVSPost2010Prop36
280
     0
102
RTVSPost2010PropOp36
 70
     1
102
RTVSPost2010Prop37
 90
       50
102
RTVSPost2010PropOp37
 70
     1
102
RTVSPost2010Prop38
140
0.0
102
RTVSPost2010PropOp38
 70
     1
102
RTVSPost2010Prop39
140
1.0
102
RTVSPost2010PropOp39
 70
     1
102
RTVSPost2010Prop40
 90
        0
102
RTVSPost2010PropOp40
 70
     1
102
RTVSPost2010Prop41ColorIndex
 90
       18
102
RTVSPost2010Prop41ColorRGB
 90
        0
102
RTVSPost2010PropOp41
 70
     1
102
RTVSPost2010Prop42
 90
       50
102
RTVSPost2010PropOp42
 70
     1
102
RTVSPost2010Prop43
 90
        3
102
RTVSPost2010PropOp43
 70
     1
102
RTVSPost2010Prop44ColorIndex
 90
        5
102
RTVSPost2010Prop44ColorRGB
 90
      255
102
RTVSPost2010PropOp44
 70
     1
102
RTVSPost2010Prop45
280
     0
102
RTVSPost2010PropOp45
 70
     1
102
RTVSPost2010Prop46
 90
       50
102
RTVSPost2010PropOp46
 70
     1
102
RTVSPost2010Prop47
 90
       50
102
RTVSPost2010PropOp47
 70
     1
102
RTVSPost2010Prop48
 90
       50
102
RTVSPost2010PropOp48
 70
     1
102
RTVSPost2010Prop49
280
     0
102
RTVSPost2010PropOp49
 70
     1
102
RTVSPost2010Prop50
 90
       50
102
RTVSPost2010PropOp50
 70
     1
102
RTVSPost2010Prop51ColorIndex
 90
      256
102
RTVSPost2010Prop51ColorRGB
 90
-16777216
102
RTVSPost2010PropOp51
 70
     0
102
RTVSPost2010Prop52
140
1.0
102
RTVSPost2010PropOp52
 70
     0
102
RTVSPost2010Prop53
 90
        2
102
RTVSPost2010PropOp53
 70
     1
102
RTVSPost2010Prop54
  1
strokes_ogs.tif
102
RTVSPost2010PropOp54
 70
     1
102
RTVSPost2010Prop55
280
     0
102
RTVSPost2010PropOp55
 70
     1
102
RTVSPost2010Prop56
140
1.0
102
RTVSPost2010PropOp56
 70
     1
102
RTVSPost2010Prop57
140
1.0
102
RTVSPost2010PropOp57
 70
     1
  0
XRECORD
  5
151
102
{ACAD_REACTORS
330
150
102
}
330
150
100
AcDbXrecord
280
     1
102
RTVSPost2010Prop28
280
     0
102
RTVSPost2010PropOp28
 70
     1
102
RTVSPost2010Prop29
280
     1
102
RTVSPost2010PropOp29
 70
     1
102
RTVSPost2010Prop30
280
     1
102
RTVSPost2010PropOp30
 70
     1
102
RTVSPost2010Prop31
280
     0
102
RTVSPost2010PropOp31
 70
     1
102
RTVSPost2010Prop32
280
     0
102
RTVSPost2010PropOp32
 70
     1
102
RTVSPost2010Prop33
280
     0
102
RTVSPost2010PropOp33
 70
     1
102
RTVSPost2010Prop34
280
     0
102
RTVSPost2010PropOp34
 70
     1
102
RTVSPost2010Prop35
280
     0
102
RTVSPost2010PropOp35
 70
     1
102
RTVSPost2010Prop36
280
     0
102
RTVSPost2010PropOp36
 70
     1
102
RTVSPost2010Prop37
 90
       50
102
RTVSPost2010PropOp37
 70
     1
102
RTVSPost2010Prop38
140
0.0
102
RTVSPost2010PropOp38
 70
     1
102
RTVSPost2010Prop39
140
1.0
102
RTVSPost2010PropOp39
 70
     1
102
RTVSPost2010Prop40
 90
        0
102
RTVSPost2010PropOp40
 70
     1
102
RTVSPost2010Prop41ColorIndex
 90
       18
102
RTVSPost2010Prop41ColorRGB
 90
        0
102
RTVSPost2010PropOp41
 70
     1
102
RTVSPost2010Prop42
 90
       50
102
RTVSPost2010PropOp42
 70
     1
102
RTVSPost2010Prop43
 90
        3
102
RTVSPost2010PropOp43
 70
     1
102
RTVSPost2010Prop44ColorIndex
 90
        5
102
RTVSPost2010Prop44ColorRGB
 90
      255
102
RTVSPost2010PropOp44
 70
     1
102
RTVSPost2010Prop45
280
     0
102
RTVSPost2010PropOp45
 70
     1
102
RTVSPost2010Prop46
 90
       50
102
RTVSPost2010PropOp46
 70
     1
102
RTVSPost2010Prop47
 90
       50
102
RTVSPost2010PropOp47
 70
     1
102
RTVSPost2010Prop48
 90
       50
102
RTVSPost2010PropOp48
 70
     1
102
RTVSPost2010Prop49
280
     0
102
RTVSPost2010PropOp49
 70
     1
102
RTVSPost2010Prop50
 90
       50
102
RTVSPost2010PropOp50
 70
     1
102
RTVSPost2010Prop51ColorIndex
 90
      256
102
RTVSPost2010Prop51ColorRGB
 90
-16777216
102
RTVSPost2010PropOp51
 70
     0
102
RTVSPost2010Prop52
140
1.0
102
RTVSPost2010PropOp52
 70
     0
102
RTVSPost2010Prop53
 90
        2
102
RTVSPost2010PropOp53
 70
     1
102
RTVSPost2010Prop54
  1
strokes_ogs.tif
102
RTVSPost2010PropOp54
 70
     1
102
RTVSPost2010Prop55
280
     0
102
RTVSPost2010PropOp55
 70
     1
102
RTVSPost2010Prop56
140
1.0
102
RTVSPost2010PropOp56
 70
     1
102
RTVSPost2010Prop57
140
1.0
102
RTVSPost2010PropOp57
 70
     1
  0
XRECORD
  5
153
102
{ACAD_REACTORS
330
152
102
}
330
152
100
AcDbXrecord
280
     1
102
RTVSPost2010Prop28
280
     0
102
RTVSPost2010PropOp28
 70
     1
102
RTVSPost2010Prop29
280
     1
102
RTVSPost2010PropOp29
 70
     1
102
RTVSPost2010Prop30
280
     1
102
RTVSPost2010PropOp30
 70
     1
102
RTVSPost2010Prop31
280
     0
102
RTVSPost2010PropOp31
 70
     1
102
RTVSPost2010Prop32
280
     0
102
RTVSPost2010PropOp32
 70
     1
102
RTVSPost2010Prop33
280
     0
102
RTVSPost2010PropOp33
 70
     1
102
RTVSPost2010Prop34
280
     0
102
RTVSPost2010PropOp34
 70
     1
102
RTVSPost2010Prop35
280
     0
102
RTVSPost2010PropOp35
 70
     1
102
RTVSPost2010Prop36
280
     0
102
RTVSPost2010PropOp36
 70
     1
102
RTVSPost2010Prop37
 90
       50
102
RTVSPost2010PropOp37
 70
     1
102
RTVSPost2010Prop38
140
0.0
102
RTVSPost2010PropOp38
 70
     1
102
RTVSPost2010Prop39
140
1.0
102
RTVSPost2010PropOp39
 70
     1
102
RTVSPost2010Prop40
 90
        0
102
RTVSPost2010PropOp40
 70
     1
102
RTVSPost2010Prop41ColorIndex
 90
       18
102
RTVSPost2010Prop41ColorRGB
 90
        0
102
RTVSPost2010PropOp41
 70
     1
102
RTVSPost2010Prop42
 90
       50
102
RTVSPost2010PropOp42
 70
     1
102
RTVSPost2010Prop43
 90
        3
102
RTVSPost2010PropOp43
 70
     1
102
RTVSPost2010Prop44ColorIndex
 90
        5
102
RTVSPost2010Prop44ColorRGB
 90
      255
102
RTVSPost2010PropOp44
 70
     1
102
RTVSPost2010Prop45
280
     0
102
RTVSPost2010PropOp45
 70
     1
102
RTVSPost2010Prop46
 90
       50
102
RTVSPost2010PropOp46
 70
     1
102
RTVSPost2010Prop47
 90
       50
102
RTVSPost2010PropOp47
 70
     1
102
RTVSPost2010Prop48
 90
       50
102
RTVSPost2010PropOp48
 70
     1
102
RTVSPost2010Prop49
280
     0
102
RTVSPost2010PropOp49
 70
     1
102
RTVSPost2010Prop50
 90
       50
102
RTVSPost2010PropOp50
 70
     1
102
RTVSPost2010Prop51ColorIndex
 90
      256
102
RTVSPost2010Prop51ColorRGB
 90
-16777216
102
RTVSPost2010PropOp51
 70
     0
102
RTVSPost2010Prop52
140
1.0
102
RTVSPost2010PropOp52
 70
     0
102
RTVSPost2010Prop53
 90
        2
102
RTVSPost2010PropOp53
 70
     1
102
RTVSPost2010Prop54
  1
strokes_ogs.tif
102
RTVSPost2010PropOp54
 70
     1
102
RTVSPost2010Prop55
280
     0
102
RTVSPost2010PropOp55
 70
     1
102
RTVSPost2010Prop56
140
1.0
102
RTVSPost2010PropOp56
 70
     1
102
RTVSPost2010Prop57
140
1.0
102
RTVSPost2010PropOp57
 70
     1
  0
XRECORD
  5
155
102
{ACAD_REACTORS
330
154
102
}
330
154
100
AcDbXrecord
280
     1
102
RTVSPost2010Prop28
280
     0
102
RTVSPost2010PropOp28
 70
     1
102
RTVSPost2010Prop29
280
     1
102
RTVSPost2010PropOp29
 70
     1
102
RTVSPost2010Prop30
280
     1
102
RTVSPost2010PropOp30
 70
     1
102
RTVSPost2010Prop31
280
     0
102
RTVSPost2010PropOp31
 70
     1
102
RTVSPost2010Prop32
280
     0
102
RTVSPost2010PropOp32
 70
     1
102
RTVSPost2010Prop33
280
     0
102
RTVSPost2010PropOp33
 70
     1
102
RTVSPost2010Prop34
280
     0
102
RTVSPost2010PropOp34
 70
     1
102
RTVSPost2010Prop35
280
     0
102
RTVSPost2010PropOp35
 70
     1
102
RTVSPost2010Prop36
280
     0
102
RTVSPost2010PropOp36
 70
     1
102
RTVSPost2010Prop37
 90
       50
102
RTVSPost2010PropOp37
 70
     1
102
RTVSPost2010Prop38
140
0.0
102
RTVSPost2010PropOp38
 70
     1
102
RTVSPost2010Prop39
140
1.0
102
RTVSPost2010PropOp39
 70
     1
102
RTVSPost2010Prop40
 90
        0
102
RTVSPost2010PropOp40
 70
     1
102
RTVSPost2010Prop41ColorIndex
 90
       18
102
RTVSPost2010Prop41ColorRGB
 90
        0
102
RTVSPost2010PropOp41
 70
     1
102
RTVSPost2010Prop42
 90
       50
102
RTVSPost2010PropOp42
 70
     1
102
RTVSPost2010Prop43
 90
        3
102
RTVSPost2010PropOp43
 70
     1
102
RTVSPost2010Prop44ColorIndex
 90
        5
102
RTVSPost2010Prop44ColorRGB
 90
      255
102
RTVSPost2010PropOp44
 70
     1
102
RTVSPost2010Prop45
280
     0
102
RTVSPost2010PropOp45
 70
     1
102
RTVSPost2010Prop46
 90
       50
102
RTVSPost2010PropOp46
 70
     1
102
RTVSPost2010Prop47
 90
       50
102
RTVSPost2010PropOp47
 70
     1
102
RTVSPost2010Prop48
 90
       50
102
RTVSPost2010PropOp48
 70
     1
102
RTVSPost2010Prop49
280
     0
102
RTVSPost2010PropOp49
 70
     1
102
RTVSPost2010Prop50
 90
       50
102
RTVSPost2010PropOp50
 70
     1
102
RTVSPost2010Prop51ColorIndex
 90
      256
102
RTVSPost2010Prop51ColorRGB
 90
-16777216
102
RTVSPost2010PropOp51
 70
     0
102
RTVSPost2010Prop52
140
1.0
102
RTVSPost2010PropOp52
 70
     0
102
RTVSPost2010Prop53
 90
        2
102
RTVSPost2010PropOp53
 70
     1
102
RTVSPost2010Prop54
  1
strokes_ogs.tif
102
RTVSPost2010PropOp54
 70
     1
102
RTVSPost2010Prop55
280
     0
102
RTVSPost2010PropOp55
 70
     1
102
RTVSPost2010Prop56
140
1.0
102
RTVSPost2010PropOp56
 70
     1
102
RTVSPost2010Prop57
140
1.0
102
RTVSPost2010PropOp57
 70
     1
  0
XRECORD
  5
15D
102
{ACAD_REACTORS
330
15C
102
}
330
15C
100
AcDbXrecord
280
     1
102
RTVSPost2010Prop28
280
     0
102
RTVSPost2010PropOp28
 70
     1
102
RTVSPost2010Prop29
280
     1
102
RTVSPost2010PropOp29
 70
     1
102
RTVSPost2010Prop30
280
     1
102
RTVSPost2010PropOp30
 70
     1
102
RTVSPost2010Prop31
280
     0
102
RTVSPost2010PropOp31
 70
     1
102
RTVSPost2010Prop32
280
     0
102
RTVSPost2010PropOp32
 70
     1
102
RTVSPost2010Prop33
280
     0
102
RTVSPost2010PropOp33
 70
     1
102
RTVSPost2010Prop34
280
     0
102
RTVSPost2010PropOp34
 70
     1
102
RTVSPost2010Prop35
280
     0
102
RTVSPost2010PropOp35
 70
     1
102
RTVSPost2010Prop36
280
     0
102
RTVSPost2010PropOp36
 70
     1
102
RTVSPost2010Prop37
 90
       50
102
RTVSPost2010PropOp37
 70
     1
102
RTVSPost2010Prop38
140
0.0
102
RTVSPost2010PropOp38
 70
     1
102
RTVSPost2010Prop39
140
1.0
102
RTVSPost2010PropOp39
 70
     1
102
RTVSPost2010Prop40
 90
        0
102
RTVSPost2010PropOp40
 70
     1
102
RTVSPost2010Prop41ColorIndex
 90
       18
102
RTVSPost2010Prop41ColorRGB
 90
        0
102
RTVSPost2010PropOp41
 70
     1
102
RTVSPost2010Prop42
 90
       50
102
RTVSPost2010PropOp42
 70
     1
102
RTVSPost2010Prop43
 90
        3
102
RTVSPost2010PropOp43
 70
     1
102
RTVSPost2010Prop44ColorIndex
 90
        5
102
RTVSPost2010Prop44ColorRGB
 90
      255
102
RTVSPost2010PropOp44
 70
     1
102
RTVSPost2010Prop45
280
     0
102
RTVSPost2010PropOp45
 70
     1
102
RTVSPost2010Prop46
 90
       50
102
RTVSPost2010PropOp46
 70
     1
102
RTVSPost2010Prop47
 90
       50
102
RTVSPost2010PropOp47
 70
     1
102
RTVSPost2010Prop48
 90
       50
102
RTVSPost2010PropOp48
 70
     1
102
RTVSPost2010Prop49
280
     0
102
RTVSPost2010PropOp49
 70
     1
102
RTVSPost2010Prop50
 90
       50
102
RTVSPost2010PropOp50
 70
     1
102
RTVSPost2010Prop51ColorIndex
 90
      256
102
RTVSPost2010Prop51ColorRGB
 90
-16777216
102
RTVSPost2010PropOp51
 70
     0
102
RTVSPost2010Prop52
140
1.0
102
RTVSPost2010PropOp52
 70
     0
102
RTVSPost2010Prop53
 90
        2
102
RTVSPost2010PropOp53
 70
     1
102
RTVSPost2010Prop54
  1
strokes_ogs.tif
102
RTVSPost2010PropOp54
 70
     1
102
RTVSPost2010Prop55
280
     0
102
RTVSPost2010PropOp55
 70
     1
102
RTVSPost2010Prop56
140
1.0
102
RTVSPost2010PropOp56
 70
     1
102
RTVSPost2010Prop57
140
1.0
102
RTVSPost2010PropOp57
 70
     1
  0
XRECORD
  5
179
102
{ACAD_REACTORS
330
178
102
}
330
178
100
AcDbXrecord
280
     1
102
RTVSPost2010Prop28
280
     0
102
RTVSPost2010PropOp28
 70
     0
102
RTVSPost2010Prop29
280
     1
102
RTVSPost2010PropOp29
 70
     0
102
RTVSPost2010Prop30
280
     1
102
RTVSPost2010PropOp30
 70
     0
102
RTVSPost2010Prop31
280
     0
102
RTVSPost2010PropOp31
 70
     0
102
RTVSPost2010Prop32
280
     0
102
RTVSPost2010PropOp32
 70
     0
102
RTVSPost2010Prop33
280
     0
102
RTVSPost2010PropOp33
 70
     0
102
RTVSPost2010Prop34
280
     0
102
RTVSPost2010PropOp34
 70
     0
102
RTVSPost2010Prop35
280
     0
102
RTVSPost2010PropOp35
 70
     0
102
RTVSPost2010Prop36
280
     0
102
RTVSPost2010PropOp36
 70
     0
102
RTVSPost2010Prop37
 90
       50
102
RTVSPost2010PropOp37
 70
     0
102
RTVSPost2010Prop38
140
0.0
102
RTVSPost2010PropOp38
 70
     0
102
RTVSPost2010Prop39
140
1.0
102
RTVSPost2010PropOp39
 70
     0
102
RTVSPost2010Prop40
 90
        0
102
RTVSPost2010PropOp40
 70
     0
102
RTVSPost2010Prop41ColorIndex
 90
       18
102
RTVSPost2010Prop41ColorRGB
 90
        0
102
RTVSPost2010PropOp41
 70
     0
102
RTVSPost2010Prop42
 90
       50
102
RTVSPost2010PropOp42
 70
     0
102
RTVSPost2010Prop43
 90
        3
102
RTVSPost2010PropOp43
 70
     0
102
RTVSPost2010Prop44ColorIndex
 90
        5
102
RTVSPost2010Prop44ColorRGB
 90
      255
102
RTVSPost2010PropOp44
 70
     0
102
RTVSPost2010Prop45
280
     0
102
RTVSPost2010PropOp45
 70
     0
102
RTVSPost2010Prop46
 90
       50
102
RTVSPost2010PropOp46
 70
     0
102
RTVSPost2010Prop47
 90
       50
102
RTVSPost2010PropOp47
 70
     0
102
RTVSPost2010Prop48
 90
       50
102
RTVSPost2010PropOp48
 70
     0
102
RTVSPost2010Prop49
280
     0
102
RTVSPost2010PropOp49
 70
     0
102
RTVSPost2010Prop50
 90
       50
102
RTVSPost2010PropOp50
 70
     0
102
RTVSPost2010Prop51ColorIndex
 90
      256
102
RTVSPost2010Prop51ColorRGB
 90
-16777216
102
RTVSPost2010PropOp51
 70
     0
102
RTVSPost2010Prop52
140
1.0
102
RTVSPost2010PropOp52
 70
     0
102
RTVSPost2010Prop53
 90
        2
102
RTVSPost2010PropOp53
 70
     0
102
RTVSPost2010Prop54
  1
strokes_ogs.tif
102
RTVSPost2010PropOp54
 70
     0
102
RTVSPost2010Prop55
280
     0
102
RTVSPost2010PropOp55
 70
     0
102
RTVSPost2010Prop56
140
1.0
102
RTVSPost2010PropOp56
 70
     0
102
RTVSPost2010Prop57
140
1.0
102
RTVSPost2010PropOp57
 70
     0
  0
XRECORD
  5
169
102
{ACAD_REACTORS
330
168
102
}
330
168
100
AcDbXrecord
280
     1
102
RTVSPost2010Prop28
280
     0
102
RTVSPost2010PropOp28
 70
     1
102
RTVSPost2010Prop29
280
     1
102
RTVSPost2010PropOp29
 70
     1
102
RTVSPost2010Prop30
280
     1
102
RTVSPost2010PropOp30
 70
     1
102
RTVSPost2010Prop31
280
     0
102
RTVSPost2010PropOp31
 70
     1
102
RTVSPost2010Prop32
280
     0
102
RTVSPost2010PropOp32
 70
     1
102
RTVSPost2010Prop33
280
     0
102
RTVSPost2010PropOp33
 70
     1
102
RTVSPost2010Prop34
280
     0
102
RTVSPost2010PropOp34
 70
     1
102
RTVSPost2010Prop35
280
     0
102
RTVSPost2010PropOp35
 70
     1
102
RTVSPost2010Prop36
280
     0
102
RTVSPost2010PropOp36
 70
     1
102
RTVSPost2010Prop37
 90
       50
102
RTVSPost2010PropOp37
 70
     1
102
RTVSPost2010Prop38
140
0.0
102
RTVSPost2010PropOp38
 70
     1
102
RTVSPost2010Prop39
140
1.0
102
RTVSPost2010PropOp39
 70
     1
102
RTVSPost2010Prop40
 90
        0
102
RTVSPost2010PropOp40
 70
     1
102
RTVSPost2010Prop41ColorIndex
 90
       18
102
RTVSPost2010Prop41ColorRGB
 90
        0
102
RTVSPost2010PropOp41
 70
     1
102
RTVSPost2010Prop42
 90
       50
102
RTVSPost2010PropOp42
 70
     1
102
RTVSPost2010Prop43
 90
        3
102
RTVSPost2010PropOp43
 70
     1
102
RTVSPost2010Prop44ColorIndex
 90
        5
102
RTVSPost2010Prop44ColorRGB
 90
      255
102
RTVSPost2010PropOp44
 70
     1
102
RTVSPost2010Prop45
280
     0
102
RTVSPost2010PropOp45
 70
     1
102
RTVSPost2010Prop46
 90
       50
102
RTVSPost2010PropOp46
 70
     1
102
RTVSPost2010Prop47
 90
       50
102
RTVSPost2010PropOp47
 70
     1
102
RTVSPost2010Prop48
 90
       50
102
RTVSPost2010PropOp48
 70
     1
102
RTVSPost2010Prop49
280
     0
102
RTVSPost2010PropOp49
 70
     1
102
RTVSPost2010Prop50
 90
       50
102
RTVSPost2010PropOp50
 70
     1
102
RTVSPost2010Prop51ColorIndex
 90
      256
102
RTVSPost2010Prop51ColorRGB
 90
-16777216
102
RTVSPost2010PropOp51
 70
     0
102
RTVSPost2010Prop52
140
1.0
102
RTVSPost2010PropOp52
 70
     0
102
RTVSPost2010Prop53
 90
        2
102
RTVSPost2010PropOp53
 70
     1
102
RTVSPost2010Prop54
  1
strokes_ogs.tif
102
RTVSPost2010PropOp54
 70
     1
102
RTVSPost2010Prop55
280
     0
102
RTVSPost2010PropOp55
 70
     1
102
RTVSPost2010Prop56
140
1.0
102
RTVSPost2010PropOp56
 70
     1
102
RTVSPost2010Prop57
140
1.0
102
RTVSPost2010PropOp57
 70
     1
  0
XRECORD
  5
17B
102
{ACAD_REACTORS
330
17A
102
}
330
17A
100
AcDbXrecord
280
     1
102
RTVSPost2010Prop28
280
     0
102
RTVSPost2010PropOp28
 70
     0
102
RTVSPost2010Prop29
280
     1
102
RTVSPost2010PropOp29
 70
     0
102
RTVSPost2010Prop30
280
     1
102
RTVSPost2010PropOp30
 70
     0
102
RTVSPost2010Prop31
280
     0
102
RTVSPost2010PropOp31
 70
     0
102
RTVSPost2010Prop32
280
     0
102
RTVSPost2010PropOp32
 70
     0
102
RTVSPost2010Prop33
280
     0
102
RTVSPost2010PropOp33
 70
     0
102
RTVSPost2010Prop34
280
     0
102
RTVSPost2010PropOp34
 70
     0
102
RTVSPost2010Prop35
280
     0
102
RTVSPost2010PropOp35
 70
     0
102
RTVSPost2010Prop36
280
     0
102
RTVSPost2010PropOp36
 70
     0
102
RTVSPost2010Prop37
 90
       50
102
RTVSPost2010PropOp37
 70
     0
102
RTVSPost2010Prop38
140
0.0
102
RTVSPost2010PropOp38
 70
     0
102
RTVSPost2010Prop39
140
1.0
102
RTVSPost2010PropOp39
 70
     0
102
RTVSPost2010Prop40
 90
        0
102
RTVSPost2010PropOp40
 70
     0
102
RTVSPost2010Prop41ColorIndex
 90
       18
102
RTVSPost2010Prop41ColorRGB
 90
        0
102
RTVSPost2010PropOp41
 70
     0
102
RTVSPost2010Prop42
 90
       50
102
RTVSPost2010PropOp42
 70
     0
102
RTVSPost2010Prop43
 90
        3
102
RTVSPost2010PropOp43
 70
     0
102
RTVSPost2010Prop44ColorIndex
 90
        5
102
RTVSPost2010Prop44ColorRGB
 90
      255
102
RTVSPost2010PropOp44
 70
     0
102
RTVSPost2010Prop45
280
     0
102
RTVSPost2010PropOp45
 70
     0
102
RTVSPost2010Prop46
 90
       50
102
RTVSPost2010PropOp46
 70
     0
102
RTVSPost2010Prop47
 90
       50
102
RTVSPost2010PropOp47
 70
     0
102
RTVSPost2010Prop48
 90
       50
102
RTVSPost2010PropOp48
 70
     0
102
RTVSPost2010Prop49
280
     0
102
RTVSPost2010PropOp49
 70
     0
102
RTVSPost2010Prop50
 90
       50
102
RTVSPost2010PropOp50
 70
     0
102
RTVSPost2010Prop51ColorIndex
 90
      256
102
RTVSPost2010Prop51ColorRGB
 90
-16777216
102
RTVSPost2010PropOp51
 70
     0
102
RTVSPost2010Prop52
140
1.0
102
RTVSPost2010PropOp52
 70
     0
102
RTVSPost2010Prop53
 90
        2
102
RTVSPost2010PropOp53
 70
     0
102
RTVSPost2010Prop54
  1
strokes_ogs.tif
102
RTVSPost2010PropOp54
 70
     0
102
RTVSPost2010Prop55
280
     0
102
RTVSPost2010PropOp55
 70
     0
102
RTVSPost2010Prop56
140
1.0
102
RTVSPost2010PropOp56
 70
     0
102
RTVSPost2010Prop57
140
1.0
102
RTVSPost2010PropOp57
 70
     0
  0
XRECORD
  5
161
102
{ACAD_REACTORS
330
160
102
}
330
160
100
AcDbXrecord
280
     1
102
RTVSPost2010Prop28
280
     0
102
RTVSPost2010PropOp28
 70
     1
102
RTVSPost2010Prop29
280
     1
102
RTVSPost2010PropOp29
 70
     1
102
RTVSPost2010Prop30
280
     1
102
RTVSPost2010PropOp30
 70
     1
102
RTVSPost2010Prop31
280
     0
102
RTVSPost2010PropOp31
 70
     1
102
RTVSPost2010Prop32
280
     0
102
RTVSPost2010PropOp32
 70
     1
102
RTVSPost2010Prop33
280
     0
102
RTVSPost2010PropOp33
 70
     1
102
RTVSPost2010Prop34
280
     0
102
RTVSPost2010PropOp34
 70
     1
102
RTVSPost2010Prop35
280
     0
102
RTVSPost2010PropOp35
 70
     1
102
RTVSPost2010Prop36
280
     0
102
RTVSPost2010PropOp36
 70
     1
102
RTVSPost2010Prop37
 90
       50
102
RTVSPost2010PropOp37
 70
     1
102
RTVSPost2010Prop38
140
0.0
102
RTVSPost2010PropOp38
 70
     1
102
RTVSPost2010Prop39
140
1.0
102
RTVSPost2010PropOp39
 70
     1
102
RTVSPost2010Prop40
 90
        0
102
RTVSPost2010PropOp40
 70
     1
102
RTVSPost2010Prop41ColorIndex
 90
       18
102
RTVSPost2010Prop41ColorRGB
 90
        0
102
RTVSPost2010PropOp41
 70
     1
102
RTVSPost2010Prop42
 90
       50
102
RTVSPost2010PropOp42
 70
     1
102
RTVSPost2010Prop43
 90
        3
102
RTVSPost2010PropOp43
 70
     1
102
RTVSPost2010Prop44ColorIndex
 90
        5
102
RTVSPost2010Prop44ColorRGB
 90
      255
102
RTVSPost2010PropOp44
 70
     1
102
RTVSPost2010Prop45
280
     0
102
RTVSPost2010PropOp45
 70
     1
102
RTVSPost2010Prop46
 90
       50
102
RTVSPost2010PropOp46
 70
     1
102
RTVSPost2010Prop47
 90
       50
102
RTVSPost2010PropOp47
 70
     1
102
RTVSPost2010Prop48
 90
       50
102
RTVSPost2010PropOp48
 70
     1
102
RTVSPost2010Prop49
280
     0
102
RTVSPost2010PropOp49
 70
     1
102
RTVSPost2010Prop50
 90
       50
102
RTVSPost2010PropOp50
 70
     1
102
RTVSPost2010Prop51ColorIndex
 90
      256
102
RTVSPost2010Prop51ColorRGB
 90
-16777216
102
RTVSPost2010PropOp51
 70
     0
102
RTVSPost2010Prop52
140
1.0
102
RTVSPost2010PropOp52
 70
     0
102
RTVSPost2010Prop53
 90
        2
102
RTVSPost2010PropOp53
 70
     1
102
RTVSPost2010Prop54
  1
strokes_ogs.tif
102
RTVSPost2010PropOp54
 70
     1
102
RTVSPost2010Prop55
280
     0
102
RTVSPost2010PropOp55
 70
     1
102
RTVSPost2010Prop56
140
1.0
102
RTVSPost2010PropOp56
 70
     1
102
RTVSPost2010Prop57
140
1.0
102
RTVSPost2010PropOp57
 70
     1
  0
XRECORD
  5
177
102
{ACAD_REACTORS
330
176
102
}
330
176
100
AcDbXrecord
280
     1
102
RTVSPost2010Prop28
280
     0
102
RTVSPost2010PropOp28
 70
     1
102
RTVSPost2010Prop29
280
     1
102
RTVSPost2010PropOp29
 70
     1
102
RTVSPost2010Prop30
280
     1
102
RTVSPost2010PropOp30
 70
     1
102
RTVSPost2010Prop31
280
     0
102
RTVSPost2010PropOp31
 70
     1
102
RTVSPost2010Prop32
280
     0
102
RTVSPost2010PropOp32
 70
     1
102
RTVSPost2010Prop33
280
     0
102
RTVSPost2010PropOp33
 70
     1
102
RTVSPost2010Prop34
280
     0
102
RTVSPost2010PropOp34
 70
     1
102
RTVSPost2010Prop35
280
     0
102
RTVSPost2010PropOp35
 70
     1
102
RTVSPost2010Prop36
280
     0
102
RTVSPost2010PropOp36
 70
     1
102
RTVSPost2010Prop37
 90
       50
102
RTVSPost2010PropOp37
 70
     1
102
RTVSPost2010Prop38
140
0.0
102
RTVSPost2010PropOp38
 70
     1
102
RTVSPost2010Prop39
140
1.0
102
RTVSPost2010PropOp39
 70
     1
102
RTVSPost2010Prop40
 90
        0
102
RTVSPost2010PropOp40
 70
     1
102
RTVSPost2010Prop41ColorIndex
 90
       18
102
RTVSPost2010Prop41ColorRGB
 90
        0
102
RTVSPost2010PropOp41
 70
     1
102
RTVSPost2010Prop42
 90
       50
102
RTVSPost2010PropOp42
 70
     1
102
RTVSPost2010Prop43
 90
        3
102
RTVSPost2010PropOp43
 70
     1
102
RTVSPost2010Prop44ColorIndex
 90
        5
102
RTVSPost2010Prop44ColorRGB
 90
      255
102
RTVSPost2010PropOp44
 70
     1
102
RTVSPost2010Prop45
280
     0
102
RTVSPost2010PropOp45
 70
     1
102
RTVSPost2010Prop46
 90
       50
102
RTVSPost2010PropOp46
 70
     1
102
RTVSPost2010Prop47
 90
       50
102
RTVSPost2010PropOp47
 70
     1
102
RTVSPost2010Prop48
 90
       50
102
RTVSPost2010PropOp48
 70
     1
102
RTVSPost2010Prop49
280
     0
102
RTVSPost2010PropOp49
 70
     1
102
RTVSPost2010Prop50
 90
       50
102
RTVSPost2010PropOp50
 70
     1
102
RTVSPost2010Prop51ColorIndex
 90
      256
102
RTVSPost2010Prop51ColorRGB
 90
-16777216
102
RTVSPost2010PropOp51
 70
     0
102
RTVSPost2010Prop52
140
1.0
102
RTVSPost2010PropOp52
 70
     0
102
RTVSPost2010Prop53
 90
        2
102
RTVSPost2010PropOp53
 70
     1
102
RTVSPost2010Prop54
  1
strokes_ogs.tif
102
RTVSPost2010PropOp54
 70
     1
102
RTVSPost2010Prop55
280
     0
102
RTVSPost2010PropOp55
 70
     1
102
RTVSPost2010Prop56
140
1.0
102
RTVSPost2010PropOp56
 70
     1
102
RTVSPost2010Prop57
140
1.0
102
RTVSPost2010PropOp57
 70
     1
  0
XRECORD
  5
175
102
{ACAD_REACTORS
330
174
102
}
330
174
100
AcDbXrecord
280
     1
102
RTVSPost2010Prop28
280
     0
102
RTVSPost2010PropOp28
 70
     1
102
RTVSPost2010Prop29
280
     1
102
RTVSPost2010PropOp29
 70
     1
102
RTVSPost2010Prop30
280
     1
102
RTVSPost2010PropOp30
 70
     1
102
RTVSPost2010Prop31
280
     0
102
RTVSPost2010PropOp31
 70
     1
102
RTVSPost2010Prop32
280
     0
102
RTVSPost2010PropOp32
 70
     1
102
RTVSPost2010Prop33
280
     0
102
RTVSPost2010PropOp33
 70
     1
102
RTVSPost2010Prop34
280
     0
102
RTVSPost2010PropOp34
 70
     1
102
RTVSPost2010Prop35
280
     0
102
RTVSPost2010PropOp35
 70
     1
102
RTVSPost2010Prop36
280
     0
102
RTVSPost2010PropOp36
 70
     1
102
RTVSPost2010Prop37
 90
       50
102
RTVSPost2010PropOp37
 70
     1
102
RTVSPost2010Prop38
140
0.0
102
RTVSPost2010PropOp38
 70
     1
102
RTVSPost2010Prop39
140
1.0
102
RTVSPost2010PropOp39
 70
     1
102
RTVSPost2010Prop40
 90
        0
102
RTVSPost2010PropOp40
 70
     1
102
RTVSPost2010Prop41ColorIndex
 90
       18
102
RTVSPost2010Prop41ColorRGB
 90
        0
102
RTVSPost2010PropOp41
 70
     1
102
RTVSPost2010Prop42
 90
       50
102
RTVSPost2010PropOp42
 70
     1
102
RTVSPost2010Prop43
 90
        3
102
RTVSPost2010PropOp43
 70
     1
102
RTVSPost2010Prop44ColorIndex
 90
        5
102
RTVSPost2010Prop44ColorRGB
 90
      255
102
RTVSPost2010PropOp44
 70
     1
102
RTVSPost2010Prop45
280
     0
102
RTVSPost2010PropOp45
 70
     1
102
RTVSPost2010Prop46
 90
       50
102
RTVSPost2010PropOp46
 70
     1
102
RTVSPost2010Prop47
 90
       50
102
RTVSPost2010PropOp47
 70
     1
102
RTVSPost2010Prop48
 90
       50
102
RTVSPost2010PropOp48
 70
     1
102
RTVSPost2010Prop49
280
     0
102
RTVSPost2010PropOp49
 70
     1
102
RTVSPost2010Prop50
 90
       50
102
RTVSPost2010PropOp50
 70
     1
102
RTVSPost2010Prop51ColorIndex
 90
      256
102
RTVSPost2010Prop51ColorRGB
 90
-16777216
102
RTVSPost2010PropOp51
 70
     0
102
RTVSPost2010Prop52
140
1.0
102
RTVSPost2010PropOp52
 70
     0
102
RTVSPost2010Prop53
 90
        2
102
RTVSPost2010PropOp53
 70
     1
102
RTVSPost2010Prop54
  1
strokes_ogs.tif
102
RTVSPost2010PropOp54
 70
     1
102
RTVSPost2010Prop55
280
     0
102
RTVSPost2010PropOp55
 70
     1
102
RTVSPost2010Prop56
140
1.0
102
RTVSPost2010PropOp56
 70
     1
102
RTVSPost2010Prop57
140
1.0
102
RTVSPost2010PropOp57
 70
     1
  0
XRECORD
  5
16F
102
{ACAD_REACTORS
330
16E
102
}
330
16E
100
AcDbXrecord
280
     1
102
RTVSPost2010Prop28
280
     0
102
RTVSPost2010PropOp28
 70
     1
102
RTVSPost2010Prop29
280
     1
102
RTVSPost2010PropOp29
 70
     1
102
RTVSPost2010Prop30
280
     1
102
RTVSPost2010PropOp30
 70
     1
102
RTVSPost2010Prop31
280
     0
102
RTVSPost2010PropOp31
 70
     1
102
RTVSPost2010Prop32
280
     0
102
RTVSPost2010PropOp32
 70
     1
102
RTVSPost2010Prop33
280
     0
102
RTVSPost2010PropOp33
 70
     1
102
RTVSPost2010Prop34
280
     0
102
RTVSPost2010PropOp34
 70
     1
102
RTVSPost2010Prop35
280
     0
102
RTVSPost2010PropOp35
 70
     1
102
RTVSPost2010Prop36
280
     0
102
RTVSPost2010PropOp36
 70
     1
102
RTVSPost2010Prop37
 90
       50
102
RTVSPost2010PropOp37
 70
     1
102
RTVSPost2010Prop38
140
0.0
102
RTVSPost2010PropOp38
 70
     1
102
RTVSPost2010Prop39
140
1.0
102
RTVSPost2010PropOp39
 70
     1
102
RTVSPost2010Prop40
 90
        0
102
RTVSPost2010PropOp40
 70
     1
102
RTVSPost2010Prop41ColorIndex
 90
       18
102
RTVSPost2010Prop41ColorRGB
 90
        0
102
RTVSPost2010PropOp41
 70
     1
102
RTVSPost2010Prop42
 90
       50
102
RTVSPost2010PropOp42
 70
     1
102
RTVSPost2010Prop43
 90
        3
102
RTVSPost2010PropOp43
 70
     1
102
RTVSPost2010Prop44ColorIndex
 90
        5
102
RTVSPost2010Prop44ColorRGB
 90
      255
102
RTVSPost2010PropOp44
 70
     1
102
RTVSPost2010Prop45
280
     0
102
RTVSPost2010PropOp45
 70
     1
102
RTVSPost2010Prop46
 90
       50
102
RTVSPost2010PropOp46
 70
     1
102
RTVSPost2010Prop47
 90
       50
102
RTVSPost2010PropOp47
 70
     1
102
RTVSPost2010Prop48
 90
       50
102
RTVSPost2010PropOp48
 70
     1
102
RTVSPost2010Prop49
280
     0
102
RTVSPost2010PropOp49
 70
     1
102
RTVSPost2010Prop50
 90
       50
102
RTVSPost2010PropOp50
 70
     1
102
RTVSPost2010Prop51ColorIndex
 90
      256
102
RTVSPost2010Prop51ColorRGB
 90
-16777216
102
RTVSPost2010PropOp51
 70
     0
102
RTVSPost2010Prop52
140
1.0
102
RTVSPost2010PropOp52
 70
     0
102
RTVSPost2010Prop53
 90
        2
102
RTVSPost2010PropOp53
 70
     1
102
RTVSPost2010Prop54
  1
strokes_ogs.tif
102
RTVSPost2010PropOp54
 70
     1
102
RTVSPost2010Prop55
280
     0
102
RTVSPost2010PropOp55
 70
     1
102
RTVSPost2010Prop56
140
1.0
102
RTVSPost2010PropOp56
 70
     1
102
RTVSPost2010Prop57
140
1.0
102
RTVSPost2010PropOp57
 70
     1
  0
XRECORD
  5
171
102
{ACAD_REACTORS
330
170
102
}
330
170
100
AcDbXrecord
280
     1
102
RTVSPost2010Prop28
280
     0
102
RTVSPost2010PropOp28
 70
     1
102
RTVSPost2010Prop29
280
     1
102
RTVSPost2010PropOp29
 70
     1
102
RTVSPost2010Prop30
280
     1
102
RTVSPost2010PropOp30
 70
     1
102
RTVSPost2010Prop31
280
     0
102
RTVSPost2010PropOp31
 70
     1
102
RTVSPost2010Prop32
280
     0
102
RTVSPost2010PropOp32
 70
     1
102
RTVSPost2010Prop33
280
     0
102
RTVSPost2010PropOp33
 70
     1
102
RTVSPost2010Prop34
280
     0
102
RTVSPost2010PropOp34
 70
     1
102
RTVSPost2010Prop35
280
     0
102
RTVSPost2010PropOp35
 70
     1
102
RTVSPost2010Prop36
280
     0
102
RTVSPost2010PropOp36
 70
     1
102
RTVSPost2010Prop37
 90
       50
102
RTVSPost2010PropOp37
 70
     1
102
RTVSPost2010Prop38
140
0.0
102
RTVSPost2010PropOp38
 70
     1
102
RTVSPost2010Prop39
140
1.0
102
RTVSPost2010PropOp39
 70
     1
102
RTVSPost2010Prop40
 90
        0
102
RTVSPost2010PropOp40
 70
     1
102
RTVSPost2010Prop41ColorIndex
 90
       18
102
RTVSPost2010Prop41ColorRGB
 90
        0
102
RTVSPost2010PropOp41
 70
     1
102
RTVSPost2010Prop42
 90
       50
102
RTVSPost2010PropOp42
 70
     1
102
RTVSPost2010Prop43
 90
        3
102
RTVSPost2010PropOp43
 70
     1
102
RTVSPost2010Prop44ColorIndex
 90
        5
102
RTVSPost2010Prop44ColorRGB
 90
      255
102
RTVSPost2010PropOp44
 70
     1
102
RTVSPost2010Prop45
280
     0
102
RTVSPost2010PropOp45
 70
     1
102
RTVSPost2010Prop46
 90
       50
102
RTVSPost2010PropOp46
 70
     1
102
RTVSPost2010Prop47
 90
       50
102
RTVSPost2010PropOp47
 70
     1
102
RTVSPost2010Prop48
 90
       50
102
RTVSPost2010PropOp48
 70
     1
102
RTVSPost2010Prop49
280
     0
102
RTVSPost2010PropOp49
 70
     1
102
RTVSPost2010Prop50
 90
       50
102
RTVSPost2010PropOp50
 70
     1
102
RTVSPost2010Prop51ColorIndex
 90
      256
102
RTVSPost2010Prop51ColorRGB
 90
-16777216
102
RTVSPost2010PropOp51
 70
     0
102
RTVSPost2010Prop52
140
1.0
102
RTVSPost2010PropOp52
 70
     0
102
RTVSPost2010Prop53
 90
        2
102
RTVSPost2010PropOp53
 70
     1
102
RTVSPost2010Prop54
  1
strokes_ogs.tif
102
RTVSPost2010PropOp54
 70
     1
102
RTVSPost2010Prop55
280
     0
102
RTVSPost2010PropOp55
 70
     1
102
RTVSPost2010Prop56
140
1.0
102
RTVSPost2010PropOp56
 70
     1
102
RTVSPost2010Prop57
140
1.0
102
RTVSPost2010PropOp57
 70
     1
  0
XRECORD
  5
167
102
{ACAD_REACTORS
330
166
102
}
330
166
100
AcDbXrecord
280
     1
102
RTVSPost2010Prop28
280
     0
102
RTVSPost2010PropOp28
 70
     1
102
RTVSPost2010Prop29
280
     1
102
RTVSPost2010PropOp29
 70
     1
102
RTVSPost2010Prop30
280
     1
102
RTVSPost2010PropOp30
 70
     1
102
RTVSPost2010Prop31
280
     0
102
RTVSPost2010PropOp31
 70
     1
102
RTVSPost2010Prop32
280
     0
102
RTVSPost2010PropOp32
 70
     1
102
RTVSPost2010Prop33
280
     0
102
RTVSPost2010PropOp33
 70
     1
102
RTVSPost2010Prop34
280
     0
102
RTVSPost2010PropOp34
 70
     1
102
RTVSPost2010Prop35
280
     0
102
RTVSPost2010PropOp35
 70
     1
102
RTVSPost2010Prop36
280
     0
102
RTVSPost2010PropOp36
 70
     1
102
RTVSPost2010Prop37
 90
       50
102
RTVSPost2010PropOp37
 70
     1
102
RTVSPost2010Prop38
140
0.0
102
RTVSPost2010PropOp38
 70
     1
102
RTVSPost2010Prop39
140
1.0
102
RTVSPost2010PropOp39
 70
     1
102
RTVSPost2010Prop40
 90
        0
102
RTVSPost2010PropOp40
 70
     1
102
RTVSPost2010Prop41ColorIndex
 90
       18
102
RTVSPost2010Prop41ColorRGB
 90
        0
102
RTVSPost2010PropOp41
 70
     1
102
RTVSPost2010Prop42
 90
       50
102
RTVSPost2010PropOp42
 70
     1
102
RTVSPost2010Prop43
 90
        3
102
RTVSPost2010PropOp43
 70
     1
102
RTVSPost2010Prop44ColorIndex
 90
        5
102
RTVSPost2010Prop44ColorRGB
 90
      255
102
RTVSPost2010PropOp44
 70
     1
102
RTVSPost2010Prop45
280
     0
102
RTVSPost2010PropOp45
 70
     1
102
RTVSPost2010Prop46
 90
       50
102
RTVSPost2010PropOp46
 70
     1
102
RTVSPost2010Prop47
 90
       50
102
RTVSPost2010PropOp47
 70
     1
102
RTVSPost2010Prop48
 90
       50
102
RTVSPost2010PropOp48
 70
     1
102
RTVSPost2010Prop49
280
     0
102
RTVSPost2010PropOp49
 70
     1
102
RTVSPost2010Prop50
 90
       50
102
RTVSPost2010PropOp50
 70
     1
102
RTVSPost2010Prop51ColorIndex
 90
      256
102
RTVSPost2010Prop51ColorRGB
 90
-16777216
102
RTVSPost2010PropOp51
 70
     0
102
RTVSPost2010Prop52
140
1.0
102
RTVSPost2010PropOp52
 70
     0
102
RTVSPost2010Prop53
 90
        2
102
RTVSPost2010PropOp53
 70
     1
102
RTVSPost2010Prop54
  1
strokes_ogs.tif
102
RTVSPost2010PropOp54
 70
     1
102
RTVSPost2010Prop55
280
     0
102
RTVSPost2010PropOp55
 70
     1
102
RTVSPost2010Prop56
140
1.0
102
RTVSPost2010PropOp56
 70
     1
102
RTVSPost2010Prop57
140
1.0
102
RTVSPost2010PropOp57
 70
     1
  0
XRECORD
  5
15B
102
{ACAD_REACTORS
330
15A
102
}
330
15A
100
AcDbXrecord
280
     1
102
RTVSPost2010Prop28
280
     0
102
RTVSPost2010PropOp28
 70
     1
102
RTVSPost2010Prop29
280
     1
102
RTVSPost2010PropOp29
 70
     1
102
RTVSPost2010Prop30
280
     1
102
RTVSPost2010PropOp30
 70
     1
102
RTVSPost2010Prop31
280
     0
102
RTVSPost2010PropOp31
 70
     1
102
RTVSPost2010Prop32
280
     0
102
RTVSPost2010PropOp32
 70
     1
102
RTVSPost2010Prop33
280
     0
102
RTVSPost2010PropOp33
 70
     1
102
RTVSPost2010Prop34
280
     0
102
RTVSPost2010PropOp34
 70
     1
102
RTVSPost2010Prop35
280
     0
102
RTVSPost2010PropOp35
 70
     1
102
RTVSPost2010Prop36
280
     0
102
RTVSPost2010PropOp36
 70
     1
102
RTVSPost2010Prop37
 90
       50
102
RTVSPost2010PropOp37
 70
     1
102
RTVSPost2010Prop38
140
0.0
102
RTVSPost2010PropOp38
 70
     1
102
RTVSPost2010Prop39
140
1.0
102
RTVSPost2010PropOp39
 70
     1
102
RTVSPost2010Prop40
 90
        0
102
RTVSPost2010PropOp40
 70
     1
102
RTVSPost2010Prop41ColorIndex
 90
       18
102
RTVSPost2010Prop41ColorRGB
 90
        0
102
RTVSPost2010PropOp41
 70
     1
102
RTVSPost2010Prop42
 90
       50
102
RTVSPost2010PropOp42
 70
     1
102
RTVSPost2010Prop43
 90
        3
102
RTVSPost2010PropOp43
 70
     1
102
RTVSPost2010Prop44ColorIndex
 90
        5
102
RTVSPost2010Prop44ColorRGB
 90
      255
102
RTVSPost2010PropOp44
 70
     1
102
RTVSPost2010Prop45
280
     0
102
RTVSPost2010PropOp45
 70
     1
102
RTVSPost2010Prop46
 90
       50
102
RTVSPost2010PropOp46
 70
     1
102
RTVSPost2010Prop47
 90
       50
102
RTVSPost2010PropOp47
 70
     1
102
RTVSPost2010Prop48
 90
       50
102
RTVSPost2010PropOp48
 70
     1
102
RTVSPost2010Prop49
280
     0
102
RTVSPost2010PropOp49
 70
     1
102
RTVSPost2010Prop50
 90
       50
102
RTVSPost2010PropOp50
 70
     1
102
RTVSPost2010Prop51ColorIndex
 90
      256
102
RTVSPost2010Prop51ColorRGB
 90
-16777216
102
RTVSPost2010PropOp51
 70
     0
102
RTVSPost2010Prop52
140
1.0
102
RTVSPost2010PropOp52
 70
     0
102
RTVSPost2010Prop53
 90
        2
102
RTVSPost2010PropOp53
 70
     1
102
RTVSPost2010Prop54
  1
strokes_ogs.tif
102
RTVSPost2010PropOp54
 70
     1
102
RTVSPost2010Prop55
280
     0
102
RTVSPost2010PropOp55
 70
     1
102
RTVSPost2010Prop56
140
1.0
102
RTVSPost2010PropOp56
 70
     1
102
RTVSPost2010Prop57
140
1.0
102
RTVSPost2010PropOp57
 70
     1
  0
XRECORD
  5
173
102
{ACAD_REACTORS
330
172
102
}
330
172
100
AcDbXrecord
280
     1
102
RTVSPost2010Prop28
280
     0
102
RTVSPost2010PropOp28
 70
     1
102
RTVSPost2010Prop29
280
     1
102
RTVSPost2010PropOp29
 70
     1
102
RTVSPost2010Prop30
280
     1
102
RTVSPost2010PropOp30
 70
     1
102
RTVSPost2010Prop31
280
     0
102
RTVSPost2010PropOp31
 70
     1
102
RTVSPost2010Prop32
280
     0
102
RTVSPost2010PropOp32
 70
     1
102
RTVSPost2010Prop33
280
     0
102
RTVSPost2010PropOp33
 70
     1
102
RTVSPost2010Prop34
280
     0
102
RTVSPost2010PropOp34
 70
     1
102
RTVSPost2010Prop35
280
     0
102
RTVSPost2010PropOp35
 70
     1
102
RTVSPost2010Prop36
280
     0
102
RTVSPost2010PropOp36
 70
     1
102
RTVSPost2010Prop37
 90
       50
102
RTVSPost2010PropOp37
 70
     1
102
RTVSPost2010Prop38
140
0.0
102
RTVSPost2010PropOp38
 70
     1
102
RTVSPost2010Prop39
140
1.0
102
RTVSPost2010PropOp39
 70
     1
102
RTVSPost2010Prop40
 90
        0
102
RTVSPost2010PropOp40
 70
     1
102
RTVSPost2010Prop41ColorIndex
 90
       18
102
RTVSPost2010Prop41ColorRGB
 90
        0
102
RTVSPost2010PropOp41
 70
     1
102
RTVSPost2010Prop42
 90
       50
102
RTVSPost2010PropOp42
 70
     1
102
RTVSPost2010Prop43
 90
        3
102
RTVSPost2010PropOp43
 70
     1
102
RTVSPost2010Prop44ColorIndex
 90
        5
102
RTVSPost2010Prop44ColorRGB
 90
      255
102
RTVSPost2010PropOp44
 70
     1
102
RTVSPost2010Prop45
280
     0
102
RTVSPost2010PropOp45
 70
     1
102
RTVSPost2010Prop46
 90
       50
102
RTVSPost2010PropOp46
 70
     1
102
RTVSPost2010Prop47
 90
       50
102
RTVSPost2010PropOp47
 70
     1
102
RTVSPost2010Prop48
 90
       50
102
RTVSPost2010PropOp48
 70
     1
102
RTVSPost2010Prop49
280
     0
102
RTVSPost2010PropOp49
 70
     1
102
RTVSPost2010Prop50
 90
       50
102
RTVSPost2010PropOp50
 70
     1
102
RTVSPost2010Prop51ColorIndex
 90
      256
102
RTVSPost2010Prop51ColorRGB
 90
-16777216
102
RTVSPost2010PropOp51
 70
     0
102
RTVSPost2010Prop52
140
1.0
102
RTVSPost2010PropOp52
 70
     0
102
RTVSPost2010Prop53
 90
        2
102
RTVSPost2010PropOp53
 70
     1
102
RTVSPost2010Prop54
  1
strokes_ogs.tif
102
RTVSPost2010PropOp54
 70
     1
102
RTVSPost2010Prop55
280
     0
102
RTVSPost2010PropOp55
 70
     1
102
RTVSPost2010Prop56
140
1.0
102
RTVSPost2010PropOp56
 70
     1
102
RTVSPost2010Prop57
140
1.0
102
RTVSPost2010PropOp57
 70
     1
  0
ENDSEC
  0
EOF
