  0
SECTION
  2
HEADER
  9
$ACADVER
  1
AC1024
  9
$ACADMAINTVER
 70
   205
  9
$DWGCODEPAGE
  3
ANSI_1251
  9
$INSBASE
 10
0.0
 20
0.0
 30
0.0
  9
$EXTMIN
 10
1.000000000000000E+20
 20
1.000000000000000E+20
 30
1.000000000000000E+20
  9
$EXTMAX
 10
-1.000000000000000E+20
 20
-1.000000000000000E+20
 30
-1.000000000000000E+20
  9
$LIMMIN
 10
0.0
 20
0.0
  9
$LIMMAX
 10
12.0
 20
9.0
  9
$ORTHOMODE
 70
     0
  9
$REGENMODE
 70
     1
  9
$FILLMODE
 70
     1
  9
$QTEXTMODE
 70
     0
  9
$MIRRTEXT
 70
     1
  9
$LTSCALE
 40
1.0
  9
$ATTMODE
 70
     1
  9
$TEXTSIZE
 40
0.2
  9
$TRACEWID
 40
0.05
  9
$TEXTSTYLE
  7
Standard
  9
$CLAYER
  8
OracDecor_indirect_lighting
  9
$CELTYPE
  6
ByLayer
  9
$CECOLOR
 62
   256
  9
$CELTSCALE
 40
1.0
  9
$DISPSILH
 70
     0
  9
$DIMSCALE
 40
1.0
  9
$DIMASZ
 40
0.18
  9
$DIMEXO
 40
0.0625
  9
$DIMDLI
 40
0.38
  9
$DIMRND
 40
0.0
  9
$DIMDLE
 40
0.0
  9
$DIMEXE
 40
0.18
  9
$DIMTP
 40
0.0
  9
$DIMTM
 40
0.0
  9
$DIMTXT
 40
0.18
  9
$DIMCEN
 40
0.09
  9
$DIMTSZ
 40
0.0
  9
$DIMTOL
 70
     0
  9
$DIMLIM
 70
     0
  9
$DIMTIH
 70
     1
  9
$DIMTOH
 70
     1
  9
$DIMSE1
 70
     0
  9
$DIMSE2
 70
     0
  9
$DIMTAD
 70
     0
  9
$DIMZIN
 70
     0
  9
$DIMBLK
  1

  9
$DIMASO
 70
     1
  9
$DIMSHO
 70
     1
  9
$DIMPOST
  1

  9
$DIMAPOST
  1

  9
$DIMALT
 70
     0
  9
$DIMALTD
 70
     2
  9
$DIMALTF
 40
25.4
  9
$DIMLFAC
 40
1.0
  9
$DIMTOFL
 70
     0
  9
$DIMTVP
 40
0.0
  9
$DIMTIX
 70
     0
  9
$DIMSOXD
 70
     0
  9
$DIMSAH
 70
     0
  9
$DIMBLK1
  1

  9
$DIMBLK2
  1

  9
$DIMSTYLE
  2
Standard
  9
$DIMCLRD
 70
     0
  9
$DIMCLRE
 70
     0
  9
$DIMCLRT
 70
     0
  9
$DIMTFAC
 40
1.0
  9
$DIMGAP
 40
0.09
  9
$DIMJUST
 70
     0
  9
$DIMSD1
 70
     0
  9
$DIMSD2
 70
     0
  9
$DIMTOLJ
 70
     1
  9
$DIMTZIN
 70
     0
  9
$DIMALTZ
 70
     0
  9
$DIMALTTZ
 70
     0
  9
$DIMUPT
 70
     0
  9
$DIMDEC
 70
     4
  9
$DIMTDEC
 70
     4
  9
$DIMALTU
 70
     2
  9
$DIMALTTD
 70
     2
  9
$DIMTXSTY
  7
Standard
  9
$DIMAUNIT
 70
     0
  9
$DIMADEC
 70
     0
  9
$DIMALTRND
 40
0.0
  9
$DIMAZIN
 70
     0
  9
$DIMDSEP
 70
    46
  9
$DIMATFIT
 70
     3
  9
$DIMFRAC
 70
     0
  9
$DIMLDRBLK
  1

  9
$DIMLUNIT
 70
     2
  9
$DIMLWD
 70
    -2
  9
$DIMLWE
 70
    -2
  9
$DIMTMOVE
 70
     0
  9
$DIMFXL
 40
1.0
  9
$DIMFXLON
 70
     0
  9
$DIMJOGANG
 40
0.7853981633974483
  9
$DIMTFILL
 70
     0
  9
$DIMTFILLCLR
 70
     0
  9
$DIMARCSYM
 70
     0
  9
$DIMLTYPE
  6

  9
$DIMLTEX1
  6

  9
$DIMLTEX2
  6

  9
$DIMTXTDIRECTION
 70
     0
  9
$LUNITS
 70
     2
  9
$LUPREC
 70
     4
  9
$SKETCHINC
 40
0.1
  9
$FILLETRAD
 40
0.5
  9
$AUNITS
 70
     0
  9
$AUPREC
 70
     0
  9
$MENU
  1
.
  9
$ELEVATION
 40
0.0
  9
$PELEVATION
 40
0.0
  9
$THICKNESS
 40
0.0
  9
$LIMCHECK
 70
     0
  9
$CHAMFERA
 40
0.5
  9
$CHAMFERB
 40
0.5
  9
$CHAMFERC
 40
1.0
  9
$CHAMFERD
 40
0.0
  9
$SKPOLY
 70
     0
  9
$TDCREATE
 40
2451380.930432396
  9
$TDUCREATE
 40
2451380.805432396
  9
$TDUPDATE
 40
2451380.966180555
  9
$TDUUPDATE
 40
2451380.841180556
  9
$TDINDWG
 40
0.0075614468
  9
$TDUSRTIMER
 40
0.0075524074
  9
$USRTIMER
 70
     1
  9
$ANGBASE
 50
0.0
  9
$ANGDIR
 70
     0
  9
$PDMODE
 70
     0
  9
$PDSIZE
 40
0.0
  9
$PLINEWID
 40
0.0
  9
$SPLFRAME
 70
     0
  9
$SPLINETYPE
 70
     6
  9
$SPLINESEGS
 70
     8
  9
$HANDSEED
  5
181
  9
$SURFTAB1
 70
     6
  9
$SURFTAB2
 70
     6
  9
$SURFTYPE
 70
     6
  9
$SURFU
 70
     6
  9
$SURFV
 70
     6
  9
$UCSBASE
  2

  9
$UCSNAME
  2

  9
$UCSORG
 10
0.0
 20
0.0
 30
0.0
  9
$UCSXDIR
 10
1.0
 20
0.0
 30
0.0
  9
$UCSYDIR
 10
0.0
 20
1.0
 30
0.0
  9
$UCSORTHOREF
  2

  9
$UCSORTHOVIEW
 70
     0
  9
$UCSORGTOP
 10
0.0
 20
0.0
 30
0.0
  9
$UCSORGBOTTOM
 10
0.0
 20
0.0
 30
0.0
  9
$UCSORGLEFT
 10
0.0
 20
0.0
 30
0.0
  9
$UCSORGRIGHT
 10
0.0
 20
0.0
 30
0.0
  9
$UCSORGFRONT
 10
0.0
 20
0.0
 30
0.0
  9
$UCSORGBACK
 10
0.0
 20
0.0
 30
0.0
  9
$PUCSBASE
  2

  9
$PUCSNAME
  2

  9
$PUCSORG
 10
0.0
 20
0.0
 30
0.0
  9
$PUCSXDIR
 10
1.0
 20
0.0
 30
0.0
  9
$PUCSYDIR
 10
0.0
 20
1.0
 30
0.0
  9
$PUCSORTHOREF
  2

  9
$PUCSORTHOVIEW
 70
     0
  9
$PUCSORGTOP
 10
0.0
 20
0.0
 30
0.0
  9
$PUCSORGBOTTOM
 10
0.0
 20
0.0
 30
0.0
  9
$PUCSORGLEFT
 10
0.0
 20
0.0
 30
0.0
  9
$PUCSORGRIGHT
 10
0.0
 20
0.0
 30
0.0
  9
$PUCSORGFRONT
 10
0.0
 20
0.0
 30
0.0
  9
$PUCSORGBACK
 10
0.0
 20
0.0
 30
0.0
  9
$USERI1
 70
     0
  9
$USERI2
 70
     0
  9
$USERI3
 70
     0
  9
$USERI4
 70
     0
  9
$USERI5
 70
     0
  9
$USERR1
 40
0.0
  9
$USERR2
 40
0.0
  9
$USERR3
 40
0.0
  9
$USERR4
 40
0.0
  9
$USERR5
 40
0.0
  9
$WORLDVIEW
 70
     1
  9
$SHADEDGE
 70
     3
  9
$SHADEDIF
 70
    70
  9
$TILEMODE
 70
     1
  9
$MAXACTVP
 70
    64
  9
$PINSBASE
 10
0.0
 20
0.0
 30
0.0
  9
$PLIMCHECK
 70
     0
  9
$PEXTMIN
 10
1.000000000000000E+20
 20
1.000000000000000E+20
 30
1.000000000000000E+20
  9
$PEXTMAX
 10
-1.000000000000000E+20
 20
-1.000000000000000E+20
 30
-1.000000000000000E+20
  9
$PLIMMIN
 10
0.0
 20
0.0
  9
$PLIMMAX
 10
12.0
 20
9.0
  9
$UNITMODE
 70
     0
  9
$VISRETAIN
 70
     1
  9
$PLINEGEN
 70
     0
  9
$PSLTSCALE
 70
     1
  9
$TREEDEPTH
 70
  3020
  9
$CMLSTYLE
  2
Standard
  9
$CMLJUST
 70
     0
  9
$CMLSCALE
 40
1.0
  9
$PROXYGRAPHICS
 70
     1
  9
$MEASUREMENT
 70
     1
  9
$CELWEIGHT
370
    -1
  9
$ENDCAPS
280
     0
  9
$JOINSTYLE
280
     0
  9
$LWDISPLAY
290
     0
  9
$INSUNITS
 70
     4
  9
$HYPERLINKBASE
  1

  9
$STYLESHEET
  1

  9
$XEDIT
290
     1
  9
$CEPSNTYPE
380
     0
  9
$PSTYLEMODE
290
     1
  9
$FINGERPRINTGUID
  2
{12F50282-3ED8-11D3-A8B7-0060B0F84BC6}
  9
$VERSIONGUID
  2
{12F50293-3ED8-11D3-A8B7-0060B0F84BC6}
  9
$EXTNAMES
290
     1
  9
$PSVPSCALE
 40
0.0
  9
$OLESTARTUP
290
     0
  9
$SORTENTS
280
   127
  9
$INDEXCTL
280
     0
  9
$HIDETEXT
280
     0
  9
$XCLIPFRAME
280
     2
  9
$HALOGAP
280
     0
  9
$OBSCOLOR
 70
   257
  9
$OBSLTYPE
280
     0
  9
$INTERSECTIONDISPLAY
280
     0
  9
$INTERSECTIONCOLOR
 70
   257
  9
$DIMASSOC
280
     1
  9
$PROJECTNAME
  1

  9
$CAMERADISPLAY
290
     0
  9
$LENSLENGTH
 40
50.0
  9
$CAMERAHEIGHT
 40
0.0
  9
$STEPSPERSEC
 40
2.0
  9
$STEPSIZE
 40
6.0
  9
$3DDWFPREC
 40
2.0
  9
$PSOLWIDTH
 40
0.25
  9
$PSOLHEIGHT
 40
4.0
  9
$LOFTANG1
 40
1.570796326794896
  9
$LOFTANG2
 40
1.570796326794896
  9
$LOFTMAG1
 40
0.0
  9
$LOFTMAG2
 40
0.0
  9
$LOFTPARAM
 70
     7
  9
$LOFTNORMALS
280
     1
  9
$LATITUDE
 40
37.795
  9
$LONGITUDE
 40
-122.394
  9
$NORTHDIRECTION
 40
0.0
  9
$TIMEZONE
 70
 -8000
  9
$LIGHTGLYPHDISPLAY
280
     1
  9
$TILEMODELIGHTSYNCH
280
     1
  9
$CMATERIAL
347
AB
  9
$SOLIDHIST
280
     0
  9
$SHOWHIST
280
     1
  9
$DWFFRAME
280
     2
  9
$DGNFRAME
280
     0
  9
$REALWORLDSCALE
290
     1
  9
$INTERFERECOLOR
 62
     1
  9
$INTERFEREOBJVS
345
CD
  9
$INTERFEREVPVS
346
CA
  9
$CSHADOW
280
     0
  9
$SHADOWPLANELOCATION
 40
0.0
  0
ENDSEC
  0
SECTION
  2
CLASSES
  0
CLASS
  1
ACDBDICTIONARYWDFLT
  2
AcDbDictionaryWithDefault
  3
ObjectDBX Classes
 90
        0
 91
        1
280
     0
281
     0
  0
CLASS
  1
ACDBPLACEHOLDER
  2
AcDbPlaceHolder
  3
ObjectDBX Classes
 90
        0
 91
        2
280
     0
281
     0
  0
CLASS
  1
LAYOUT
  2
AcDbLayout
  3
ObjectDBX Classes
 90
        0
 91
        3
280
     0
281
     0
  0
CLASS
  1
MATERIAL
  2
AcDbMaterial
  3
ObjectDBX Classes
 90
     1153
 91
        3
280
     0
281
     0
  0
CLASS
  1
VISUALSTYLE
  2
AcDbVisualStyle
  3
ObjectDBX Classes
 90
     4095
 91
       24
280
     0
281
     0
  0
CLASS
  1
TABLESTYLE
  2
AcDbTableStyle
  3
ObjectDBX Classes
 90
     4095
 91
        1
280
     0
281
     0
  0
CLASS
  1
SCALE
  2
AcDbScale
  3
ObjectDBX Classes
 90
     1153
 91
       17
280
     0
281
     0
  0
CLASS
  1
MLEADERSTYLE
  2
AcDbMLeaderStyle
  3
ACDB_MLEADERSTYLE_CLASS
 90
     4095
 91
        1
280
     0
281
     0
  0
CLASS
  1
ACDBSECTIONVIEWSTYLE
  2
AcDbSectionViewStyle
  3
ObjectDBX Classes
 90
     1025
 91
        1
280
     0
281
     0
  0
CLASS
  1
ACDBDETAILVIEWSTYLE
  2
AcDbDetailViewStyle
  3
ObjectDBX Classes
 90
     1025
 91
        1
280
     0
281
     0
  0
CLASS
  1
MESH
  2
AcDbSubDMesh
  3
ObjectDBX Classes
 90
        0
 91
        1
280
     0
281
     1
  0
CLASS
  1
DICTIONARYVAR
  2
AcDbDictionaryVar
  3
ObjectDBX Classes
 90
        0
 91
        9
280
     0
281
     0
  0
CLASS
  1
CELLSTYLEMAP
  2
AcDbCellStyleMap
  3
ObjectDBX Classes
 90
     1152
 91
        1
280
     0
281
     0
  0
ENDSEC
  0
SECTION
  2
TABLES
  0
TABLE
  2
VPORT
  5
8
330
0
100
AcDbSymbolTable
 70
     1
  0
VPORT
  5
A8
330
8
100
AcDbSymbolTableRecord
100
AcDbViewportTableRecord
  2
*Active
 70
     0
 10
0.0
 20
0.0
 11
1.0
 21
1.0
 12
-0.0000323687818309
 22
-114.3095397949219
 13
0.0
 23
0.0
 14
0.5
 24
0.5
 15
0.5
 25
0.5
 16
-1.0
 26
-1.0
 36
1.0
 17
0.0
 27
0.0
 37
0.0
 40
1349.616691561633
 41
1.37270861130862
 42
50.0
 43
0.0
 44
0.0
 50
0.0
 51
0.0
 71
     0
 72
   100
 73
     1
 74
     3
 75
     0
 76
     0
 77
     0
 78
     0
281
     0
 65
     1
110
0.0
120
0.0
130
0.0
111
1.0
121
0.0
131
0.0
112
0.0
122
1.0
132
0.0
 79
     0
146
0.0
348
C9
 60
     3
 61
     5
292
     1
282
     1
141
0.0
142
0.0
 63
   250
421
  3355443
  0
ENDTAB
  0
TABLE
  2
LTYPE
  5
5
330
0
100
AcDbSymbolTable
 70
     1
  0
LTYPE
  5
14
330
5
100
AcDbSymbolTableRecord
100
AcDbLinetypeTableRecord
  2
ByBlock
 70
     0
  3

 72
    65
 73
     0
 40
0.0
  0
LTYPE
  5
15
330
5
100
AcDbSymbolTableRecord
100
AcDbLinetypeTableRecord
  2
ByLayer
 70
     0
  3

 72
    65
 73
     0
 40
0.0
  0
LTYPE
  5
16
330
5
100
AcDbSymbolTableRecord
100
AcDbLinetypeTableRecord
  2
Continuous
 70
     0
  3
Solid line
 72
    65
 73
     0
 40
0.0
  0
ENDTAB
  0
TABLE
  2
LAYER
  5
2
330
0
100
AcDbSymbolTable
 70
     3
  0
LAYER
  5
10
330
2
100
AcDbSymbolTableRecord
100
AcDbLayerTableRecord
  2
0
 70
     0
 62
     7
  6
Continuous
370
    -3
390
F
347
BB
  0
LAYER
  5
2B
330
2
100
AcDbSymbolTableRecord
100
AcDbLayerTableRecord
  2
ASHADE
 70
     4
 62
     7
  6
Continuous
370
    -3
390
2D
347
BB
  0
LAYER
  5
F8
330
2
100
AcDbSymbolTableRecord
100
AcDbLayerTableRecord
  2
OracDecor_indirect_lighting
 70
     0
 62
   154
420
  1857969
  6
Continuous
370
    -3
390
F
347
BB
  0
ENDTAB
  0
TABLE
  2
STYLE
  5
3
330
0
100
AcDbSymbolTable
 70
     2
  0
STYLE
  5
11
330
3
100
AcDbSymbolTableRecord
100
AcDbTextStyleTableRecord
  2
Standard
 70
     0
 40
0.0
 41
1.0
 50
0.0
 71
     0
 42
0.2
  3
txt
  4

  0
STYLE
  5
2C
330
3
100
AcDbSymbolTableRecord
100
AcDbTextStyleTableRecord
  2
ASHADE
 70
     0
 40
0.2
 41
1.0
 50
0.0
 71
     0
 42
0.2
  3
simplex
  4

  0
ENDTAB
  0
TABLE
  2
VIEW
  5
6
330
0
100
AcDbSymbolTable
 70
     0
  0
ENDTAB
  0
TABLE
  2
UCS
  5
7
330
0
100
AcDbSymbolTable
 70
     0
  0
ENDTAB
  0
TABLE
  2
APPID
  5
9
330
0
100
AcDbSymbolTable
 70
     6
  0
APPID
  5
12
330
9
100
AcDbSymbolTableRecord
100
AcDbRegAppTableRecord
  2
ACAD
 70
     0
  0
APPID
  5
8F
330
9
100
AcDbSymbolTableRecord
100
AcDbRegAppTableRecord
  2
AVE_RENDER
 70
     0
  0
APPID
  5
90
330
9
100
AcDbSymbolTableRecord
100
AcDbRegAppTableRecord
  2
AVE_ENTITY_MATERIAL
 70
     0
  0
APPID
  5
9C
330
9
100
AcDbSymbolTableRecord
100
AcDbRegAppTableRecord
  2
AVE_FINISH
 70
     0
  0
APPID
  5
9D
330
9
100
AcDbSymbolTableRecord
100
AcDbRegAppTableRecord
  2
AVE_MATERIAL
 70
     0
  0
APPID
  5
9E
330
9
100
AcDbSymbolTableRecord
100
AcDbRegAppTableRecord
  2
AVE_GLOBAL
 70
     0
  0
ENDTAB
  0
TABLE
  2
DIMSTYLE
  5
A
330
0
100
AcDbSymbolTable
 70
     1
100
AcDbDimStyleTable
 71
     0
  0
DIMSTYLE
105
27
330
A
100
AcDbSymbolTableRecord
100
AcDbDimStyleTableRecord
  2
Standard
 70
     0
340
11
  0
ENDTAB
  0
TABLE
  2
BLOCK_RECORD
  5
1
330
0
100
AcDbSymbolTable
 70
     6
  0
BLOCK_RECORD
  5
1F
330
1
100
AcDbSymbolTableRecord
100
AcDbBlockTableRecord
  2
*Model_Space
340
22
 70
     0
280
     1
281
     0
  0
BLOCK_RECORD
  5
1B
330
1
100
AcDbSymbolTableRecord
100
AcDbBlockTableRecord
  2
*Paper_Space
340
1E
 70
     0
280
     1
281
     0
  0
BLOCK_RECORD
  5
23
330
1
100
AcDbSymbolTableRecord
100
AcDbBlockTableRecord
  2
*Paper_Space0
340
26
 70
     0
280
     1
281
     0
  0
BLOCK_RECORD
  5
2E
330
1
100
AcDbSymbolTableRecord
100
AcDbBlockTableRecord
  2
direct
340
0
 70
     0
280
     1
281
     0
  0
BLOCK_RECORD
  5
42
330
1
100
AcDbSymbolTableRecord
100
AcDbBlockTableRecord
  2
overhead
340
0
 70
     0
280
     1
281
     0
  0
BLOCK_RECORD
  5
5F
330
1
100
AcDbSymbolTableRecord
100
AcDbBlockTableRecord
  2
sh_spot
340
0
 70
     0
280
     1
281
     0
  0
BLOCK_RECORD
  5
91
330
1
100
AcDbSymbolTableRecord
100
AcDbBlockTableRecord
  2
AVE_RENDER
340
0
102
{BLKREFS
331
94
331
95
331
96
331
97
331
98
331
99
331
9A
331
9B
102
}
 70
     0
280
     1
281
     0
  0
BLOCK_RECORD
  5
9F
330
1
100
AcDbSymbolTableRecord
100
AcDbBlockTableRecord
  2
AVE_GLOBAL
340
0
102
{BLKREFS
331
A2
102
}
 70
     0
280
     1
281
     0
  0
ENDTAB
  0
ENDSEC
  0
SECTION
  2
BLOCKS
  0
BLOCK
  5
20
330
1F
100
AcDbEntity
  8
0
100
AcDbBlockBegin
  2
*Model_Space
 70
     0
 10
0.0
 20
0.0
 30
0.0
  3
*Model_Space
  1

  0
ENDBLK
  5
21
330
1F
100
AcDbEntity
  8
0
100
AcDbBlockEnd
  0
BLOCK
  5
1C
330
1B
100
AcDbEntity
 67
     1
  8
0
100
AcDbBlockBegin
  2
*Paper_Space
 70
     0
 10
0.0
 20
0.0
 30
0.0
  3
*Paper_Space
  1

  0
ENDBLK
  5
1D
330
1B
100
AcDbEntity
 67
     1
  8
0
100
AcDbBlockEnd
  0
BLOCK
  5
24
330
23
100
AcDbEntity
 67
     1
  8
0
100
AcDbBlockBegin
  2
*Paper_Space0
 70
     0
 10
0.0
 20
0.0
 30
0.0
  3
*Paper_Space0
  1

  0
ENDBLK
  5
25
330
23
100
AcDbEntity
 67
     1
  8
0
100
AcDbBlockEnd
  0
BLOCK
  5
40
330
2E
100
AcDbEntity
  8
0
100
AcDbBlockBegin
  2
direct
 70
     2
 10
0.0
 20
0.0
 30
0.0
  3
direct
  1

  0
ATTDEF
  5
2F
330
2E
100
AcDbEntity
  8
ASHADE
  6
Continuous
 62
     1
100
AcDbText
 10
0.0
 20
-0.1
 30
0.0
 40
0.2
  1

  7
ASHADE
 72
     1
 11
0.0
 21
-0.1
 31
0.0
100
AcDbAttributeDefinition
280
     0
  3
Light Name
  2
SNAME
 70
     0
280
     0
  0
ARC
  5
30
330
2E
100
AcDbEntity
  8
ASHADE
  6
Continuous
 62
     7
100
AcDbCircle
 10
0.0
 20
0.0
 30
0.0
 40
0.3
100
AcDbArc
 50
205.6792886194569
 51
334.3207113805431
  0
ARC
  5
31
330
2E
100
AcDbEntity
  8
ASHADE
  6
Continuous
 62
     7
100
AcDbCircle
 10
0.0
 20
0.0
 30
0.0
 40
0.3
100
AcDbArc
 50
25.67928861945685
 51
154.3207113805431
  0
LINE
  5
32
330
2E
100
AcDbEntity
  8
ASHADE
  6
Continuous
 62
     7
100
AcDbLine
 10
-0.21
 20
0.2142428528562855
 30
0.0
 11
-0.21
 21
0.5
 31
0.0
  0
LINE
  5
33
330
2E
100
AcDbEntity
  8
ASHADE
  6
Continuous
 62
     7
100
AcDbLine
 10
-0.11
 20
0.2791057147390572
 30
0.0
 11
-0.11
 21
0.5
 31
0.0
  0
LINE
  5
34
330
2E
100
AcDbEntity
  8
ASHADE
  6
Continuous
 62
     7
100
AcDbLine
 10
0.21
 20
0.2142428528562855
 30
0.0
 11
0.21
 21
0.5
 31
0.0
  0
ATTDEF
  5
35
330
2E
100
AcDbEntity
  8
ASHADE
  6
Continuous
 62
     7
100
AcDbText
 10
0.0
 20
0.25
 30
0.0
 40
0.01
  1

100
AcDbAttributeDefinition
280
     0
  3
Look-at Y
  2
LAY
 70
     1
280
     0
  0
ATTDEF
  5
36
330
2E
100
AcDbEntity
  8
ASHADE
  6
Continuous
 62
     7
100
AcDbText
 10
0.0
 20
0.22
 30
0.0
 40
0.01
  1
1
100
AcDbAttributeDefinition
280
     0
  3
Light Intensity
  2
INTENSITY
 70
     1
280
     0
  0
ATTDEF
  5
37
330
2E
100
AcDbEntity
  8
ASHADE
  6
Continuous
 62
     7
100
AcDbText
 10
0.0
 20
0.16
 30
0.0
 40
0.01
  1
-1
100
AcDbAttributeDefinition
280
     0
  3
*not used*
  2
BEAMD
 70
     1
280
     0
  0
ATTDEF
  5
38
330
2E
100
AcDbEntity
  8
ASHADE
  6
Continuous
 62
     7
100
AcDbText
 10
0.0
 20
0.175
 30
0.0
 40
0.01
  1
-1
100
AcDbAttributeDefinition
280
     0
  3
*not used*
  2
CONED
 70
     1
280
     0
  0
ATTDEF
  5
39
330
2E
100
AcDbEntity
  8
ASHADE
  6
Continuous
 62
     7
100
AcDbText
 10
0.0
 20
0.19
 30
0.0
 40
0.01
  1
0
100
AcDbAttributeDefinition
280
     0
  3
Depth Map Size
  2
CONEA
 70
     1
280
     0
  0
ATTDEF
  5
3A
330
2E
100
AcDbEntity
  8
ASHADE
  6
Continuous
 62
     7
100
AcDbText
 10
0.0
 20
0.2050000000000001
 30
0.0
 40
0.01
  1
1,1,1
100
AcDbAttributeDefinition
280
     0
  3
Light Color (RGB)
  2
COLOR
 70
     1
280
     0
  0
ATTDEF
  5
3B
330
2E
100
AcDbEntity
  8
ASHADE
  6
Continuous
 62
     7
100
AcDbText
 10
0.0
 20
0.235
 30
0.0
 40
0.01
  1

100
AcDbAttributeDefinition
280
     0
  3
Look-at Z
  2
LAZ
 70
     1
280
     0
  0
LINE
  5
3C
330
2E
100
AcDbEntity
  8
ASHADE
  6
Continuous
 62
     7
100
AcDbLine
 10
0.0
 20
0.3
 30
0.0
 11
0.0
 21
0.5
 31
0.0
  0
LINE
  5
3D
330
2E
100
AcDbEntity
  8
ASHADE
  6
Continuous
 62
     7
100
AcDbLine
 10
0.11
 20
0.2791057147390572
 30
0.0
 11
0.11
 21
0.5
 31
0.0
  0
ATTDEF
  5
3E
330
2E
100
AcDbEntity
  8
ASHADE
  6
Continuous
 62
     7
100
AcDbText
 10
0.0
 20
0.265
 30
0.0
 40
0.01
  1

100
AcDbAttributeDefinition
280
     0
  3
Look-at X
  2
LAX
 70
     1
280
     0
  0
ATTDEF
  5
3F
330
2E
100
AcDbEntity
  8
ASHADE
  6
Continuous
 62
     7
100
AcDbText
 10
0.0
 20
0.28
 30
0.0
 40
0.01
  1

100
AcDbAttributeDefinition
280
     0
  3

  2
GNAME
 70
     1
280
     0
  0
ENDBLK
  5
41
330
2E
100
AcDbEntity
  8
0
100
AcDbBlockEnd
  0
BLOCK
  5
5D
330
42
100
AcDbEntity
  8
0
100
AcDbBlockBegin
  2
overhead
 70
     2
 10
0.0
 20
0.0
 30
0.0
  3
overhead
  1

  0
ATTDEF
  5
43
330
42
100
AcDbEntity
  8
ASHADE
  6
Continuous
 62
     1
100
AcDbText
 10
0.0
 20
-0.1
 30
0.0
 40
0.2
  1

  7
ASHADE
 72
     1
 11
0.0
 21
-0.1
 31
0.0
100
AcDbAttributeDefinition
280
     0
  3
Light Name
  2
SNAME
 70
     0
280
     0
  0
ARC
  5
44
330
42
100
AcDbEntity
  8
ASHADE
  6
Continuous
 62
     7
100
AcDbCircle
 10
0.0
 20
0.0
 30
0.0
 40
0.3
100
AcDbArc
 50
205.6792886194569
 51
334.3207113805431
  0
LINE
  5
45
330
42
100
AcDbEntity
  8
ASHADE
  6
Continuous
 62
     7
100
AcDbLine
 10
-0.2041413561583015
 20
-0.2198324514393848
 30
0.0
 11
-0.2721884748777353
 21
-0.2931099352525131
 31
0.0
  0
LINE
  5
46
330
42
100
AcDbEntity
  8
ASHADE
  6
Continuous
 62
     7
100
AcDbLine
 10
-0.1096591641591904
 20
-0.2792398032442862
 30
0.0
 11
-0.1279356915190555
 21
-0.3257797704516673
 31
0.0
  0
LINE
  5
47
330
42
100
AcDbEntity
  8
ASHADE
  6
Continuous
 62
     7
100
AcDbLine
 10
0.0
 20
-0.2999999999999999
 30
0.0
 11
0.0
 21
-0.4
 31
0.0
  0
LINE
  5
48
330
42
100
AcDbEntity
  8
ASHADE
  6
Continuous
 62
     7
100
AcDbLine
 10
0.1096591641591904
 20
-0.2792398032442862
 30
0.0
 11
0.1279356915190555
 21
-0.3257797704516673
 31
0.0
  0
LINE
  5
49
330
42
100
AcDbEntity
  8
ASHADE
  6
Continuous
 62
     7
100
AcDbLine
 10
0.2041413561583015
 20
-0.2198324514393848
 30
0.0
 11
0.2721884748777353
 21
-0.2931099352525131
 31
0.0
  0
ARC
  5
4A
330
42
100
AcDbEntity
  8
ASHADE
  6
Continuous
 62
     7
100
AcDbCircle
 10
0.0
 20
0.0
 30
0.0
 40
0.3
100
AcDbArc
 50
25.67928861945685
 51
154.3207113805431
  0
LINE
  5
4B
330
42
100
AcDbEntity
  8
ASHADE
  6
Continuous
 62
     7
100
AcDbLine
 10
-0.2703701166919155
 20
0.13
 30
0.0
 11
-0.3154318028072347
 21
0.1516666666666666
 31
0.0
  0
LINE
  5
4C
330
42
100
AcDbEntity
  8
ASHADE
  6
Continuous
 62
     7
100
AcDbLine
 10
-0.2703701166919155
 20
-0.13
 30
0.0
 11
-0.3154318028072347
 21
-0.1516666666666666
 31
0.0
  0
LINE
  5
4D
330
42
100
AcDbEntity
  8
ASHADE
  6
Continuous
 62
     7
100
AcDbLine
 10
-0.2041413561583015
 20
0.2198324514393849
 30
0.0
 11
-0.2721884748777353
 21
0.2931099352525131
 31
0.0
  0
LINE
  5
4E
330
42
100
AcDbEntity
  8
ASHADE
  6
Continuous
 62
     7
100
AcDbLine
 10
-0.1096591641591904
 20
0.2792398032442862
 30
0.0
 11
-0.1279356915190555
 21
0.3257797704516674
 31
0.0
  0
LINE
  5
4F
330
42
100
AcDbEntity
  8
ASHADE
  6
Continuous
 62
     7
100
AcDbLine
 10
0.2703701166919155
 20
-0.13
 30
0.0
 11
0.3154318028072347
 21
-0.1516666666666666
 31
0.0
  0
LINE
  5
50
330
42
100
AcDbEntity
  8
ASHADE
  6
Continuous
 62
     7
100
AcDbLine
 10
0.2703701166919155
 20
0.13
 30
0.0
 11
0.3154318028072347
 21
0.1516666666666666
 31
0.0
  0
LINE
  5
51
330
42
100
AcDbEntity
  8
ASHADE
  6
Continuous
 62
     7
100
AcDbLine
 10
0.0
 20
0.3
 30
0.0
 11
0.0
 21
0.4
 31
0.0
  0
ATTDEF
  5
52
330
42
100
AcDbEntity
  8
ASHADE
  6
Continuous
 62
     7
100
AcDbText
 10
0.0
 20
0.22
 30
0.0
 40
0.01
  1
1
100
AcDbAttributeDefinition
280
     0
  3
Light Intensity
  2
INTENSITY
 70
     1
280
     0
  0
ATTDEF
  5
53
330
42
100
AcDbEntity
  8
ASHADE
  6
Continuous
 62
     7
100
AcDbText
 10
0.0
 20
0.16
 30
0.0
 40
0.01
  1
-1
100
AcDbAttributeDefinition
280
     0
  3
*not used*
  2
BEAMD
 70
     1
280
     0
  0
ATTDEF
  5
54
330
42
100
AcDbEntity
  8
ASHADE
  6
Continuous
 62
     7
100
AcDbText
 10
0.0
 20
0.175
 30
0.0
 40
0.01
  1
-1
100
AcDbAttributeDefinition
280
     0
  3
*not used*
  2
CONED
 70
     1
280
     0
  0
ATTDEF
  5
55
330
42
100
AcDbEntity
  8
ASHADE
  6
Continuous
 62
     7
100
AcDbText
 10
0.0
 20
0.19
 30
0.0
 40
0.01
  1
0
100
AcDbAttributeDefinition
280
     0
  3
Depth Map Size
  2
CONEA
 70
     1
280
     0
  0
ATTDEF
  5
56
330
42
100
AcDbEntity
  8
ASHADE
  6
Continuous
 62
     7
100
AcDbText
 10
0.0
 20
0.2050000000000001
 30
0.0
 40
0.01
  1
1,1,1
100
AcDbAttributeDefinition
280
     0
  3
Light Color (RGB)
  2
COLOR
 70
     1
280
     0
  0
ATTDEF
  5
57
330
42
100
AcDbEntity
  8
ASHADE
  6
Continuous
 62
     7
100
AcDbText
 10
0.0
 20
0.235
 30
0.0
 40
0.01
  1

100
AcDbAttributeDefinition
280
     0
  3
Look-at Z
  2
LAZ
 70
     1
280
     0
  0
ATTDEF
  5
58
330
42
100
AcDbEntity
  8
ASHADE
  6
Continuous
 62
     7
100
AcDbText
 10
0.0
 20
0.25
 30
0.0
 40
0.01
  1

100
AcDbAttributeDefinition
280
     0
  3
Look-at Y
  2
LAY
 70
     1
280
     0
  0
ATTDEF
  5
59
330
42
100
AcDbEntity
  8
ASHADE
  6
Continuous
 62
     7
100
AcDbText
 10
0.0
 20
0.265
 30
0.0
 40
0.01
  1

100
AcDbAttributeDefinition
280
     0
  3
Look-at X
  2
LAX
 70
     1
280
     0
  0
ATTDEF
  5
5A
330
42
100
AcDbEntity
  8
ASHADE
  6
Continuous
 62
     7
100
AcDbText
 10
0.0
 20
0.28
 30
0.0
 40
0.01
  1

100
AcDbAttributeDefinition
280
     0
  3

  2
GNAME
 70
     1
280
     0
  0
LINE
  5
5B
330
42
100
AcDbEntity
  8
ASHADE
  6
Continuous
 62
     7
100
AcDbLine
 10
0.1096591641591904
 20
0.2792398032442862
 30
0.0
 11
0.1279356915190555
 21
0.3257797704516674
 31
0.0
  0
LINE
  5
5C
330
42
100
AcDbEntity
  8
ASHADE
  6
Continuous
 62
     7
100
AcDbLine
 10
0.2041413561583015
 20
0.2198324514393849
 30
0.0
 11
0.2721884748777353
 21
0.2931099352525131
 31
0.0
  0
ENDBLK
  5
5E
330
42
100
AcDbEntity
  8
0
100
AcDbBlockEnd
  0
BLOCK
  5
85
330
5F
100
AcDbEntity
  8
0
100
AcDbBlockBegin
  2
sh_spot
 70
     2
 10
0.0
 20
0.0
 30
0.0
  3
sh_spot
  1

  0
LINE
  5
60
330
5F
100
AcDbEntity
  8
ASHADE
  6
Continuous
 62
     7
100
AcDbLine
 10
0.25
 20
0.26
 30
0.0
 11
-0.25
 21
0.26
 31
0.0
  0
LINE
  5
61
330
5F
100
AcDbEntity
  8
ASHADE
  6
Continuous
 62
     7
100
AcDbLine
 10
-0.25
 20
-0.3399999999999999
 30
0.0
 11
0.25
 21
-0.3399999999999999
 31
0.0
  0
ATTDEF
  5
62
330
5F
100
AcDbEntity
  8
ASHADE
  6
Continuous
 62
     1
100
AcDbText
 10
0.0
 20
-0.1
 30
0.0
 40
0.2
  1

  7
ASHADE
 72
     1
 11
0.0
 21
-0.1
 31
0.0
100
AcDbAttributeDefinition
280
     0
  3
Light Name
  2
SNAME
 70
     0
280
     0
  0
LINE
  5
63
330
5F
100
AcDbEntity
  8
ASHADE
  6
Continuous
 62
     7
100
AcDbLine
 10
-0.25
 20
-0.13
 30
0.0
 11
-0.25
 21
-0.3399999999999999
 31
0.0
  0
LINE
  5
64
330
5F
100
AcDbEntity
  8
ASHADE
  6
Continuous
 62
     7
100
AcDbLine
 10
-0.25
 20
-0.18
 30
0.0
 11
-0.29
 21
-0.18
 31
0.0
  0
LINE
  5
65
330
5F
100
AcDbEntity
  8
ASHADE
  6
Continuous
 62
     7
100
AcDbLine
 10
-0.29
 20
-0.22
 30
0.0
 11
-0.25
 21
-0.22
 31
0.0
  0
LINE
  5
66
330
5F
100
AcDbEntity
  8
ASHADE
  6
Continuous
 62
     7
100
AcDbLine
 10
-0.29
 20
-0.18
 30
0.0
 11
-0.29
 21
-0.22
 31
0.0
  0
LINE
  5
67
330
5F
100
AcDbEntity
  8
ASHADE
  6
Continuous
 62
     7
100
AcDbLine
 10
-0.1045454545454545
 20
0.26
 30
0.0
 11
-0.15
 21
0.46
 31
0.0
  0
LINE
  5
68
330
5F
100
AcDbEntity
  8
ASHADE
  6
Continuous
 62
     7
100
AcDbLine
 10
-0.21
 20
0.26
 30
0.0
 11
-0.301304347826087
 21
0.46
 31
0.0
  0
LINE
  5
69
330
5F
100
AcDbEntity
  8
ASHADE
  6
Continuous
 62
     7
100
AcDbLine
 10
-0.25
 20
0.26
 30
0.0
 11
-0.25
 21
0.13
 31
0.0
  0
LINE
  5
6A
330
5F
100
AcDbEntity
  8
ASHADE
  6
Continuous
 62
     7
100
AcDbLine
 10
-0.25
 20
0.22
 30
0.0
 11
-0.29
 21
0.22
 31
0.0
  0
LINE
  5
6B
330
5F
100
AcDbEntity
  8
ASHADE
  6
Continuous
 62
     7
100
AcDbLine
 10
-0.29
 20
0.1799999999999999
 30
0.0
 11
-0.25
 21
0.1799999999999999
 31
0.0
  0
LINE
  5
6C
330
5F
100
AcDbEntity
  8
ASHADE
  6
Continuous
 62
     7
100
AcDbLine
 10
-0.29
 20
0.22
 30
0.0
 11
-0.29
 21
0.1799999999999999
 31
0.0
  0
ATTDEF
  5
6D
330
5F
100
AcDbEntity
  8
ASHADE
  6
Continuous
 62
     7
100
AcDbText
 10
0.0
 20
-0.24
 30
0.0
 40
0.01
  1
0
100
AcDbAttributeDefinition
280
     0
  3
Depth Map Size
  2
ZSIZE
 70
     1
280
     0
  0
ATTDEF
  5
6E
330
5F
100
AcDbEntity
  8
ASHADE
  6
Continuous
 62
     7
100
AcDbText
 10
0.0
 20
-0.3300000000000001
 30
0.0
 40
0.01
  1
0,0,0
100
AcDbAttributeDefinition
280
     0
  3
Look-from XYZ
  2
LFXYZ
 70
     1
280
     0
  0
ATTDEF
  5
6F
330
5F
100
AcDbEntity
  8
ASHADE
  6
Continuous
 62
     7
100
AcDbText
 10
0.0
 20
-0.315
 30
0.0
 40
0.01
  1
0.0
100
AcDbAttributeDefinition
280
     0
  3
Beam Distribution
  2
BEAMDI
 70
     1
280
     0
  0
ATTDEF
  5
70
330
5F
100
AcDbEntity
  8
ASHADE
  6
Continuous
 62
     7
100
AcDbText
 10
0.0
 20
-0.3
 30
0.0
 40
0.01
  1
0.0
100
AcDbAttributeDefinition
280
     0
  3
Cone Delta
  2
CONEDE
 70
     1
280
     0
  0
ATTDEF
  5
71
330
5F
100
AcDbEntity
  8
ASHADE
  6
Continuous
 62
     7
100
AcDbText
 10
0.0
 20
-0.2850000000000001
 30
0.0
 40
0.01
  1
10.0
100
AcDbAttributeDefinition
280
     0
  3
Cone Angle
  2
CONEAN
 70
     1
280
     0
  0
ATTDEF
  5
72
330
5F
100
AcDbEntity
  8
ASHADE
  6
Continuous
 62
     7
100
AcDbText
 10
0.0
 20
-0.27
 30
0.0
 40
0.01
  1
-1
100
AcDbAttributeDefinition
280
     0
  3
*not used*
  2
BIASMAX
 70
     1
280
     0
  0
ATTDEF
  5
73
330
5F
100
AcDbEntity
  8
ASHADE
  6
Continuous
 62
     7
100
AcDbText
 10
0.0
 20
-0.255
 30
0.0
 40
0.01
  1
-1
100
AcDbAttributeDefinition
280
     0
  3
*not used*
  2
BIASMIN
 70
     1
280
     0
  0
ATTDEF
  5
74
330
5F
100
AcDbEntity
  8
ASHADE
  6
Continuous
 62
     7
100
AcDbText
 10
0.0
 20
-0.225
 30
0.0
 40
0.01
  1
1,1,1
100
AcDbAttributeDefinition
280
     0
  3
Light Color (RGB)
  2
COLOR
 70
     1
280
     0
  0
ATTDEF
  5
75
330
5F
100
AcDbEntity
  8
ASHADE
  6
Continuous
 62
     7
100
AcDbText
 10
0.0
 20
-0.21
 30
0.0
 40
0.01
  1
1
100
AcDbAttributeDefinition
280
     0
  3
Light Intensity
  2
INTENSITY
 70
     1
280
     0
  0
ATTDEF
  5
76
330
5F
100
AcDbEntity
  8
ASHADE
  6
Continuous
 62
     7
100
AcDbText
 10
0.0
 20
-0.15
 30
0.0
 40
0.01
  1

100
AcDbAttributeDefinition
280
     0
  3

  2
GNAME
 70
     1
280
     0
  0
ATTDEF
  5
77
330
5F
100
AcDbEntity
  8
ASHADE
  6
Continuous
 62
     7
100
AcDbText
 10
0.0
 20
-0.195
 30
0.0
 40
0.01
  1

100
AcDbAttributeDefinition
280
     0
  3
Look-at Z
  2
LAZ
 70
     1
280
     0
  0
ATTDEF
  5
78
330
5F
100
AcDbEntity
  8
ASHADE
  6
Continuous
 62
     7
100
AcDbText
 10
0.0
 20
-0.18
 30
0.0
 40
0.01
  1

100
AcDbAttributeDefinition
280
     0
  3
Look-at Y
  2
LAY
 70
     1
280
     0
  0
ATTDEF
  5
79
330
5F
100
AcDbEntity
  8
ASHADE
  6
Continuous
 62
     7
100
AcDbText
 10
0.0
 20
-0.165
 30
0.0
 40
0.01
  1

100
AcDbAttributeDefinition
280
     0
  3
Look-at X
  2
LAX
 70
     1
280
     0
  0
LINE
  5
7A
330
5F
100
AcDbEntity
  8
ASHADE
  6
Continuous
 62
     7
100
AcDbLine
 10
0.25
 20
-0.3399999999999999
 30
0.0
 11
0.25
 21
-0.13
 31
0.0
  0
LINE
  5
7B
330
5F
100
AcDbEntity
  8
ASHADE
  6
Continuous
 62
     7
100
AcDbLine
 10
0.25
 20
-0.18
 30
0.0
 11
0.29
 21
-0.18
 31
0.0
  0
LINE
  5
7C
330
5F
100
AcDbEntity
  8
ASHADE
  6
Continuous
 62
     7
100
AcDbLine
 10
0.29
 20
-0.22
 30
0.0
 11
0.25
 21
-0.22
 31
0.0
  0
LINE
  5
7D
330
5F
100
AcDbEntity
  8
ASHADE
  6
Continuous
 62
     7
100
AcDbLine
 10
0.29
 20
-0.18
 30
0.0
 11
0.29
 21
-0.22
 31
0.0
  0
LINE
  5
7E
330
5F
100
AcDbEntity
  8
ASHADE
  6
Continuous
 62
     7
100
AcDbLine
 10
0.21
 20
0.26
 30
0.0
 11
0.301304347826087
 21
0.46
 31
0.0
  0
LINE
  5
7F
330
5F
100
AcDbEntity
  8
ASHADE
  6
Continuous
 62
     7
100
AcDbLine
 10
0.1045454545454545
 20
0.26
 30
0.0
 11
0.15
 21
0.46
 31
0.0
  0
LINE
  5
80
330
5F
100
AcDbEntity
  8
ASHADE
  6
Continuous
 62
     7
100
AcDbLine
 10
0.0
 20
0.26
 30
0.0
 11
0.0
 21
0.46
 31
0.0
  0
LINE
  5
81
330
5F
100
AcDbEntity
  8
ASHADE
  6
Continuous
 62
     7
100
AcDbLine
 10
0.25
 20
0.13
 30
0.0
 11
0.25
 21
0.26
 31
0.0
  0
LINE
  5
82
330
5F
100
AcDbEntity
  8
ASHADE
  6
Continuous
 62
     7
100
AcDbLine
 10
0.25
 20
0.22
 30
0.0
 11
0.29
 21
0.22
 31
0.0
  0
LINE
  5
83
330
5F
100
AcDbEntity
  8
ASHADE
  6
Continuous
 62
     7
100
AcDbLine
 10
0.29
 20
0.1799999999999999
 30
0.0
 11
0.25
 21
0.1799999999999999
 31
0.0
  0
LINE
  5
84
330
5F
100
AcDbEntity
  8
ASHADE
  6
Continuous
 62
     7
100
AcDbLine
 10
0.29
 20
0.22
 30
0.0
 11
0.29
 21
0.1799999999999999
 31
0.0
  0
ENDBLK
  5
86
330
5F
100
AcDbEntity
  8
0
100
AcDbBlockEnd
  0
BLOCK
  5
92
330
91
100
AcDbEntity
  8
ASHADE
100
AcDbBlockBegin
  2
AVE_RENDER
 70
     0
 10
0.0
 20
0.0
 30
0.0
  3
AVE_RENDER
  1
AVE_RENDER
  0
ENDBLK
  5
93
330
91
100
AcDbEntity
  8
0
100
AcDbBlockEnd
  0
BLOCK
  5
A0
330
9F
100
AcDbEntity
  8
ASHADE
100
AcDbBlockBegin
  2
AVE_GLOBAL
 70
     0
 10
0.0
 20
0.0
 30
0.0
  3
AVE_GLOBAL
  1
AVE_GLOBAL
  0
ENDBLK
  5
A1
330
9F
100
AcDbEntity
  8
0
100
AcDbBlockEnd
  0
ENDSEC
  0
SECTION
  2
ENTITIES
  0
INSERT
  5
94
330
1F
100
AcDbEntity
  8
ASHADE
 62
     1
100
AcDbBlockReference
  2
AVE_RENDER
 10
0.0
 20
0.0
 30
0.0
1001
AVE_RENDER
1002
{
1070
     7
1000
Pref
1070
    30
1070
    20
1070
     1
1070
     0
1000

1070
    10
1070
     1
1070
    10
1040
1.0
1070
     1
1040
0.3
1040
0.7
1040
0.0
1040
10.0
1010
-1.0
1020
-1.0
1030
-1.0
1040
0.3
1070
    49
1070
     0
1070
     0
1010
1.0
1020
1.0
1030
1.0
1040
45.0
1070
     1
1070
     0
1000
WCS
1040
0.0
1070
     0
1040
10.0
1002
}
  0
INSERT
  5
95
330
1F
100
AcDbEntity
  8
ASHADE
 62
     3
100
AcDbBlockReference
  2
AVE_RENDER
 10
0.0
 20
0.0
 30
0.0
1001
AVE_RENDER
1002
{
1070
     0
1000
Full Opt
1070
     0
1070
     1
1070
     1
1070
     1
1070
     0
1070
     0
1070
     0
1070
     1
1070
     1
1040
0.0001
1040
0.0001
1002
}
  0
INSERT
  5
96
330
1F
100
AcDbEntity
  8
ASHADE
 62
     4
100
AcDbBlockReference
  2
AVE_RENDER
 10
0.0
 20
0.0
 30
0.0
1001
AVE_RENDER
1002
{
1070
     0
1000
Quick Opt
1070
     0
1070
     1
1070
     1
1070
     1
1070
     0
1070
     0
1070
     1
1002
}
  0
INSERT
  5
97
330
1F
100
AcDbEntity
  8
ASHADE
 62
     5
100
AcDbBlockReference
  2
AVE_RENDER
 10
0.0
 20
0.0
 30
0.0
1001
AVE_RENDER
1002
{
1070
     1
1000
Scanl Opt
1070
     2
1070
     0
1070
     2
1040
2.0
1040
4.0
1070
     0
1070
     1
1070
     0
1040
0.03
1002
}
  0
INSERT
  5
98
330
1F
100
AcDbEntity
  8
ASHADE
 62
     6
100
AcDbBlockReference
  2
AVE_RENDER
 10
0.0
 20
0.0
 30
0.0
1001
AVE_RENDER
1002
{
1070
     2
1000
Raytr Opt
1070
     2
1070
     0
1070
     2
1040
2.0
1040
4.0
1070
     0
1070
     1
1070
     1
1040
0.03
1070
     3
1040
0.03
1002
}
  0
INSERT
  5
99
330
1F
100
AcDbEntity
  8
ASHADE
 62
     7
100
AcDbBlockReference
  2
AVE_RENDER
 10
0.0
 20
0.0
 30
0.0
1001
AVE_RENDER
1002
{
1070
     0
1000
RFile Opt
1070
     1
1070
   640
1070
   480
1070
 10000
1070
     1
1070
     8
1070
     8
1070
     0
1070
     0
1070
     0
1070
     0
1070
     0
1070
     0
1070
     0
1002
}
  0
INSERT
  5
9A
330
1F
100
AcDbEntity
  8
ASHADE
 62
     8
100
AcDbBlockReference
  2
AVE_RENDER
 10
0.0
 20
0.0
 30
0.0
1001
AVE_RENDER
1002
{
1070
     0
1000
Fog Opt
1070
     0
1070
     0
1040
0.0
1040
1.0
1040
0.0
1040
1.0
1010
0.5
1020
0.5
1030
0.5
1002
}
  0
INSERT
  5
9B
330
1F
100
AcDbEntity
  8
ASHADE
 62
     9
100
AcDbBlockReference
  2
AVE_RENDER
 10
0.0
 20
0.0
 30
0.0
1001
AVE_RENDER
1002
{
1070
     0
1000
BG Opt
1070
     0
1070
     1
1010
0.0
1020
0.0
1030
0.0
1010
1.0
1020
0.0
1030
0.0
1010
0.0
1020
1.0
1030
0.0
1010
0.0
1020
0.0
1030
1.0
1040
0.5
1040
0.33
1040
0.0
1000

1070
     1
1000

1070
     1
1070
     1
1040
1.0
1040
1.0
1040
0.0
1040
0.0
1070
     0
1002
}
  0
INSERT
  5
A2
330
1F
100
AcDbEntity
  8
ASHADE
 62
     1
100
AcDbBlockReference
  2
AVE_GLOBAL
 10
0.0
 20
0.0
 30
0.0
1001
AVE_MATERIAL
1002
{
1000
*GLOBAL*
1000
2
1000
Global finish.
1002
{
1002
}
1002
{
1070
    63
1002
{
1002
{
1010
-1.0
1020
-1.0
1030
-1.0
1002
}
1040
0.1000000014901161
1000

1040
0.0
1002
{
1002
}
1040
0.0
1002
{
1002
}
1040
0.0
1002
}
1002
{
1002
{
1010
-1.0
1020
-1.0
1030
-1.0
1002
}
1040
0.6999999880790711
1000

1040
0.0
1002
{
1002
}
1040
0.0
1002
{
1002
}
1040
0.0
1002
}
1002
{
1002
{
1010
-1.0
1020
-1.0
1030
-1.0
1002
}
1040
0.2000000029802322
1000

1040
0.0
1002
{
1002
}
1040
0.0
1002
{
1002
}
1040
0.0
1002
}
1002
{
1070
     0
1002
{
1070
     1
1002
{
1040
1.0
1040
1.0
1000

1040
0.0
1002
{
1002
}
1040
0.0
1002
{
1002
}
1040
0.0
1002
}
1002
}
1040
1.0
1040
0.0
1040
0.0
1002
}
1002
{
1040
1.0
1040
1.0
1000

1040
0.0
1002
{
1002
}
1040
0.0
1002
{
1002
}
1040
0.0
1002
}
1002
{
1040
0.5
1040
1.0
1000

1040
0.0
1002
{
1002
}
1040
0.0
1002
{
1002
}
1040
0.0
1002
}
1002
{
1070
     0
1040
0.0
1002
{
1002
}
1040
1.0
1002
{
1002
}
1040
0.0
1002
}
1002
{
1040
0.0
1002
{
1002
{
1010
0.0
1020
0.0
1030
0.0
1002
}
1040
1.0
1000

1040
0.0
1002
{
1002
}
1040
0.0
1002
{
1002
}
1040
0.0
1002
}
1002
}
1002
{
1002
{
1070
     1
1002
{
1040
0.0
1040
1.0
1000

1040
0.0
1002
{
1002
}
1040
0.0
1002
{
1002
}
1040
0.0
1002
}
1002
}
1040
0.0
1002
{
1002
}
1010
1.0
1020
0.0
1030
0.0
1010
0.0
1020
1.0
1030
0.0
1010
0.0
1020
0.0
1030
1.0
1070
     0
1002
}
1002
{
1002
{
1040
1.0
1040
1.0
1002
{
1070
     1
1002
{
1040
1.0
1040
1.0
1000

1040
0.0
1002
{
1002
}
1040
0.0
1002
{
1002
}
1040
0.0
1002
}
1002
}
1002
}
1070
     0
1040
0.0
1002
{
1002
}
1002
}
1002
{
1002
}
1002
}
1002
{
1071
        3
1070
     3
1070
     0
1002
{
1070
     2
1070
     0
1070
     0
1040
0.0
1002
}
1070
     0
1070
     2
1002
{
1002
}
1002
}
1002
{
1040
8030.0
1040
190.3000030517578
1040
0.3050000071525574
1040
228.0
1040
545.0
1040
14.0
1040
17.39999961853027
1040
0.4560000002384186
1002
}
1002
}
  0
POLYLINE
  5
F9
330
1F
100
AcDbEntity
  8
OracDecor_indirect_lighting
 62
    24
420
 11541018
100
AcDb2dPolyline
 66
     1
 10
0.0
 20
0.0
 30
0.0000307365226035
 70
     1
210
-0.9999999999999769
220
0.0000001788139343
230
-0.0000001192092896
  0
VERTEX
  5
FA
330
F9
100
AcDbEntity
  8
OracDecor_indirect_lighting
 62
    24
420
 11541018
100
AcDbVertex
100
AcDb2dVertex
 10
-18.00001144409179
 20
-279.5
 30
0.0000307365226035
  0
VERTEX
  5
FB
330
F9
100
AcDbEntity
  8
OracDecor_indirect_lighting
 62
    24
420
 11541018
100
AcDbVertex
100
AcDb2dVertex
 10
-18.00001144409179
 20
-200.0
 30
0.0000307365226035
  0
VERTEX
  5
FC
330
F9
100
AcDbEntity
  8
OracDecor_indirect_lighting
 62
    24
420
 11541018
100
AcDbVertex
100
AcDb2dVertex
 10
-29.28700447082519
 20
-187.0528106689453
 30
0.0000307365226035
  0
VERTEX
  5
FD
330
F9
100
AcDbEntity
  8
OracDecor_indirect_lighting
 62
    24
420
 11541018
100
AcDbVertex
100
AcDb2dVertex
 10
-36.64847946166992
 20
-177.4092712402343
 30
0.0000307365226035
  0
VERTEX
  5
FE
330
F9
100
AcDbEntity
  8
OracDecor_indirect_lighting
 62
    24
420
 11541018
100
AcDbVertex
100
AcDb2dVertex
 10
-42.79488372802734
 20
-168.1694641113281
 30
0.0000307365226035
  0
VERTEX
  5
FF
330
F9
100
AcDbEntity
  8
OracDecor_indirect_lighting
 62
    24
420
 11541018
100
AcDbVertex
100
AcDb2dVertex
 10
-48.84404754638672
 20
-157.6529693603515
 30
0.0000307365226035
  0
VERTEX
  5
100
330
F9
100
AcDbEntity
  8
OracDecor_indirect_lighting
 62
    24
420
 11541018
100
AcDbVertex
100
AcDb2dVertex
 10
-53.74073791503906
 20
-147.6943206787109
 30
0.0000307365226035
  0
VERTEX
  5
101
330
F9
100
AcDbEntity
  8
OracDecor_indirect_lighting
 62
    24
420
 11541018
100
AcDbVertex
100
AcDb2dVertex
 10
-58.37549591064453
 20
-136.4823455810547
 30
0.0000307365226035
  0
VERTEX
  5
102
330
F9
100
AcDbEntity
  8
OracDecor_indirect_lighting
 62
    24
420
 11541018
100
AcDbVertex
100
AcDb2dVertex
 10
-61.93982315063476
 20
-125.9729309082031
 30
0.0000307365226035
  0
VERTEX
  5
103
330
F9
100
AcDbEntity
  8
OracDecor_indirect_lighting
 62
    24
420
 11541018
100
AcDbVertex
100
AcDb2dVertex
 10
-65.08195495605469
 20
-114.2547378540039
 30
0.0000307365226035
  0
VERTEX
  5
104
330
F9
100
AcDbEntity
  8
OracDecor_indirect_lighting
 62
    24
420
 11541018
100
AcDbVertex
100
AcDb2dVertex
 10
-67.25376892089844
 20
-103.3719253540039
 30
0.0000307365226035
  0
VERTEX
  5
105
330
F9
100
AcDbEntity
  8
OracDecor_indirect_lighting
 62
    24
420
 11541018
100
AcDbVertex
100
AcDb2dVertex
 10
-68.85023498535156
 20
-91.34526824951171
 30
0.0000307365226035
  0
VERTEX
  5
106
330
F9
100
AcDbEntity
  8
OracDecor_indirect_lighting
 62
    24
420
 11541018
100
AcDbVertex
100
AcDb2dVertex
 10
-69.59287261962891
 20
-80.27274322509766
 30
0.0000307365226035
  0
VERTEX
  5
107
330
F9
100
AcDbEntity
  8
OracDecor_indirect_lighting
 62
    24
420
 11541018
100
AcDbVertex
100
AcDb2dVertex
 10
-69.61673736572265
 20
-68.14061737060547
 30
0.0000307365226035
  0
VERTEX
  5
108
330
F9
100
AcDbEntity
  8
OracDecor_indirect_lighting
 62
    24
420
 11541018
100
AcDbVertex
100
AcDb2dVertex
 10
-68.91765594482421
 20
-57.06523513793945
 30
0.0000307365226035
  0
VERTEX
  5
109
330
F9
100
AcDbEntity
  8
OracDecor_indirect_lighting
 62
    24
420
 11541018
100
AcDbVertex
100
AcDb2dVertex
 10
-67.3685073852539
 20
-45.03239822387695
 30
0.0000307365226035
  0
VERTEX
  5
10A
330
F9
100
AcDbEntity
  8
OracDecor_indirect_lighting
 62
    24
420
 11541018
100
AcDbVertex
100
AcDb2dVertex
 10
-65.23953247070313
 20
-34.14114761352539
 30
0.0000307365226035
  0
VERTEX
  5
10B
330
F9
100
AcDbEntity
  8
OracDecor_indirect_lighting
 62
    24
420
 11541018
100
AcDbVertex
100
AcDb2dVertex
 10
-62.14351654052734
 20
-22.41067886352539
 30
0.0000307365226035
  0
VERTEX
  5
10C
330
F9
100
AcDbEntity
  8
OracDecor_indirect_lighting
 62
    24
420
 11541018
100
AcDbVertex
100
AcDb2dVertex
 10
-56.69075775146485
 20
-6.122836589813232
 30
0.0000307365226035
  0
VERTEX
  5
10D
330
F9
100
AcDbEntity
  8
OracDecor_indirect_lighting
 62
    24
420
 11541018
100
AcDbVertex
100
AcDb2dVertex
 10
-55.72662734985351
 20
-4.405154705047607
 30
0.0000307365226035
  0
VERTEX
  5
10E
330
F9
100
AcDbEntity
  8
OracDecor_indirect_lighting
 62
    24
420
 11541018
100
AcDbVertex
100
AcDb2dVertex
 10
-54.37215423583984
 20
-2.975253582000732
 30
0.0000307365226035
  0
VERTEX
  5
10F
330
F9
100
AcDbEntity
  8
OracDecor_indirect_lighting
 62
    24
420
 11541018
100
AcDbVertex
100
AcDb2dVertex
 10
-52.70937347412109
 20
-1.919619798660278
 30
0.0000307365226035
  0
VERTEX
  5
110
330
F9
100
AcDbEntity
  8
OracDecor_indirect_lighting
 62
    24
420
 11541018
100
AcDbVertex
100
AcDb2dVertex
 10
-50.83888626098633
 20
-1.302157521247863
 30
0.0000307365226035
  0
VERTEX
  5
111
330
F9
100
AcDbEntity
  8
OracDecor_indirect_lighting
 62
    24
420
 11541018
100
AcDbVertex
100
AcDb2dVertex
 10
-44.260009765625
 20
-0.0000026381023872
 30
0.0000307365226035
  0
VERTEX
  5
112
330
F9
100
AcDbEntity
  8
OracDecor_indirect_lighting
 62
    24
420
 11541018
100
AcDbVertex
100
AcDb2dVertex
 10
-44.260009765625
 20
-5.006991386413574
 30
0.0000307365226035
  0
VERTEX
  5
113
330
F9
100
AcDbEntity
  8
OracDecor_indirect_lighting
 62
    24
420
 11541018
100
AcDbVertex
100
AcDb2dVertex
 10
-50.8981819152832
 20
-22.26819229125977
 30
0.0000307365226035
  0
VERTEX
  5
114
330
F9
100
AcDbEntity
  8
OracDecor_indirect_lighting
 62
    24
420
 11541018
100
AcDbVertex
100
AcDb2dVertex
 10
-55.59901809692383
 20
-40.1539192199707
 30
0.0000307365226035
  0
VERTEX
  5
115
330
F9
100
AcDbEntity
  8
OracDecor_indirect_lighting
 62
    24
420
 11541018
100
AcDbVertex
100
AcDb2dVertex
 10
-58.30579376220703
 20
-58.44836807250977
 30
0.0000307365226035
  0
VERTEX
  5
116
330
F9
100
AcDbEntity
  8
OracDecor_indirect_lighting
 62
    24
420
 11541018
100
AcDbVertex
100
AcDb2dVertex
 10
-58.18686294555664
 20
-60.08171463012695
 30
0.0000307365226035
  0
VERTEX
  5
117
330
F9
100
AcDbEntity
  8
OracDecor_indirect_lighting
 62
    24
420
 11541018
100
AcDbVertex
100
AcDb2dVertex
 10
-57.54648971557617
 20
-61.58913040161133
 30
0.0000307365226035
  0
VERTEX
  5
118
330
F9
100
AcDbEntity
  8
OracDecor_indirect_lighting
 62
    24
420
 11541018
100
AcDbVertex
100
AcDb2dVertex
 10
-56.45333862304688
 20
-62.80878067016601
 30
0.0000307365226035
  0
VERTEX
  5
119
330
F9
100
AcDbEntity
  8
OracDecor_indirect_lighting
 62
    24
420
 11541018
100
AcDbVertex
100
AcDb2dVertex
 10
-55.02475357055664
 20
-63.60974502563476
 30
0.0000307365226035
  0
VERTEX
  5
11A
330
F9
100
AcDbEntity
  8
OracDecor_indirect_lighting
 62
    24
420
 11541018
100
AcDbVertex
100
AcDb2dVertex
 10
-53.41411972045898
 20
-63.90610122680664
 30
0.0000307365226035
  0
VERTEX
  5
11B
330
F9
100
AcDbEntity
  8
OracDecor_indirect_lighting
 62
    24
420
 11541018
100
AcDbVertex
100
AcDb2dVertex
 10
-0.0000122227684187
 20
-64.83843994140625
 30
0.0000307365226035
  0
VERTEX
  5
11C
330
F9
100
AcDbEntity
  8
OracDecor_indirect_lighting
 62
    24
420
 11541018
100
AcDbVertex
100
AcDb2dVertex
 10
-0.0000122227684187
 20
-76.83843994140625
 30
0.0000307365226035
  0
VERTEX
  5
11D
330
F9
100
AcDbEntity
  8
OracDecor_indirect_lighting
 62
    24
420
 11541018
100
AcDbVertex
100
AcDb2dVertex
 10
-53.8565902709961
 20
-77.77850341796875
 30
0.0000307365226035
  0
VERTEX
  5
11E
330
F9
100
AcDbEntity
  8
OracDecor_indirect_lighting
 62
    24
420
 11541018
100
AcDbVertex
100
AcDb2dVertex
 10
-55.43231964111328
 20
-78.06240844726563
 30
0.0000307365226035
  0
VERTEX
  5
11F
330
F9
100
AcDbEntity
  8
OracDecor_indirect_lighting
 62
    24
420
 11541018
100
AcDbVertex
100
AcDb2dVertex
 10
-56.83761596679687
 20
-78.82989501953125
 30
0.0000307365226035
  0
VERTEX
  5
120
330
F9
100
AcDbEntity
  8
OracDecor_indirect_lighting
 62
    24
420
 11541018
100
AcDbVertex
100
AcDb2dVertex
 10
-57.92826461791992
 20
-80.00230407714843
 30
0.0000307365226035
  0
VERTEX
  5
121
330
F9
100
AcDbEntity
  8
OracDecor_indirect_lighting
 62
    24
420
 11541018
100
AcDbVertex
100
AcDb2dVertex
 10
-58.59236526489258
 20
-81.45930480957032
 30
0.0000307365226035
  0
VERTEX
  5
122
330
F9
100
AcDbEntity
  8
OracDecor_indirect_lighting
 62
    24
420
 11541018
100
AcDbVertex
100
AcDb2dVertex
 10
-58.76183319091797
 20
-83.05140686035157
 30
0.0000307365226035
  0
VERTEX
  5
123
330
F9
100
AcDbEntity
  8
OracDecor_indirect_lighting
 62
    24
420
 11541018
100
AcDbVertex
100
AcDb2dVertex
 10
-55.71701812744141
 20
-106.9752655029297
 30
0.0000307365226035
  0
VERTEX
  5
124
330
F9
100
AcDbEntity
  8
OracDecor_indirect_lighting
 62
    24
420
 11541018
100
AcDbVertex
100
AcDb2dVertex
 10
-49.27834701538086
 20
-130.2171325683594
 30
0.0000307365226035
  0
VERTEX
  5
125
330
F9
100
AcDbEntity
  8
OracDecor_indirect_lighting
 62
    24
420
 11541018
100
AcDbVertex
100
AcDb2dVertex
 10
-39.57880401611328
 20
-152.297119140625
 30
0.0000307365226035
  0
VERTEX
  5
126
330
F9
100
AcDbEntity
  8
OracDecor_indirect_lighting
 62
    24
420
 11541018
100
AcDbVertex
100
AcDb2dVertex
 10
-26.81767272949219
 20
-172.7615966796875
 30
0.0000307365226035
  0
VERTEX
  5
127
330
F9
100
AcDbEntity
  8
OracDecor_indirect_lighting
 62
    24
420
 11541018
100
AcDbVertex
100
AcDb2dVertex
 10
-11.25841522216797
 20
-191.1879730224609
 30
0.0000307365226035
  0
VERTEX
  5
128
330
F9
100
AcDbEntity
  8
OracDecor_indirect_lighting
 62
    24
420
 11541018
100
AcDbVertex
100
AcDb2dVertex
 10
-8.943459510803222
 20
-194.2699584960937
 30
0.0000307365226035
  0
VERTEX
  5
129
330
F9
100
AcDbEntity
  8
OracDecor_indirect_lighting
 62
    24
420
 11541018
100
AcDbVertex
100
AcDb2dVertex
 10
-7.490275382995605
 20
-197.8403625488281
 30
0.0000307365226035
  0
VERTEX
  5
12A
330
F9
100
AcDbEntity
  8
OracDecor_indirect_lighting
 62
    24
420
 11541018
100
AcDbVertex
100
AcDb2dVertex
 10
-6.995012283325195
 20
-201.6629638671875
 30
0.0000307365226035
  0
VERTEX
  5
12B
330
F9
100
AcDbEntity
  8
OracDecor_indirect_lighting
 62
    24
420
 11541018
100
AcDbVertex
100
AcDb2dVertex
 10
-6.995012283325195
 20
-241.9540710449219
 30
0.0000307365226035
  0
VERTEX
  5
12C
330
F9
100
AcDbEntity
  8
OracDecor_indirect_lighting
 62
    24
420
 11541018
100
AcDbVertex
100
AcDb2dVertex
 10
-6.680814266204833
 20
-245.0080871582031
 30
0.0000307365226035
  0
VERTEX
  5
12D
330
F9
100
AcDbEntity
  8
OracDecor_indirect_lighting
 62
    24
420
 11541018
100
AcDbVertex
100
AcDb2dVertex
 10
-5.751474380493164
 20
-247.9339904785156
 30
0.0000307365226035
  0
VERTEX
  5
12E
330
F9
100
AcDbEntity
  8
OracDecor_indirect_lighting
 62
    24
420
 11541018
100
AcDbVertex
100
AcDb2dVertex
 10
-4.245925426483154
 20
-250.6094207763672
 30
0.0000307365226035
  0
VERTEX
  5
12F
330
F9
100
AcDbEntity
  8
OracDecor_indirect_lighting
 62
    24
420
 11541018
100
AcDbVertex
100
AcDb2dVertex
 10
-2.227081060409545
 20
-252.9224243164062
 30
0.0000307365226035
  0
VERTEX
  5
130
330
F9
100
AcDbEntity
  8
OracDecor_indirect_lighting
 62
    24
420
 11541018
100
AcDbVertex
100
AcDb2dVertex
 10
-0.0000122227702377
 20
-255.0
 30
0.0000307365226035
  0
VERTEX
  5
131
330
F9
100
AcDbEntity
  8
OracDecor_indirect_lighting
 62
    24
420
 11541018
100
AcDbVertex
100
AcDb2dVertex
 10
-0.0000122227702377
 20
-266.4661254882812
 30
0.0000307365226035
  0
VERTEX
  5
132
330
F9
100
AcDbEntity
  8
OracDecor_indirect_lighting
 62
    24
420
 11541018
100
AcDbVertex
100
AcDb2dVertex
 10
-0.7352471947669983
 20
-266.890380859375
 30
0.0000307365226035
  0
VERTEX
  5
133
330
F9
100
AcDbEntity
  8
OracDecor_indirect_lighting
 62
    24
420
 11541018
100
AcDbVertex
100
AcDb2dVertex
 10
-1.152801275253295
 20
-267.4866943359375
 30
0.0000307365226035
  0
VERTEX
  5
134
330
F9
100
AcDbEntity
  8
OracDecor_indirect_lighting
 62
    24
420
 11541018
100
AcDbVertex
100
AcDb2dVertex
 10
-1.300012230873107
 20
-268.1996459960938
 30
0.0000307365226035
  0
VERTEX
  5
135
330
F9
100
AcDbEntity
  8
OracDecor_indirect_lighting
 62
    24
420
 11541018
100
AcDbVertex
100
AcDb2dVertex
 10
-1.152801275253295
 20
-268.91259765625
 30
0.0000307365226035
  0
VERTEX
  5
136
330
F9
100
AcDbEntity
  8
OracDecor_indirect_lighting
 62
    24
420
 11541018
100
AcDbVertex
100
AcDb2dVertex
 10
-0.7352471947669983
 20
-269.5089416503906
 30
0.0000307365226035
  0
VERTEX
  5
137
330
F9
100
AcDbEntity
  8
OracDecor_indirect_lighting
 62
    24
420
 11541018
100
AcDbVertex
100
AcDb2dVertex
 10
-0.0000122227702377
 20
-269.9331970214844
 30
0.0000307365226035
  0
VERTEX
  5
138
330
F9
100
AcDbEntity
  8
OracDecor_indirect_lighting
 62
    24
420
 11541018
100
AcDbVertex
100
AcDb2dVertex
 10
-0.0000122227702377
 20
-280.0
 30
0.0000307365226035
  0
VERTEX
  5
139
330
F9
100
AcDbEntity
  8
OracDecor_indirect_lighting
 62
    24
420
 11541018
100
AcDbVertex
100
AcDb2dVertex
 10
-17.5000114440918
 20
-280.0
 30
0.0000307365226035
  0
VERTEX
  5
13A
330
F9
100
AcDbEntity
  8
OracDecor_indirect_lighting
 62
    24
420
 11541018
100
AcDbVertex
100
AcDb2dVertex
 10
-17.7500114440918
 20
-279.9330139160156
 30
0.0000307365226035
  0
VERTEX
  5
13B
330
F9
100
AcDbEntity
  8
OracDecor_indirect_lighting
 62
    24
420
 11541018
100
AcDbVertex
100
AcDb2dVertex
 10
-17.93302536010742
 20
-279.75
 30
0.0000307365226035
  0
SEQEND
  5
13C
330
F9
100
AcDbEntity
  8
OracDecor_indirect_lighting
 62
    24
420
 11541018
  0
MESH
  5
13D
330
1F
100
AcDbEntity
  8
OracDecor_indirect_lighting
 62
   151
420
 10140133
160
             19880
310
A84D0000280200000C00000013000000020000003C0000000600000002000000000000E0FF3F8F40000000E05F6B49C000000000A0D5F4BF000000E0FF3F8F4000000040472146C000000000000000000C000000130000000A0000003C00000006000000020000000000000000408FC000000040472146C000000000000000
310
00000000E0FF3F8F4000000040472146C000000000000000000C00000013000000120000003C00000006000000020000000000000000408FC0000000E05F6B49C000000000A0D5F4BF0000000000408FC000000040472146C000000000000000000C000000130000001A0000003C0000000600000002000000000000000040
310
8FC0000000E05F6B49C000000000A0D5F4BF000000E0FF3F8F40000000E05F6B49C000000000A0D5F4BF0C00000013000000220000003C0000000600000002000000000000E0FF3F8F4000000040472146C000000000280714C0000000E0FF3F8F4000000040472146C000000000000000000C000000130000002A0000003C
310
0000000600000002000000000000E0FF3F8F4000000040472146C000000000280714C00000000000408FC000000040472146C000000000280714C00C00000013000000320000003C00000006000000020000000000000000408FC000000040472146C000000000000000000000000000408FC000000040472146C000000000
310
280714C00C000000130000003A0000003C0000000600000002000000000000E0FF3F8F40000000E0F67249C000000000A84436C0000000E0FF3F8F4000000040472146C000000000280714C00C00000013000000420000003C0000000600000002000000000000E0FF3F8F40000000E0F67249C000000000A84436C0000000
310
0000408FC0000000E0F67249C000000000A84436C00C000000130000004A0000003C00000006000000020000000000000000408FC000000040472146C000000000280714C00000000000408FC0000000E0F67249C000000000A84436C00C00000013000000520000003C0000000600000002000000000000E0FF3F8F400000
310
00E0ABCC4BC000000080B31344C0000000E0FF3F8F40000000E0F67249C000000000A84436C00C000000130000005A0000003C00000006000000020000000000000000408FC0000000E0ABCC4BC000000080B31344C0000000E0FF3F8F40000000E0ABCC4BC000000080B31344C00C00000013000000620000003C00000006
310
000000020000000000000000408FC0000000E0ABCC4BC000000080B31344C00000000000408FC0000000E0F67249C000000000A84436C00C000000130000006A0000003C0000000600000002000000000000E0FF3F8F400000008023274DC00000000064394DC0000000E0FF3F8F40000000E0ABCC4BC000000080B31344C0
310
0C00000013000000720000003C00000006000000020000000000000000408FC00000008023274DC00000000064394DC0000000E0FF3F8F400000008023274DC00000000064394DC00C000000130000007A0000003C00000006000000020000000000000000408FC0000000E0ABCC4BC000000080B31344C00000000000408F
310
C00000008023274DC00000000064394DC00C00000013000000820000003C0000000600000002000000000000E0FF3F8F4000000060EA174DC000000080750A4EC0000000E0FF3F8F400000008023274DC00000000064394DC00C000000130000008A0000003C0000000600000002000000000000E0FF3F8F4000000060EA17
310
4DC000000080750A4EC00000000000408FC000000060EA174DC000000080750A4EC00C00000013000000920000003C00000006000000020000000000000000408FC00000008023274DC00000000064394DC00000000000408FC000000060EA174DC000000080750A4EC00C000000130000009A0000003C0000000600000002
310
000000000000E0FF3F8F40000000A0F2C54CC00000008068CB4EC0000000E0FF3F8F4000000060EA174DC000000080750A4EC00C00000013000000A20000003C00000006000000020000000000000000408FC0000000A0F2C54CC00000008068CB4EC0000000E0FF3F8F40000000A0F2C54CC00000008068CB4EC00C000000
310
13000000AA0000003C00000006000000020000000000000000408FC0000000A0F2C54CC00000008068CB4EC00000000000408FC000000060EA174DC000000080750A4EC00C00000013000000B20000003C0000000600000002000000000000E0FF3F8F4000000040063A4CC00000000086674FC0000000E0FF3F8F40000000
310
A0F2C54CC00000008068CB4EC00C00000013000000BA0000003C00000006000000020000000000000000408FC000000040063A4CC00000000086674FC0000000E0FF3F8F4000000040063A4CC00000000086674FC00C00000013000000C20000003C00000006000000020000000000000000408FC0000000A0F2C54CC00000
310
008068CB4EC00000000000408FC000000040063A4CC00000000086674FC00C00000013000000CA0000003C0000000600000002000000000000E0FF3F8F40000000602A834BC0000000000CCE4FC0000000E0FF3F8F4000000040063A4CC00000000086674FC00C00000013000000D20000003C000000060000000200000000
310
0000E0FF3F8F40000000602A834BC0000000000CCE4FC00000000000408FC0000000602A834BC0000000000CCE4FC00C00000013000000DA0000003C00000006000000020000000000000000408FC000000040063A4CC00000000086674FC00000000000408FC0000000602A834BC0000000000CCE4FC00C00000013000000
310
E20000003C0000000600000002000000000000E0FF3F8F40000000602A834BC0000000000CCE4FC0000000E0FF3F8F400000002001B54AC000000000FBF34FC00C00000013000000EA0000003C0000000600000002000000000000E0FF3F8F400000002001B54AC000000000FBF34FC00000000000408FC00000002001B54A
310
C000000000FBF34FC00C00000013000000F20000003C00000006000000020000000000000000408FC00000002001B54AC000000000FBF34FC00000000000408FC0000000602A834BC0000000000CCE4FC00C00000013000000FA0000003C0000000600000002000000000000E0FF3F8F400000002001B54AC000000000FBF3
310
4FC0000000E0FF3F8F40000000600CA2E93E00000000A93550C00C00000013000000020100003C00000006000000020000000000000000408FC0000000600CA2E93E00000000A93550C0000000E0FF3F8F40000000600CA2E93E00000000A93550C00C000000130000000A0100003C00000006000000020000000000000000
310
408FC0000000600CA2E93E00000000A93550C00000000000408FC00000002001B54AC000000000FBF34FC00C00000013000000120100003C0000000600000002000000000000E0FF3F8F40000000600CA2E93E00000000A93550C0000000E0FF3F8F40000000600CA2E93E00000000A93553C00C000000130000001A010000
310
3C00000006000000020000000000000000408FC0000000600CA2E93E00000000A93553C0000000E0FF3F8F40000000600CA2E93E00000000A93553C00C00000013000000220100003C00000006000000020000000000000000408FC0000000600CA2E93E00000000A93550C00000000000408FC0000000600CA2E93E000000
310
00A93553C00C000000130000002A0100003C0000000600000002000000000000E0FF3F8F40000000600CA2E93E00000000A93553C0000000E0FF3F8F4000000000A4ED4AC000000000D37153C00C00000013000000320100003C0000000600000002000000000000E0FF3F8F4000000000A4ED4AC000000000D37153C00000
310
000000408FC000000000A4ED4AC000000000D37153C00C000000130000003A0100003C00000006000000020000000000000000408FC0000000600CA2E93E00000000A93553C00000000000408FC000000000A4ED4AC000000000D37153C00C00000013000000420100003C0000000600000002000000000000E0FF3F8F4000
310
000000A4ED4AC000000000D37153C0000000E0FF3F8F400000008055B74BC000000080FE8353C00C000000130000004A0100003C0000000600000002000000000000E0FF3F8F400000008055B74BC000000080FE8353C00000000000408FC00000008055B74BC000000080FE8353C00C00000013000000520100003C000000
310
06000000020000000000000000408FC000000000A4ED4AC000000000D37153C00000000000408FC00000008055B74BC000000080FE8353C00C000000130000005A0100003C0000000600000002000000000000E0FF3F8F400000008055B74BC000000080FE8353C0000000E0FF3F8F4000000040366B4CC0000000001DB553
310
C00C00000013000000620100003C00000006000000020000000000000000408FC000000040366B4CC0000000001DB553C0000000E0FF3F8F4000000040366B4CC0000000001DB553C00C000000130000006A0100003C00000006000000020000000000000000408FC000000040366B4CC0000000001DB553C0000000000040
310
8FC00000008055B74BC000000080FE8353C00C00000013000000720100003C0000000600000002000000000000E0FF3F8F4000000040366B4CC0000000001DB553C0000000E0FF3F8F40000000A0D0F64CC0000000C0250054C00C000000130000007A0100003C0000000600000002000000000000E0FF3F8F40000000A0D0
310
F64CC0000000C0250054C00000000000408FC0000000A0D0F64CC0000000C0250054C00C00000013000000820100003C00000006000000020000000000000000408FC000000040366B4CC0000000001DB553C00000000000408FC0000000A0D0F64CC0000000C0250054C00C000000130000008A0100003C00000006000000
310
02000000000000E0FF3F8F40000000A0D0F64CC0000000C0250054C0000000E0FF3F8F40000000E0D14B4DC000000040655D54C00C00000013000000920100003C00000006000000020000000000000000408FC0000000E0D14B4DC000000040655D54C0000000E0FF3F8F40000000E0D14B4DC000000040655D54C00C0000
310
00130000009A0100003C00000006000000020000000000000000408FC0000000E0D14B4DC000000040655D54C00000000000408FC0000000A0D0F64CC0000000C0250054C00C00000013000000A20100003C0000000600000002000000000000E0FF3F8F40000000E0D14B4DC000000040655D54C0000000E0FF3F8F400000
310
000083614DC0000000404AC354C00C00000013000000AA0100003C00000006000000020000000000000000408FC00000000083614DC0000000404AC354C0000000E0FF3F8F400000000083614DC0000000404AC354C00C00000013000000B20100003C00000006000000020000000000000000408FC00000000083614DC000
310
0000404AC354C00000000000408FC0000000E0D14B4DC000000040655D54C00C00000013000000BA0100003C0000000600000002000000000000E0FF3F8F400000000083614DC0000000404AC354C0000000E0FF3F8F4000000080C6DB4BC0000000C06ABE5AC00C00000013000000C20100003C0000000600000002000000
310
0000000000408FC000000080C6DB4BC0000000C06ABE5AC0000000E0FF3F8F4000000080C6DB4BC0000000C06ABE5AC00C00000013000000CA0100003C00000006000000020000000000000000408FC00000000083614DC0000000404AC354C00000000000408FC000000080C6DB4BC0000000C06ABE5AC00C000000130000
310
00D20100003C0000000600000002000000000000E0FF3F8F4000000080C6DB4BC0000000C06ABE5AC0000000E0FF3F8F4000000020A0A348C0000000C0F24660C00C00000013000000DA0100003C00000006000000020000000000000000408FC000000020A0A348C0000000C0F24660C0000000E0FF3F8F4000000020A0A3
310
48C0000000C0F24660C00C00000013000000E20100003C00000006000000020000000000000000408FC000000080C6DB4BC0000000C06ABE5AC00000000000408FC000000020A0A348C0000000C0F24660C00C00000013000000EA0100003C0000000600000002000000000000E0FF3F8F4000000020A0A348C0000000C0F2
310
4660C0000000E0FF3F8F400000008015CA43C000000000820963C00C00000013000000F20100003C00000006000000020000000000000000408FC00000008015CA43C000000000820963C0000000E0FF3F8F400000008015CA43C000000000820963C00C00000013000000FA0100003C000000060000000200000000000000
310
00408FC000000020A0A348C0000000C0F24660C00000000000408FC00000008015CA43C000000000820963C00C00000013000000020200003C0000000600000002000000000000E0FF3F8F400000008015CA43C000000000820963C0000000E0FF3F8F400000008051D13AC0000000005F9865C00C000000130000000A0200
310
003C00000006000000020000000000000000408FC00000008051D13AC0000000005F9865C0000000E0FF3F8F400000008051D13AC0000000005F9865C00C00000013000000120200003C00000006000000020000000000000000408FC00000008015CA43C000000000820963C00000000000408FC00000008051D13AC00000
310
00005F9865C00C000000130000001A0200003C0000000600000002000000000000E0FF3F8F400000008051D13AC0000000005F9865C0000000E0FF3F8F40000000E04B8426C0000000E003E667C00C00000013000000220200003C00000006000000020000000000000000408FC0000000C04B8426C0000000E003E667C000
310
0000E0FF3F8F40000000E04B8426C0000000E003E667C00C000000130000002A0200003C00000006000000020000000000000000408FC00000008051D13AC0000000005F9865C00000000000408FC0000000C04B8426C0000000E003E667C00C00000013000000320200003C0000000600000002000000000000E0FF3F8F40
310
000000E04B8426C0000000E003E667C0000000E0FF3F8F40000000E009E321C000000080A34868C00C000000130000003A0200003C0000000600000002000000000000E0FF3F8F40000000E009E321C000000080A34868C00000000000408FC0000000E009E321C000000080A34868C00C00000013000000420200003C0000
310
0006000000020000000000000000408FC0000000C04B8426C0000000E003E667C00000000000408FC0000000E009E321C000000080A34868C00C000000130000004A0200003C0000000600000002000000000000E0FF3F8F40000000E009E321C000000080A34868C0000000E0FF3F8F400000004004F61DC000000040E4BA
310
68C00C00000013000000520200003C0000000600000002000000000000E0FF3F8F400000004004F61DC000000040E4BA68C00000000000408FC00000004004F61DC000000040E4BA68C00C000000130000005A0200003C00000006000000020000000000000000408FC0000000E009E321C000000080A34868C00000000000
310
408FC00000004004F61DC000000040E4BA68C00C00000013000000620200003C0000000600000002000000000000E0FF3F8F40000000E0DDFA1BC000000000373569C0000000E0FF3F8F400000004004F61DC000000040E4BA68C00C000000130000006A0200003C00000006000000020000000000000000408FC000000000
310
DEFA1BC000000000373569C0000000E0FF3F8F40000000E0DDFA1BC000000000373569C00C00000013000000720200003C00000006000000020000000000000000408FC000000000DEFA1BC000000000373569C00000000000408FC00000004004F61DC000000040E4BA68C00C000000130000007A0200003C000000060000
310
0002000000000000E0FF3F8F40000000E0DDFA1BC000000000373569C0000000E0FF3F8F40000000E0DDFA1BC0000000C0873E6EC00C00000013000000820200003C0000000600000002000000000000E0FF3F8F40000000E0DDFA1BC0000000C0873E6EC00000000000408FC000000000DEFA1BC0000000C0873E6EC00C00
310
0000130000008A0200003C00000006000000020000000000000000408FC000000000DEFA1BC000000000373569C00000000000408FC000000000DEFA1BC0000000C0873E6EC00C00000013000000920200003C0000000600000002000000000000E0FF3F8F40000000E0DDFA1BC0000000C0873E6EC0000000E0FF3F8F4000
310
0000C020B91AC00000004042A06EC00C000000130000009A0200003C00000006000000020000000000000000408FC0000000E020B91AC00000004042A06EC0000000E0FF3F8F40000000C020B91AC00000004042A06EC00C00000013000000A20200003C00000006000000020000000000000000408FC0000000E020B91AC0
310
0000004042A06EC00000000000408FC000000000DEFA1BC0000000C0873E6EC00C00000013000000AA0200003C0000000600000002000000000000E0FF3F8F40000000C020B91AC00000004042A06EC0000000E0FF3F8F40000000E07B0117C000000040E3FD6EC00C00000013000000B20200003C00000006000000020000
310
000000000000408FC0000000007C0117C000000040E3FD6EC0000000E0FF3F8F40000000E07B0117C000000040E3FD6EC00C00000013000000BA0200003C00000006000000020000000000000000408FC0000000E020B91AC00000004042A06EC00000000000408FC0000000007C0117C000000040E3FD6EC00C0000001300
310
0000C20200003C0000000600000002000000000000E0FF3F8F4000000080CDFB10C00000006080536FC0000000E0FF3F8F40000000E07B0117C000000040E3FD6EC00C00000013000000CA0200003C0000000600000002000000000000E0FF3F8F4000000080CDFB10C00000006080536FC00000000000408FC000000060CD
310
FB10C00000006080536FC00C00000013000000D20200003C00000006000000020000000000000000408FC0000000007C0117C000000040E3FD6EC00000000000408FC000000060CDFB10C00000006080536FC00C00000013000000DA0200003C0000000600000002000000000000E0FF3F8F400000006003D101C000000080
310
849D6FC0000000E0FF3F8F4000000080CDFB10C00000006080536FC00C00000013000000E20200003C0000000600000002000000000000E0FF3F8F400000006003D101C000000080849D6FC00000000000408FC00000002003D101C000000080849D6FC00C00000013000000EA0200003C0000000600000002000000000000
310
0000408FC00000002003D101C000000080849D6FC00000000000408FC000000060CDFB10C00000006080536FC00C00000013000000F20200003C0000000600000002000000000000E0FF3F8F400000006003D101C000000080849D6FC0000000E0FF3F8F40000000600CA2E93E0000000000E06FC00C00000013000000FA02
310
00003C0000000600000002000000000000E0FF3F8F40000000600CA2E93E0000000000E06FC00000000000408FC0000000600CA2E93E0000000000E06FC00C00000013000000020300003C00000006000000020000000000000000408FC00000002003D101C000000080849D6FC00000000000408FC0000000600CA2E93E00
310
00000000E06FC00C000000130000000A0300003C0000000600000002000000000000E0FF3F8F40000000600CA2E93E0000000000E06FC0000000E0FF3F8F40000000600CA2E93E0000004075A770C00C00000013000000120300003C0000000600000002000000000000E0FF3F8F40000000600CA2E93E0000004075A770C0
310
0000000000408FC0000000600CA2E93E0000004075A770C00C000000130000001A0300003C00000006000000020000000000000000408FC0000000600CA2E93E0000000000E06FC00000000000408FC0000000600CA2E93E0000004075A770C00C00000013000000220300003C0000000600000002000000000000E0FF3F8F
310
40000000600CA2E93E0000004075A770C0000000E0FF3F8F4000000020F086E7BF000000003FAE70C00C000000130000002A0300003C0000000600000002000000000000E0FF3F8F4000000020F086E7BF000000003FAE70C00000000000408FC0000000E0F186E7BF000000003FAE70C00C00000013000000320300003C00
310
000006000000020000000000000000408FC0000000E0F186E7BF000000003FAE70C00000000000408FC0000000600CA2E93E0000004075A770C00C000000130000003A0300003C0000000600000002000000000000E0FF3F8F40000000A0C671F2BF00000080C9B770C0000000E0FF3F8F4000000020F086E7BF000000003F
310
AE70C00C00000013000000420300003C0000000600000002000000000000E0FF3F8F40000000A0C671F2BF00000080C9B770C00000000000408FC000000000C671F2BF00000080C9B770C00C000000130000004A0300003C00000006000000020000000000000000408FC0000000E0F186E7BF000000003FAE70C000000000
310
00408FC000000000C671F2BF00000080C9B770C00C00000013000000520300003C0000000600000002000000000000E0FF3F8F4000000080BFCCF4BF000000C031C370C0000000E0FF3F8F40000000A0C671F2BF00000080C9B770C00C000000130000005A0300003C00000006000000020000000000000000408FC0000000
310
E0BFCCF4BF000000C031C370C0000000E0FF3F8F4000000080BFCCF4BF000000C031C370C00C00000013000000620300003C00000006000000020000000000000000408FC0000000E0BFCCF4BF000000C031C370C00000000000408FC000000000C671F2BF00000080C9B770C00C000000130000006A0300003C0000000600
310
000002000000000000E0FF3F8F40000000A0C671F2BF000000009ACE70C0000000E0FF3F8F4000000080BFCCF4BF000000C031C370C00C00000013000000720300003C0000000600000002000000000000E0FF3F8F40000000A0C671F2BF000000009ACE70C00000000000408FC000000000C671F2BF000000009ACE70C00C
310
000000130000007A0300003C00000006000000020000000000000000408FC0000000E0BFCCF4BF000000C031C370C00000000000408FC000000000C671F2BF000000009ACE70C00C00000013000000820300003C0000000600000002000000000000E0FF3F8F4000000020F086E7BF0000008024D870C0000000E0FF3F8F40
310
000000A0C671F2BF000000009ACE70C00C000000130000008A0300003C00000006000000020000000000000000408FC0000000E0F186E7BF000000A024D870C0000000E0FF3F8F4000000020F086E7BF0000008024D870C00C00000013000000920300003C00000006000000020000000000000000408FC0000000E0F186E7
310
BF000000A024D870C00000000000408FC000000000C671F2BF000000009ACE70C00C000000130000009A0300003C0000000600000002000000000000E0FF3F8F4000000020F086E7BF0000008024D870C0000000E0FF3F8F40000000600CA2E93E00000060EEDE70C00C00000013000000A20300003C000000060000000200
310
0000000000E0FF3F8F40000000600CA2E93E00000060EEDE70C00000000000408FC0000000600CA2E93E00000060EEDE70C00C00000013000000AA0300003C00000006000000020000000000000000408FC0000000E0F186E7BF000000A024D870C00000000000408FC0000000600CA2E93E00000060EEDE70C00C00000013
310
000000B20300003C0000000600000002000000000000E0FF3F8F40000000600CA2E93E00000060EEDE70C0000000E0FF3F8F40000000600CA2E93E00000000008071C00C00000013000000BA0300003C0000000600000002000000000000E0FF3F8F40000000600CA2E93E00000000008071C00000000000408FC000000060
310
0CA2E93E00000000008071C00C00000013000000C20300003C00000006000000020000000000000000408FC0000000600CA2E93E00000000008071C00000000000408FC0000000600CA2E93E00000060EEDE70C00C00000013000000CA0300003C0000000600000002000000000000E0FF3F8F40000000600CA2E93E000000
310
00008071C0000000E0FF3F8F4000000040FF7F31C000000000008071C00C00000013000000D20300003C0000000600000002000000000000E0FF3F8F4000000040FF7F31C000000000008071C00000000000408FC000000040FF7F31C000000000008071C00C00000013000000DA0300003C00000006000000020000000000
310
000000408FC0000000600CA2E93E00000000008071C00000000000408FC000000040FF7F31C000000000008071C00C00000013000000E20300003C0000000600000002000000000000E0FF3F8F4000000040FF7F31C000000000008071C0000000E0FF3F8F4000000040FFBF31C0000000A0ED7E71C00C00000013000000EA
310
0300003C0000000600000002000000000000E0FF3F8F4000000040FFBF31C0000000A0ED7E71C00000000000408FC000000040FFBF31C0000000A0ED7E71C00C00000013000000F20300003C00000006000000020000000000000000408FC000000040FF7F31C000000000008071C00000000000408FC000000040FFBF31C0
310
000000A0ED7E71C00C00000013000000FA0300003C0000000600000002000000000000E0FF3F8F4000000040FFBF31C0000000A0ED7E71C0000000E0FF3F8F4000000040D9EE31C000000000007C71C00C00000013000000020400003C0000000600000002000000000000E0FF3F8F4000000040D9EE31C000000000007C71
310
C00000000000408FC000000040D9EE31C000000000007C71C00C000000130000000A0400003C00000006000000020000000000000000408FC000000040FFBF31C0000000A0ED7E71C00000000000408FC000000040D9EE31C000000000007C71C00C00000013000000120400003C0000000600000002000000000000E0FF3F
310
8F4000000040FFFF31C000000000007871C0000000E0FF3F8F4000000040D9EE31C000000000007C71C00C000000130000001A0400003C0000000600000002000000000000E0FF3F8F4000000040FFFF31C000000000007871C00000000000408FC000000040FFFF31C000000000007871C00C00000013000000220400003C
310
00000006000000020000000000000000408FC000000040FFFF31C000000000007871C00000000000408FC000000040D9EE31C000000000007C71C00C000000130000002A0400003C0000000600000002000000000000E0FF3F8F4000000040FFFF31C000000000000069C0000000E0FF3F8F4000000040FFFF31C000000000
310
007871C00C00000013000000320400003C0000000600000002000000000000E0FF3F8F4000000040FFFF31C000000000000069C00000000000408FC000000040FFFF31C000000000000069C00C000000130000003A0400003C00000006000000020000000000000000408FC000000040FFFF31C000000000007871C0000000
310
0000408FC000000040FFFF31C000000000000069C00C00000013000000420400003C0000000600000002000000000000E0FF3F8F4000000040FFFF31C000000000000069C0000000E0FF3F8F40000000A077493DC0000000A0B06167C00C000000130000004A0400003C00000006000000020000000000000000408FC00000
310
00A077493DC0000000A0B06167C0000000E0FF3F8F40000000A077493DC0000000A0B06167C00C00000013000000520400003C00000006000000020000000000000000408FC0000000A077493DC0000000A0B06167C00000000000408FC000000040FFFF31C000000000000069C00C000000130000005A0400003C00000006
310
00000002000000000000E0FF3F8F40000000A0005342C0000000C0182D66C0000000E0FF3F8F4000000000BE6545C0000000406C0565C00C00000013000000620400003C0000000600000002000000000000E0FF3F8F4000000000BE6545C0000000406C0565C00000000000408FC000000000BE6545C0000000406C0565C0
310
0C000000130000006A0400003C00000006000000020000000000000000408FC0000000A0005342C0000000C0182D66C00000000000408FC000000000BE6545C0000000406C0565C00C00000013000000720400003C00000006000000020000000000000000408FC0000000A0005342C0000000C0182D66C0000000E0FF3F8F
310
40000000A0005342C0000000C0182D66C00C000000130000007A0400003C0000000600000002000000000000E0FF3F8F4000000000096C48C000000020E5B463C0000000E0FF3F8F40000000C0CFDE4AC0000000E0377662C00C00000013000000820400003C00000006000000020000000000000000408FC0000000C0CFDE
310
4AC0000000E0377662C0000000E0FF3F8F40000000C0CFDE4AC0000000E0377662C00C000000130000008A0400003C00000006000000020000000000000000408FC0000000C0CFDE4AC0000000E0377662C00000000000408FC000000000096C48C000000020E5B463C00C00000013000000920400003C0000000600000002
310
000000000000E0FF3F8F4000000000096C48C000000020E5B463C00000000000408FC000000000096C48C000000020E5B463C00C000000130000009A0400003C0000000600000002000000000000E0FF3F8F40000000800F304DC0000000606F0F61C0000000E0FF3F8F40000000604BF84EC000000080447E5FC00C000000
310
13000000A20400003C0000000600000002000000000000E0FF3F8F40000000604BF84EC000000080447E5FC00000000000408FC0000000604BF84EC000000080447E5FC00C00000013000000AA0400003C00000006000000020000000000000000408FC0000000800F304DC0000000606F0F61C00000000000408FC0000000
310
604BF84EC000000080447E5FC00C00000013000000B20400003C00000006000000020000000000000000408FC0000000800F304DC0000000606F0F61C0000000E0FF3F8F40000000800F304DC0000000606F0F61C00C00000013000000BA0400003C0000000600000002000000000000E0FF3F8F40000000403E4550C00000
310
00804D905CC0000000E0FF3F8F40000000403DD050C000000080CDD759C00C00000013000000C20400003C00000006000000020000000000000000408FC0000000403DD050C000000080CDD759C0000000E0FF3F8F40000000403DD050C000000080CDD759C00C00000013000000CA0400003C000000060000000200000000
310
00000000408FC0000000403DD050C000000080CDD759C00000000000408FC0000000403E4550C0000000804D905CC00C00000013000000D20400003C0000000600000002000000000000E0FF3F8F40000000403E4550C0000000804D905CC00000000000408FC0000000403E4550C0000000804D905CC00C00000013000000
310
DA0400003C0000000600000002000000000000E0FF3F8F4000000020F16551C000000080741154C0000000E0FF3F8F40000000C0693651C0000000C018D656C00C00000013000000E20400003C0000000600000002000000000000E0FF3F8F4000000020F16551C000000080741154C00000000000408FC000000020F16551
310
C000000080741154C00C00000013000000EA0400003C00000006000000020000000000000000408FC000000020F16551C000000080741154C00000000000408FC0000000C0693651C0000000C018D656C00C00000013000000F20400003C0000000600000002000000000000E0FF3F8F40000000C0693651C0000000C018D6
310
56C00000000000408FC0000000C0693651C0000000C018D656C00C00000013000000FA0400003C0000000600000002000000000000E0FF3F8F4000000020786751C0000000C0FF0851C0000000E0FF3F8F4000000060BA3A51C00000008059884CC00C00000013000000020500003C0000000600000002000000000000E0FF
310
3F8F4000000060BA3A51C00000008059884CC00000000000408FC000000060BA3A51C00000008059884CC00C000000130000000A0500003C00000006000000020000000000000000408FC000000020786751C0000000C0FF0851C00000000000408FC000000060BA3A51C00000008059884CC00C0000001300000012050000
310
3C00000006000000020000000000000000408FC000000020786751C0000000C0FF0851C0000000E0FF3F8F4000000020786751C0000000C0FF0851C00C000000130000001A0500003C0000000600000002000000000000E0FF3F8F400000002095D750C000000080258446C0000000E0FF3F8F4000000000544F50C0000000
310
00111241C00C00000013000000220500003C00000006000000020000000000000000408FC000000000544F50C000000000111241C0000000E0FF3F8F4000000000544F50C000000000111241C00C000000130000002A0500003C00000006000000020000000000000000408FC000000000544F50C000000000111241C00000
310
000000408FC00000002095D750C000000080258446C00C00000013000000320500003C00000006000000020000000000000000408FC00000002095D750C000000080258446C0000000E0FF3F8F400000002095D750C000000080258446C00C000000130000003A0500003C0000000600000002000000000000E0FF3F8F4000
310
0000005E124FC000000000226936C0000000E0FF3F8F40000000006A584CC000000000C87D18C00C00000013000000420500003C0000000600000002000000000000E0FF3F8F40000000006A584CC000000000C87D18C00000000000408FC0000000006A584CC000000000C87D18C00C000000130000004A0500003C000000
310
06000000020000000000000000408FC0000000006A584CC000000000C87D18C00000000000408FC0000000005E124FC000000000226936C00C00000013000000520500003C0000000600000002000000000000E0FF3F8F40000000005E124FC000000000226936C00000000000408FC0000000005E124FC000000000226936
310
C00C000000130000005A0500003C0000000600000002000000000000E0FF3F8F40000000006A584CC000000000C87D18C0000000E0FF3F8F400000006001DD4BC000000000E09E11C00C00000013000000620500003C00000006000000020000000000000000408FC00000006001DD4BC000000000E09E11C0000000E0FF3F
310
8F400000006001DD4BC000000000E09E11C00C000000130000006A0500003C00000006000000020000000000000000408FC00000006001DD4BC000000000E09E11C00000000000408FC0000000006A584CC000000000C87D18C00C00000013000000720500003C0000000600000002000000000000E0FF3F8F400000006001
310
DD4BC000000000E09E11C0000000E0FF3F8F4000000000A22F4BC00000000050CD07C00C000000130000007A0500003C00000006000000020000000000000000408FC000000000A22F4BC00000000050CD07C0000000E0FF3F8F4000000000A22F4BC00000000050CD07C00C00000013000000820500003C00000006000000
310
020000000000000000408FC00000006001DD4BC000000000E09E11C00000000000408FC000000000A22F4BC00000000050CD07C00C000000130000008A0500003C0000000600000002000000000000E0FF3F8F4000000000A22F4BC00000000050CD07C0000000E0FF3F8F4000000000CC5A4AC000000000C0B6FEBF0C0000
310
0013000000920500003C00000006000000020000000000000000408FC000000000CC5A4AC000000000C0B6FEBF000000E0FF3F8F4000000000CC5A4AC000000000C0B6FEBF0C000000130000009A0500003C00000006000000020000000000000000408FC000000000A22F4BC00000000050CD07C00000000000408FC00000
310
0000CC5A4AC000000000C0B6FEBF0C00000013000000A20500003C0000000600000002000000000000E0FF3F8F4000000000CC5A4AC000000000C0B6FEBF000000E0FF3F8F40000000E05F6B49C000000000A0D5F4BF0C00000013000000AA0500003C00000006000000020000000000000000408FC0000000E05F6B49C000
310
000000A0D5F4BF0000000000408FC000000000CC5A4AC000000000C0B6FEBF0C00000013000000B20500003C0000000600000002000000000000E0FF3F8F40000000A0005342C0000000C0182D66C0000000E0FF3F8F40000000A077493DC0000000A0B06167C00C00000013000000BA0500003C0000000600000002000000
310
0000000000408FC0000000A077493DC0000000A0B06167C00000000000408FC0000000A0005342C0000000C0182D66C00C00000013000000C20500003C0000000600000002000000000000E0FF3F8F4000000000096C48C000000020E5B463C0000000E0FF3F8F4000000000BE6545C0000000406C0565C00C000000130000
310
00CA0500003C00000006000000020000000000000000408FC000000000BE6545C0000000406C0565C00000000000408FC000000000096C48C000000020E5B463C00C00000013000000D20500003C0000000600000002000000000000E0FF3F8F40000000800F304DC0000000606F0F61C0000000E0FF3F8F40000000C0CFDE
310
4AC0000000E0377662C00C00000013000000DA0500003C00000006000000020000000000000000408FC0000000C0CFDE4AC0000000E0377662C00000000000408FC0000000800F304DC0000000606F0F61C00C00000013000000E20500003C0000000600000002000000000000E0FF3F8F40000000403E4550C0000000804D
310
905CC0000000E0FF3F8F40000000604BF84EC000000080447E5FC00C00000013000000EA0500003C00000006000000020000000000000000408FC0000000604BF84EC000000080447E5FC00000000000408FC0000000403E4550C0000000804D905CC00C00000013000000F20500003C0000000600000002000000000000E0
310
FF3F8F40000000C0693651C0000000C018D656C0000000E0FF3F8F40000000403DD050C000000080CDD759C00C00000013000000FA0500003C00000006000000020000000000000000408FC0000000403DD050C000000080CDD759C00000000000408FC0000000C0693651C0000000C018D656C00C00000013000000020600
310
003C0000000600000002000000000000E0FF3F8F4000000020786751C0000000C0FF0851C0000000E0FF3F8F4000000020F16551C000000080741154C00C000000130000000A0600003C00000006000000020000000000000000408FC000000020786751C0000000C0FF0851C00000000000408FC000000020F16551C00000
310
0080741154C00C00000013000000120600003C0000000600000002000000000000E0FF3F8F4000000060BA3A51C00000008059884CC0000000E0FF3F8F400000002095D750C000000080258446C00C000000130000001A0600003C00000006000000020000000000000000408FC00000002095D750C000000080258446C000
310
00000000408FC000000060BA3A51C00000008059884CC00C00000013000000220600003C0000000600000002000000000000E0FF3F8F4000000000544F50C000000000111241C0000000E0FF3F8F40000000005E124FC000000000226936C00C000000130000002A0600003C00000006000000020000000000000000408FC0
310
00000000544F50C000000000111241C00000000000408FC0000000005E124FC000000000226936C00C00000013000000320600003C00000006000000020000000000000000408FC000000000DEFA1BC000000000373569C00000000000408FC000000040FFFF31C000000000000069C00C000000130000003A0600003C0000
310
0006000000020000000000000000408FC000000040FFFF31C000000000007871C00000000000408FC000000000DEFA1BC0000000C0873E6EC00C00000013000000420600003C00000006000000020000000000000000408FC00000002001B54AC000000000FBF34FC00000000000408FC000000000A4ED4AC000000000D371
310
53C00C000000130000004A0600003C00000006000000020000000000000000408FC0000000602A834BC0000000000CCE4FC00000000000408FC00000008055B74BC000000080FE8353C00C00000013000000520600003C00000006000000020000000000000000408FC000000040063A4CC00000000086674FC00000000000
310
408FC000000040366B4CC0000000001DB553C00C000000130000005A0600003C00000006000000020000000000000000408FC0000000A0F2C54CC00000008068CB4EC00000000000408FC0000000A0D0F64CC0000000C0250054C00C00000013000000620600003C00000006000000020000000000000000408FC0000000E0
310
D14B4DC000000040655D54C00000000000408FC000000060EA174DC000000080750A4EC00C000000130000006A0600003C00000006000000020000000000000000408FC00000008023274DC00000000064394DC00000000000408FC000000060BA3A51C00000008059884CC00C00000013000000720600003C000000060000
310
00020000000000000000408FC000000020786751C0000000C0FF0851C00000000000408FC000000060EA174DC000000080750A4EC00C000000130000007A0600003C00000006000000020000000000000000408FC0000000E0D14B4DC000000040655D54C00000000000408FC000000020F16551C000000080741154C00C00
310
000013000000820600003C00000006000000020000000000000000408FC0000000E0ABCC4BC000000080B31344C00000000000408FC00000002095D750C000000080258446C00C000000130000008A0600003C00000006000000020000000000000000408FC00000000083614DC0000000404AC354C00000000000408FC000
310
0000C0693651C0000000C018D656C00C00000013000000920600003C00000006000000020000000000000000408FC000000000544F50C000000000111241C00000000000408FC0000000E0ABCC4BC000000080B31344C00C000000130000009A0600003C00000006000000020000000000000000408FC0000000E0F67249C0
310
00000000A84436C00000000000408FC0000000005E124FC000000000226936C00C00000013000000A20600003C00000006000000020000000000000000408FC0000000006A584CC000000000C87D18C00000000000408FC0000000E0F67249C000000000A84436C00C00000013000000AA0600003C00000006000000020000
310
000000000000408FC00000006001DD4BC000000000E09E11C00000000000408FC000000040472146C000000000280714C00C00000013000000B20600003C00000006000000020000000000000000408FC000000000A22F4BC00000000050CD07C00000000000408FC000000040472146C000000000280714C00C0000001300
310
0000BA0600003C00000006000000020000000000000000408FC000000000CC5A4AC000000000C0B6FEBF0000000000408FC000000040472146C000000000280714C00C00000013000000C20600003C00000006000000020000000000000000408FC0000000E05F6B49C000000000A0D5F4BF0000000000408FC00000004047
310
2146C000000000280714C00C00000013000000CA0600003C00000006000000020000000000000000408FC0000000403DD050C000000080CDD759C00000000000408FC000000080C6DB4BC0000000C06ABE5AC00C00000013000000D20600003C00000006000000020000000000000000408FC000000080C6DB4BC0000000C0
310
6ABE5AC00000000000408FC0000000403E4550C0000000804D905CC00C00000013000000DA0600003C00000006000000020000000000000000408FC000000020A0A348C0000000C0F24660C00000000000408FC0000000604BF84EC000000080447E5FC00C00000013000000E20600003C0000000600000002000000000000
310
0000408FC000000020A0A348C0000000C0F24660C00000000000408FC0000000800F304DC0000000606F0F61C00C00000013000000EA0600003C00000006000000020000000000000000408FC0000000C0CFDE4AC0000000E0377662C00000000000408FC00000008015CA43C000000000820963C00C00000013000000F206
310
00003C00000006000000020000000000000000408FC00000008015CA43C000000000820963C00000000000408FC000000000096C48C000000020E5B463C00C00000013000000FA0600003C00000006000000020000000000000000408FC00000008051D13AC0000000005F9865C00000000000408FC000000000BE6545C000
310
0000406C0565C00C00000013000000020700003C00000006000000020000000000000000408FC00000008051D13AC0000000005F9865C00000000000408FC0000000A0005342C0000000C0182D66C00C000000130000000A0700003C00000006000000020000000000000000408FC0000000A077493DC0000000A0B06167C0
310
0000000000408FC00000008051D13AC0000000005F9865C00C00000013000000120700003C00000006000000020000000000000000408FC0000000C04B8426C0000000E003E667C00000000000408FC000000040FFFF31C000000000000069C00C000000130000001A0700003C00000006000000020000000000000000408F
310
C000000040FFFF31C000000000000069C00000000000408FC0000000E009E321C000000080A34868C00C00000013000000220700003C00000006000000020000000000000000408FC000000040FFFF31C000000000000069C00000000000408FC00000004004F61DC000000040E4BA68C00C000000130000002A0700003C00
310
000006000000020000000000000000408FC0000000E0F186E7BF000000A024D870C00000000000408FC000000040FF7F31C000000000008071C00C00000013000000320700003C00000006000000020000000000000000408FC000000040FFBF31C0000000A0ED7E71C00000000000408FC000000000C671F2BF000000009A
310
CE70C00C000000130000003A0700003C00000006000000020000000000000000408FC0000000E0BFCCF4BF000000C031C370C00000000000408FC000000040D9EE31C000000000007C71C00C00000013000000420700003C00000006000000020000000000000000408FC000000040FFFF31C000000000007871C000000000
310
00408FC000000000C671F2BF00000080C9B770C00C000000130000004A0700003C00000006000000020000000000000000408FC00000002003D101C000000080849D6FC00000000000408FC0000000E0F186E7BF000000003FAE70C00C00000013000000520700003C00000006000000020000000000000000408FC0000000
310
60CDFB10C00000006080536FC00000000000408FC000000000C671F2BF00000080C9B770C00C000000130000005A0700003C00000006000000020000000000000000408FC0000000007C0117C000000040E3FD6EC00000000000408FC000000040FFFF31C000000000007871C00C00000013000000620700003C0000000600
310
0000020000000000000000408FC0000000E020B91AC00000004042A06EC00000000000408FC000000040FFFF31C000000000007871C00C000000130000006A0700003C0000000600000002000000000000E0FF3F8F40000000E0DDFA1BC0000000C0873E6EC0000000E0FF3F8F4000000040FFFF31C000000000007871C00C
310
00000013000000720700003C0000000600000002000000000000E0FF3F8F4000000040FFFF31C000000000000069C0000000E0FF3F8F40000000E0DDFA1BC000000000373569C00C000000130000007A0700003C0000000600000002000000000000E0FF3F8F400000002001B54AC000000000FBF34FC0000000E0FF3F8F40
310
00000000A4ED4AC000000000D37153C00C00000013000000820700003C0000000600000002000000000000E0FF3F8F40000000602A834BC0000000000CCE4FC0000000E0FF3F8F400000008055B74BC000000080FE8353C00C000000130000008A0700003C0000000600000002000000000000E0FF3F8F4000000040063A4C
310
C00000000086674FC0000000E0FF3F8F4000000040366B4CC0000000001DB553C00C00000013000000920700003C0000000600000002000000000000E0FF3F8F40000000A0F2C54CC00000008068CB4EC0000000E0FF3F8F40000000A0D0F64CC0000000C0250054C00C000000130000009A0700003C000000060000000200
310
0000000000E0FF3F8F4000000060EA174DC000000080750A4EC0000000E0FF3F8F40000000E0D14B4DC000000040655D54C00C00000013000000A20700003C0000000600000002000000000000E0FF3F8F4000000060EA174DC000000080750A4EC0000000E0FF3F8F4000000020786751C0000000C0FF0851C00C00000013
310
000000AA0700003C0000000600000002000000000000E0FF3F8F4000000060BA3A51C00000008059884CC0000000E0FF3F8F400000008023274DC00000000064394DC00C00000013000000B20700003C0000000600000002000000000000E0FF3F8F40000000E0D14B4DC000000040655D54C0000000E0FF3F8F4000000020
310
F16551C000000080741154C00C00000013000000BA0700003C0000000600000002000000000000E0FF3F8F400000002095D750C000000080258446C0000000E0FF3F8F40000000E0ABCC4BC000000080B31344C00C00000013000000C20700003C0000000600000002000000000000E0FF3F8F40000000C0693651C0000000
310
C018D656C0000000E0FF3F8F400000000083614DC0000000404AC354C00C00000013000000CA0700003C0000000600000002000000000000E0FF3F8F40000000E0ABCC4BC000000080B31344C0000000E0FF3F8F4000000000544F50C000000000111241C00C00000013000000D20700003C00000006000000020000000000
310
00E0FF3F8F40000000005E124FC000000000226936C0000000E0FF3F8F40000000E0F67249C000000000A84436C00C00000013000000DA0700003C0000000600000002000000000000E0FF3F8F40000000E0F67249C000000000A84436C0000000E0FF3F8F40000000006A584CC000000000C87D18C00C00000013000000E2
310
0700003C0000000600000002000000000000E0FF3F8F400000006001DD4BC000000000E09E11C0000000E0FF3F8F4000000040472146C000000000280714C00C00000013000000EA0700003C0000000600000002000000000000E0FF3F8F4000000040472146C000000000280714C0000000E0FF3F8F4000000000A22F4BC0
310
0000000050CD07C00C00000013000000F20700003C0000000600000002000000000000E0FF3F8F4000000040472146C000000000280714C0000000E0FF3F8F4000000000CC5A4AC000000000C0B6FEBF0C00000013000000FA0700003C0000000600000002000000000000E0FF3F8F4000000040472146C000000000280714
310
C0000000E0FF3F8F40000000E05F6B49C000000000A0D5F4BF0C00000013000000020800003C0000000600000002000000000000E0FF3F8F40000000403E4550C0000000804D905CC0000000E0FF3F8F4000000080C6DB4BC0000000C06ABE5AC00C000000130000000A0800003C0000000600000002000000000000E0FF3F
310
8F40000000403DD050C000000080CDD759C0000000E0FF3F8F4000000080C6DB4BC0000000C06ABE5AC00C00000013000000120800003C0000000600000002000000000000E0FF3F8F40000000800F304DC0000000606F0F61C0000000E0FF3F8F4000000020A0A348C0000000C0F24660C00C000000130000001A0800003C
310
0000000600000002000000000000E0FF3F8F40000000604BF84EC000000080447E5FC0000000E0FF3F8F4000000020A0A348C0000000C0F24660C00C00000013000000220800003C0000000600000002000000000000E0FF3F8F4000000000096C48C000000020E5B463C0000000E0FF3F8F400000008015CA43C000000000
310
820963C00C000000130000002A0800003C0000000600000002000000000000E0FF3F8F40000000C0CFDE4AC0000000E0377662C0000000E0FF3F8F400000008015CA43C000000000820963C00C00000013000000320800003C0000000600000002000000000000E0FF3F8F40000000A0005342C0000000C0182D66C0000000
310
E0FF3F8F400000008051D13AC0000000005F9865C00C000000130000003A0800003C0000000600000002000000000000E0FF3F8F4000000000BE6545C0000000406C0565C0000000E0FF3F8F400000008051D13AC0000000005F9865C00C00000013000000420800003C0000000600000002000000000000E0FF3F8F400000
310
008051D13AC0000000005F9865C0000000E0FF3F8F40000000A077493DC0000000A0B06167C00C000000130000004A0800003C0000000600000002000000000000E0FF3F8F4000000040FFFF31C000000000000069C0000000E0FF3F8F40000000E009E321C000000080A34868C00C00000013000000520800003C00000006
310
00000002000000000000E0FF3F8F4000000040FFFF31C000000000000069C0000000E0FF3F8F40000000E04B8426C0000000E003E667C00C000000130000005A0800003C0000000600000002000000000000E0FF3F8F4000000040FFFF31C000000000000069C0000000E0FF3F8F400000004004F61DC000000040E4BA68C0
310
0C00000013000000620800003C0000000600000002000000000000E0FF3F8F4000000020F086E7BF0000008024D870C0000000E0FF3F8F4000000040FF7F31C000000000008071C00C000000130000006A0800003C0000000600000002000000000000E0FF3F8F40000000A0C671F2BF000000009ACE70C0000000E0FF3F8F
310
4000000040FFBF31C0000000A0ED7E71C00C00000013000000720800003C0000000600000002000000000000E0FF3F8F4000000080BFCCF4BF000000C031C370C0000000E0FF3F8F4000000040D9EE31C000000000007C71C00C000000130000007A0800003C0000000600000002000000000000E0FF3F8F4000000040FFFF
310
31C000000000007871C0000000E0FF3F8F40000000A0C671F2BF00000080C9B770C00C00000013000000820800003C0000000600000002000000000000E0FF3F8F400000006003D101C000000080849D6FC0000000E0FF3F8F4000000020F086E7BF000000003FAE70C00C000000130000008A0800003C0000000600000002
310
000000000000E0FF3F8F40000000A0C671F2BF00000080C9B770C0000000E0FF3F8F4000000080CDFB10C00000006080536FC00C00000013000000920800003C0000000600000002000000000000E0FF3F8F4000000040FFFF31C000000000007871C0000000E0FF3F8F40000000C020B91AC00000004042A06EC00C000000
310
130000009A0800003C0000000600000002000000000000E0FF3F8F4000000040FFFF31C000000000007871C0000000E0FF3F8F40000000E07B0117C000000040E3FD6EC0
100
AcDbSubDMesh
 71
     2
 72
     0
 91
        0
 92
      132
 10
-1000.0
 20
-50.83886337280273
 30
-1.302154541015625
 10
-1000.0
 20
-44.2599868774414
 30
0.0
 10
-1000.0
 20
-29.2869815826416
 30
-187.0528106689453
 10
-1000.0
 20
-53.74071502685547
 30
-147.6943206787109
 10
-1000.0
 20
-67.25373840332031
 30
-103.3719177246094
 10
-1000.0
 20
-65.239501953125
 30
-34.14114379882813
 10
-1000.0
 20
-6.994987487792968
 30
-201.6629638671875
 10
-1000.0
 20
-58.76181030273437
 30
-83.05140686035157
 10
-1000.0
 20
-55.71699523925781
 30
-106.9752655029297
 10
-1000.0
 20
-49.27832412719727
 30
-130.2171325683594
 10
-1000.0
 20
-39.57878112792969
 30
-152.297119140625
 10
-1000.0
 20
-26.8176498413086
 30
-172.7615966796875
 10
-1000.0
 20
-11.25839042663574
 30
-191.1879730224609
 10
-1000.0
 20
-55.59899520874023
 30
-40.15391540527343
 10
-1000.0
 20
-58.30577087402343
 30
-58.4483642578125
 10
-1000.0
 20
-6.680789470672607
 30
-245.0080871582031
 10
-1000.0
 20
-5.751449584960937
 30
-247.9339904785156
 10
-1000.0
 20
-55.72660446166992
 30
-4.4051513671875
 10
-1000.0
 20
-54.37213134765625
 30
-2.975250244140625
 10
-1000.0
 20
-52.7093505859375
 30
-1.91961669921875
 10
-1000.0
 20
0.0000122227675092
 30
-64.83843994140625
 10
-1000.0
 20
-57.54646682739258
 30
-61.58912658691406
 10
-1000.0
 20
-56.45331573486328
 30
-62.80877685546875
 10
999.9999389648436
 20
-55.02473068237304
 30
-63.6097412109375
 10
-1000.0
 20
-56.83759307861328
 30
-78.82989501953125
 10
-1000.0
 20
-58.59234237670898
 30
-81.45930480957032
 10
-1000.0
 20
0.0000122227675092
 30
-76.83843994140625
 10
-1000.0
 20
-1.29998767375946
 30
-268.1996459960938
 10
-1000.0
 20
-0.7352227568626404
 30
-269.5089416503906
 10
-1000.0
 20
-36.64845657348633
 30
-177.4092712402343
 10
-1000.0
 20
-58.37547302246093
 30
-136.4823455810547
 10
-1000.0
 20
-69.61670684814453
 30
-68.14060974121094
 10
-1000.0
 20
-67.36847686767578
 30
-45.03239440917968
 10
999.9999389648436
 20
-17.9999885559082
 30
-200.0
 10
999.9999389648436
 20
-6.99498701095581
 30
-201.6629638671875
 10
999.9999389648436
 20
-6.99498701095581
 30
-241.9540710449219
 10
999.9999389648436
 20
-17.9999885559082
 30
-279.5
 10
999.9999389648436
 20
-53.41409683227539
 30
-63.90609741210937
 10
999.9999389648436
 20
0.0000122227675092
 30
-64.83843994140625
 10
999.9999389648436
 20
0.0000122227675092
 30
-76.83843994140625
 10
999.9999389648436
 20
-53.8565673828125
 30
-77.77850341796875
 10
999.9999389648436
 20
-55.43229675292969
 30
-78.06240844726563
 10
999.9999389648436
 20
-56.45331573486328
 30
-62.80877685546875
 10
999.9999389648436
 20
-56.83759307861328
 30
-78.82989501953125
 10
999.9999389648436
 20
-57.54646682739258
 30
-61.58912658691406
 10
999.9999389648436
 20
-57.92824172973633
 30
-80.00230407714843
 10
999.9999389648436
 20
-58.18684005737305
 30
-60.08171081542968
 10
999.9999389648436
 20
-58.59234237670898
 30
-81.45930480957032
 10
999.9999389648436
 20
-69.61670684814453
 30
-68.14060974121094
 10
999.9999389648436
 20
-68.9176254272461
 30
-57.06523132324218
 10
999.9999389648436
 20
-58.30577087402343
 30
-58.4483642578125
 10
999.9999389648436
 20
-69.59284210205078
 30
-80.27273559570312
 10
999.9999389648436
 20
-67.36847686767578
 30
-45.03239440917968
 10
999.9999389648436
 20
-55.59899520874023
 30
-40.15391540527343
 10
999.9999389648436
 20
-68.85020446777343
 30
-91.34526062011719
 10
999.9999389648436
 20
-58.76181030273437
 30
-83.05140686035157
 10
999.9999389648436
 20
-65.239501953125
 30
-34.14114379882813
 10
999.9999389648436
 20
-62.14349365234375
 30
-22.41067504882813
 10
999.9999389648436
 20
-50.89815902709961
 30
-22.2681884765625
 10
999.9999389648436
 20
-56.69073486328125
 30
-6.122833251953125
 10
999.9999389648436
 20
-55.72660446166992
 30
-4.4051513671875
 10
999.9999389648436
 20
-44.2599868774414
 30
-5.006988525390625
 10
999.9999389648436
 20
-54.37213134765625
 30
-2.975250244140625
 10
999.9999389648436
 20
-52.7093505859375
 30
-1.91961669921875
 10
999.9999389648436
 20
-50.83886337280273
 30
-1.302154541015625
 10
999.9999389648436
 20
-44.2599868774414
 30
0.0
 10
999.9999389648436
 20
-65.08192443847656
 30
-114.2547302246093
 10
999.9999389648436
 20
-67.25373840332031
 30
-103.3719177246094
 10
999.9999389648436
 20
-55.71699523925781
 30
-106.9752655029297
 10
999.9999389648436
 20
-58.37547302246093
 30
-136.4823455810547
 10
999.9999389648436
 20
-61.93980026245117
 30
-125.9729309082031
 10
999.9999389648436
 20
-49.27832412719727
 30
-130.2171325683594
 10
999.9999389648436
 20
-48.84402465820312
 30
-157.6529693603515
 10
999.9999389648436
 20
-53.74071502685547
 30
-147.6943206787109
 10
999.9999389648436
 20
-39.57878112792969
 30
-152.297119140625
 10
999.9999389648436
 20
-36.64845657348633
 30
-177.4092712402343
 10
999.9999389648436
 20
-42.79486083984375
 30
-168.1694641113281
 10
999.9999389648436
 20
-26.8176498413086
 30
-172.7615966796875
 10
999.9999389648436
 20
-29.2869815826416
 30
-187.0528106689453
 10
999.9999389648436
 20
-11.25839138031006
 30
-191.1879730224609
 10
999.9999389648436
 20
-8.943434715270996
 30
-194.2699584960937
 10
999.9999389648436
 20
-7.490250587463378
 30
-197.8403625488281
 10
999.9999389648436
 20
-0.7352219223976136
 30
-269.5089111328125
 10
999.9999389648436
 20
0.0000122227675092
 30
-269.9331970214844
 10
999.9999389648436
 20
0.0000122227675092
 30
-280.0
 10
999.9999389648436
 20
-17.4999885559082
 30
-280.0
 10
999.9999389648436
 20
-1.152777314186096
 30
-268.91259765625
 10
999.9999389648436
 20
-17.7499885559082
 30
-279.9330139160156
 10
999.9999389648436
 20
-1.299987316131591
 30
-268.1996459960938
 10
999.9999389648436
 20
-17.93300247192383
 30
-279.75
 10
999.9999389648436
 20
-1.152777314186096
 30
-267.4866943359375
 10
999.9999389648436
 20
-2.227057218551635
 30
-252.9224243164062
 10
999.9999389648436
 20
0.0000122227675092
 30
-255.0
 10
999.9999389648436
 20
0.0000122227675092
 30
-266.4661254882812
 10
999.9999389648436
 20
-0.7352219223976136
 30
-266.890380859375
 10
999.9999389648436
 20
-4.245901107788085
 30
-250.6094207763672
 10
999.9999389648436
 20
-6.680788993835449
 30
-245.0080871582031
 10
999.9999389648436
 20
-5.751449108123779
 30
-247.9339904785156
 10
-1000.0
 20
-17.9999885559082
 30
-279.5
 10
-1000.0
 20
-17.9999885559082
 30
-200.0
 10
-1000.0
 20
-44.2599868774414
 30
-5.006988525390625
 10
-1000.0
 20
-42.79486083984375
 30
-168.1694641113281
 10
-1000.0
 20
-61.93980026245117
 30
-125.9729309082031
 10
-1000.0
 20
-69.59284210205078
 30
-80.27273559570312
 10
-1000.0
 20
-68.9176254272461
 30
-57.06523132324218
 10
-1000.0
 20
-56.69073486328125
 30
-6.122833251953125
 10
-1000.0
 20
-2.227056741714477
 30
-252.9224243164062
 10
-1000.0
 20
0.0000122227675092
 30
-255.0
 10
-1000.0
 20
-6.994987487792968
 30
-241.9540710449219
 10
-1000.0
 20
-50.89815902709961
 30
-22.2681884765625
 10
-1000.0
 20
-4.245900630950927
 30
-250.6094207763672
 10
-1000.0
 20
-8.943434715270996
 30
-194.2699584960937
 10
-1000.0
 20
-7.490250587463378
 30
-197.8403625488281
 10
-1000.0
 20
-53.41409683227539
 30
-63.90609741210937
 10
-1000.0
 20
-58.18684005737305
 30
-60.08171081542968
 10
-1000.0
 20
-55.02473068237304
 30
-63.6097412109375
 10
-1000.0
 20
-53.8565673828125
 30
-77.77850341796875
 10
-1000.0
 20
-55.43229675292969
 30
-78.06240844726563
 10
-1000.0
 20
-57.92824172973633
 30
-80.00230407714843
 10
-1000.0
 20
0.0000122227675092
 30
-280.0
 10
-1000.0
 20
-17.4999885559082
 30
-280.0
 10
-1000.0
 20
-17.7499885559082
 30
-279.9330139160156
 10
-1000.0
 20
-17.93300247192383
 30
-279.75
 10
-1000.0
 20
-0.7352227568626404
 30
-266.890380859375
 10
-1000.0
 20
-1.152776718139648
 30
-267.4866943359375
 10
-1000.0
 20
-1.152776718139648
 30
-268.91259765625
 10
-1000.0
 20
0.0000122227675092
 30
-269.9331970214844
 10
-1000.0
 20
0.0000122227675092
 30
-266.4661254882812
 10
-1000.0
 20
-48.84402465820312
 30
-157.6529693603515
 10
-1000.0
 20
-65.08192443847656
 30
-114.2547302246093
 10
-1000.0
 20
-68.85020446777343
 30
-91.34526062011719
 10
-1000.0
 20
-62.14349365234375
 30
-22.41067504882813
 93
      698
 90
        4
 90
       64
 90
       65
 90
        1
 90
        0
 90
        4
 90
       65
 90
       61
 90
      100
 90
        1
 90
        4
 90
       61
 90
       58
 90
      109
 90
      100
 90
        4
 90
       58
 90
       53
 90
       13
 90
      109
 90
        4
 90
       53
 90
       50
 90
       14
 90
       13
 90
        4
 90
       50
 90
       46
 90
      114
 90
       14
 90
        4
 90
       46
 90
       44
 90
       21
 90
      114
 90
        4
 90
       44
 90
       42
 90
       22
 90
       21
 90
        4
 90
       42
 90
       23
 90
      115
 90
       22
 90
        4
 90
       23
 90
       37
 90
      113
 90
      115
 90
        4
 90
       37
 90
       38
 90
       20
 90
      113
 90
        4
 90
       38
 90
       39
 90
       26
 90
       20
 90
        4
 90
       39
 90
       40
 90
      116
 90
       26
 90
        4
 90
       40
 90
       41
 90
      117
 90
      116
 90
        4
 90
       41
 90
       43
 90
       24
 90
      117
 90
        4
 90
       43
 90
       45
 90
      118
 90
       24
 90
        4
 90
       45
 90
       47
 90
       25
 90
      118
 90
        4
 90
       47
 90
       55
 90
        7
 90
       25
 90
        4
 90
       55
 90
       68
 90
        8
 90
        7
 90
        4
 90
       68
 90
       71
 90
        9
 90
        8
 90
        4
 90
       71
 90
       74
 90
       10
 90
        9
 90
        4
 90
       74
 90
       77
 90
       11
 90
       10
 90
        4
 90
       77
 90
       79
 90
       12
 90
       11
 90
        4
 90
       79
 90
       80
 90
      111
 90
       12
 90
        4
 90
       80
 90
       81
 90
      112
 90
      111
 90
        4
 90
       81
 90
       34
 90
        6
 90
      112
 90
        4
 90
       34
 90
       35
 90
      108
 90
        6
 90
        4
 90
       35
 90
       96
 90
       15
 90
      108
 90
        4
 90
       96
 90
       97
 90
       16
 90
       15
 90
        4
 90
       97
 90
       95
 90
      110
 90
       16
 90
        4
 90
       95
 90
       91
 90
      106
 90
      110
 90
        4
 90
       91
 90
       92
 90
      107
 90
      106
 90
        4
 90
       92
 90
       93
 90
      127
 90
      107
 90
        4
 90
       93
 90
       94
 90
      123
 90
      127
 90
        4
 90
       94
 90
       90
 90
      124
 90
      123
 90
        4
 90
       90
 90
       88
 90
       27
 90
      124
 90
        4
 90
       88
 90
       86
 90
      125
 90
       27
 90
        4
 90
       86
 90
       82
 90
       28
 90
      125
 90
        4
 90
       82
 90
       83
 90
      126
 90
       28
 90
        4
 90
       83
 90
       84
 90
      119
 90
      126
 90
        4
 90
       84
 90
       85
 90
      120
 90
      119
 90
        4
 90
       85
 90
       87
 90
      121
 90
      120
 90
        4
 90
       87
 90
       89
 90
      122
 90
      121
 90
        4
 90
       89
 90
       36
 90
       98
 90
      122
 90
        4
 90
       36
 90
       33
 90
       99
 90
       98
 90
        4
 90
       33
 90
       78
 90
        2
 90
       99
 90
        4
 90
       75
 90
       76
 90
      101
 90
       29
 90
        4
 90
       72
 90
       73
 90
        3
 90
      128
 90
        4
 90
       69
 90
       70
 90
      102
 90
       30
 90
        4
 90
       66
 90
       67
 90
        4
 90
      129
 90
        4
 90
       54
 90
       51
 90
      103
 90
      130
 90
        4
 90
       48
 90
       49
 90
      104
 90
       31
 90
        4
 90
       52
 90
       56
 90
        5
 90
       32
 90
        4
 90
       57
 90
       59
 90
      105
 90
      131
 90
        4
 90
       59
 90
       60
 90
       17
 90
      105
 90
        4
 90
       60
 90
       62
 90
       18
 90
       17
 90
        4
 90
       62
 90
       63
 90
       19
 90
       18
 90
        4
 90
       63
 90
       64
 90
        0
 90
       19
 90
        4
 90
       78
 90
       75
 90
       29
 90
        2
 90
        4
 90
       76
 90
       72
 90
      128
 90
      101
 90
        4
 90
       73
 90
       69
 90
       30
 90
        3
 90
        4
 90
       70
 90
       66
 90
      129
 90
      102
 90
        4
 90
       67
 90
       54
 90
      130
 90
        4
 90
        4
 90
       51
 90
       48
 90
       31
 90
      103
 90
        4
 90
       49
 90
       52
 90
       32
 90
      104
 90
        4
 90
       56
 90
       57
 90
      131
 90
        5
 90
        4
 90
       99
 90
        6
 90
      108
 90
       98
 90
        4
 90
      113
 90
       20
 90
       26
 90
      116
 90
        4
 90
      115
 90
      113
 90
      116
 90
      117
 90
        4
 90
       22
 90
      115
 90
      117
 90
       24
 90
        4
 90
       21
 90
       22
 90
       24
 90
      118
 90
        4
 90
      114
 90
       21
 90
      118
 90
       25
 90
        4
 90
       31
 90
      104
 90
       14
 90
      114
 90
        4
 90
      103
 90
       31
 90
      114
 90
       25
 90
        4
 90
      104
 90
       32
 90
       13
 90
       14
 90
        4
 90
      130
 90
      103
 90
       25
 90
        7
 90
        3
 90
       32
 90
        5
 90
       13
 90
        4
 90
        5
 90
      131
 90
      109
 90
       13
 90
        3
 90
      131
 90
      105
 90
      109
 90
        4
 90
      105
 90
       17
 90
      100
 90
      109
 90
        3
 90
       17
 90
       18
 90
      100
 90
        3
 90
       18
 90
       19
 90
      100
 90
        3
 90
        0
 90
        1
 90
      100
 90
        3
 90
       19
 90
        0
 90
      100
 90
        3
 90
      129
 90
        4
 90
        8
 90
        4
 90
        4
 90
      130
 90
        7
 90
        8
 90
        3
 90
       30
 90
      102
 90
        9
 90
        4
 90
      102
 90
      129
 90
        8
 90
        9
 90
        3
 90
      128
 90
        3
 90
       10
 90
        4
 90
        3
 90
       30
 90
        9
 90
       10
 90
        3
 90
       29
 90
      101
 90
       11
 90
        4
 90
      101
 90
      128
 90
       10
 90
       11
 90
        3
 90
        2
 90
       29
 90
       11
 90
        3
 90
       99
 90
       12
 90
      111
 90
        4
 90
       99
 90
        2
 90
       11
 90
       12
 90
        3
 90
       99
 90
      111
 90
      112
 90
        3
 90
       99
 90
      112
 90
        6
 90
        4
 90
       28
 90
      126
 90
      119
 90
      120
 90
        4
 90
      125
 90
       28
 90
      120
 90
      121
 90
        4
 90
       27
 90
      125
 90
      121
 90
      122
 90
        4
 90
      124
 90
       27
 90
      122
 90
       98
 90
        4
 90
      106
 90
      107
 90
      127
 90
      123
 90
        4
 90
      110
 90
      106
 90
      123
 90
      124
 90
        3
 90
       15
 90
       16
 90
       98
 90
        4
 90
       16
 90
      110
 90
      124
 90
       98
 90
        3
 90
      108
 90
       15
 90
       98
 90
        4
 90
       33
 90
       36
 90
       35
 90
       34
 90
        4
 90
       37
 90
       40
 90
       39
 90
       38
 90
        4
 90
       23
 90
       41
 90
       40
 90
       37
 90
        4
 90
       42
 90
       43
 90
       41
 90
       23
 90
        4
 90
       44
 90
       45
 90
       43
 90
       42
 90
        4
 90
       46
 90
       47
 90
       45
 90
       44
 90
        4
 90
       48
 90
       46
 90
       50
 90
       49
 90
        4
 90
       51
 90
       47
 90
       46
 90
       48
 90
        4
 90
       49
 90
       50
 90
       53
 90
       52
 90
        4
 90
       54
 90
       55
 90
       47
 90
       51
 90
        3
 90
       52
 90
       53
 90
       56
 90
        4
 90
       56
 90
       53
 90
       58
 90
       57
 90
        3
 90
       57
 90
       58
 90
       59
 90
        4
 90
       59
 90
       58
 90
       61
 90
       60
 90
        3
 90
       60
 90
       61
 90
       62
 90
        3
 90
       62
 90
       61
 90
       63
 90
        3
 90
       64
 90
       61
 90
       65
 90
        3
 90
       63
 90
       61
 90
       64
 90
        3
 90
       66
 90
       68
 90
       67
 90
        4
 90
       67
 90
       68
 90
       55
 90
       54
 90
        3
 90
       69
 90
       71
 90
       70
 90
        4
 90
       70
 90
       71
 90
       68
 90
       66
 90
        3
 90
       72
 90
       74
 90
       73
 90
        4
 90
       73
 90
       74
 90
       71
 90
       69
 90
        3
 90
       75
 90
       77
 90
       76
 90
        4
 90
       76
 90
       77
 90
       74
 90
       72
 90
        3
 90
       78
 90
       77
 90
       75
 90
        3
 90
       33
 90
       80
 90
       79
 90
        4
 90
       33
 90
       79
 90
       77
 90
       78
 90
        3
 90
       33
 90
       81
 90
       80
 90
        3
 90
       33
 90
       34
 90
       81
 90
        4
 90
       82
 90
       85
 90
       84
 90
       83
 90
        4
 90
       86
 90
       87
 90
       85
 90
       82
 90
        4
 90
       88
 90
       89
 90
       87
 90
       86
 90
        4
 90
       90
 90
       36
 90
       89
 90
       88
 90
        4
 90
       91
 90
       94
 90
       93
 90
       92
 90
        4
 90
       95
 90
       90
 90
       94
 90
       91
 90
        3
 90
       96
 90
       36
 90
       97
 90
        4
 90
       97
 90
       36
 90
       90
 90
       95
 90
        3
 90
       35
 90
       36
 90
       96
 94
      276
 90
       64
 90
       65
 90
        1
 90
       65
 90
        0
 90
        1
 90
        0
 90
       64
 90
       61
 90
       65
 90
       61
 90
      100
 90
        1
 90
      100
 90
       58
 90
       61
 90
       58
 90
      109
 90
      100
 90
      109
 90
       53
 90
       58
 90
       13
 90
       53
 90
       13
 90
      109
 90
       50
 90
       53
 90
       14
 90
       50
 90
       13
 90
       14
 90
       46
 90
       50
 90
       46
 90
      114
 90
       14
 90
      114
 90
       44
 90
       46
 90
       21
 90
       44
 90
       21
 90
      114
 90
       42
 90
       44
 90
       22
 90
       42
 90
       21
 90
       22
 90
       23
 90
       42
 90
       23
 90
      115
 90
       22
 90
      115
 90
       23
 90
       37
 90
       37
 90
      113
 90
      113
 90
      115
 90
       37
 90
       38
 90
       20
 90
       38
 90
       20
 90
      113
 90
       38
 90
       39
 90
       26
 90
       39
 90
       20
 90
       26
 90
       39
 90
       40
 90
       40
 90
      116
 90
       26
 90
      116
 90
       40
 90
       41
 90
       41
 90
      117
 90
      116
 90
      117
 90
       41
 90
       43
 90
       24
 90
       43
 90
       24
 90
      117
 90
       43
 90
       45
 90
       45
 90
      118
 90
       24
 90
      118
 90
       45
 90
       47
 90
       25
 90
       47
 90
       25
 90
      118
 90
       47
 90
       55
 90
        7
 90
       55
 90
        7
 90
       25
 90
       55
 90
       68
 90
        8
 90
       68
 90
        7
 90
        8
 90
       68
 90
       71
 90
        9
 90
       71
 90
        8
 90
        9
 90
       71
 90
       74
 90
       10
 90
       74
 90
        9
 90
       10
 90
       74
 90
       77
 90
       11
 90
       77
 90
       10
 90
       11
 90
       77
 90
       79
 90
       12
 90
       79
 90
       11
 90
       12
 90
       79
 90
       80
 90
       80
 90
      111
 90
       12
 90
      111
 90
       80
 90
       81
 90
       81
 90
      112
 90
      111
 90
      112
 90
       34
 90
       81
 90
        6
 90
       34
 90
        6
 90
      112
 90
       34
 90
       35
 90
       35
 90
      108
 90
        6
 90
      108
 90
       35
 90
       96
 90
       15
 90
       96
 90
       15
 90
      108
 90
       96
 90
       97
 90
       16
 90
       97
 90
       15
 90
       16
 90
       95
 90
       97
 90
       95
 90
      110
 90
       16
 90
      110
 90
       91
 90
       95
 90
       91
 90
      106
 90
      106
 90
      110
 90
       91
 90
       92
 90
       92
 90
      107
 90
      106
 90
      107
 90
       92
 90
       93
 90
       93
 90
      127
 90
      107
 90
      127
 90
       93
 90
       94
 90
       94
 90
      123
 90
      123
 90
      127
 90
       90
 90
       94
 90
       90
 90
      124
 90
      123
 90
      124
 90
       88
 90
       90
 90
       27
 90
       88
 90
       27
 90
      124
 90
       86
 90
       88
 90
       86
 90
      125
 90
       27
 90
      125
 90
       82
 90
       86
 90
       28
 90
       82
 90
       28
 90
      125
 90
       82
 90
       83
 90
       83
 90
      126
 90
       28
 90
      126
 90
       83
 90
       84
 90
       84
 90
      119
 90
      119
 90
      126
 90
       84
 90
       85
 90
       85
 90
      120
 90
      119
 90
      120
 90
       85
 90
       87
 90
       87
 90
      121
 90
      120
 90
      121
 90
       87
 90
       89
 90
       89
 90
      122
 90
      121
 90
      122
 90
       36
 90
       89
 90
       36
 90
       98
 90
       98
 90
      122
 90
       33
 90
       36
 90
       33
 90
       99
 90
       98
 90
       99
 90
       33
 90
       78
 90
        2
 90
       78
 90
        2
 90
       99
 90
       75
 90
       76
 90
       76
 90
      101
 90
       29
 90
      101
 90
       29
 90
       75
 90
       72
 90
       73
 90
        3
 90
       73
 90
        3
 90
      128
 90
       72
 90
      128
 90
       69
 90
       70
 90
       70
 90
      102
 90
       30
 90
      102
 90
       30
 90
       69
 90
       66
 90
       67
 90
        4
 90
       67
 90
        4
 90
      129
 90
       66
 90
      129
 90
       51
 90
       54
 90
       51
 90
      103
 90
      103
 90
      130
 90
       54
 90
      130
 90
       48
 90
       49
 90
       49
 90
      104
 90
       31
 90
      104
 90
       31
 90
       48
 90
       52
 90
       56
 90
        5
 90
       56
 90
        5
 90
       32
 90
       32
 90
       52
 90
       57
 90
       59
 90
       59
 90
      105
 90
      105
 90
      131
 90
       57
 90
      131
 90
       59
 90
       60
 90
       17
 90
       60
 90
       17
 90
      105
 90
       60
 90
       62
 90
       18
 90
       62
 90
       17
 90
       18
 90
       62
 90
       63
 90
       19
 90
       63
 90
       18
 90
       19
 90
       63
 90
       64
 90
        0
 90
       19
 90
       75
 90
       78
 90
        2
 90
       29
 90
       72
 90
       76
 90
      101
 90
      128
 90
       69
 90
       73
 90
        3
 90
       30
 90
       66
 90
       70
 90
      102
 90
      129
 90
       54
 90
       67
 90
        4
 90
      130
 90
       48
 90
       51
 90
       31
 90
      103
 90
       49
 90
       52
 90
       32
 90
      104
 90
       56
 90
       57
 90
        5
 90
      131
 90
        6
 90
       99
 90
       98
 90
      108
 90
      113
 90
      116
 90
      115
 90
      117
 90
       22
 90
       24
 90
       21
 90
      118
 90
       25
 90
      114
 90
       14
 90
      104
 90
       31
 90
      114
 90
       25
 90
      103
 90
       13
 90
       32
 90
        7
 90
      130
 90
        5
 90
       13
 90
      109
 90
      131
 90
      105
 90
      109
 90
       17
 90
      100
 90
       18
 90
      100
 90
       19
 90
      100
 90
        0
 90
      100
 90
        4
 90
        8
 90
        8
 90
      129
 90
        9
 90
      102
 90
        9
 90
       30
 90
        3
 90
       10
 90
       10
 90
      128
 90
       11
 90
      101
 90
       11
 90
       29
 90
        2
 90
       11
 90
       12
 90
       99
 90
       99
 90
      111
 90
       99
 90
      112
 90
       28
 90
      120
 90
      121
 90
      125
 90
       27
 90
      122
 90
       98
 90
      124
 90
      106
 90
      123
 90
      110
 90
      124
 90
       16
 90
       98
 90
       15
 90
       98
 90
       35
 90
       36
 90
       33
 90
       34
 90
       37
 90
       40
 90
       23
 90
       41
 90
       42
 90
       43
 90
       44
 90
       45
 90
       46
 90
       47
 90
       46
 90
       48
 90
       49
 90
       50
 90
       47
 90
       51
 90
       52
 90
       53
 90
       54
 90
       55
 90
       53
 90
       56
 90
       57
 90
       58
 90
       58
 90
       59
 90
       60
 90
       61
 90
       61
 90
       62
 90
       61
 90
       63
 90
       61
 90
       64
 90
       66
 90
       68
 90
       67
 90
       68
 90
       69
 90
       71
 90
       70
 90
       71
 90
       72
 90
       74
 90
       73
 90
       74
 90
       75
 90
       77
 90
       76
 90
       77
 90
       77
 90
       78
 90
       33
 90
       80
 90
       33
 90
       79
 90
       33
 90
       81
 90
       82
 90
       85
 90
       86
 90
       87
 90
       88
 90
       89
 90
       36
 90
       90
 90
       91
 90
       94
 90
       90
 90
       95
 90
       36
 90
       96
 90
       36
 90
       97
 95
      276
140
0.0
140
0.0
140
0.0
140
0.0
140
0.0
140
0.0
140
0.0
140
0.0
140
0.0
140
0.0
140
0.0
140
0.0
140
0.0
140
0.0
140
0.0
140
0.0
140
0.0
140
0.0
140
0.0
140
0.0
140
0.0
140
0.0
140
0.0
140
0.0
140
0.0
140
0.0
140
0.0
140
0.0
140
0.0
140
0.0
140
0.0
140
0.0
140
0.0
140
0.0
140
0.0
140
0.0
140
0.0
140
0.0
140
0.0
140
0.0
140
0.0
140
0.0
140
0.0
140
0.0
140
0.0
140
0.0
140
0.0
140
0.0
140
0.0
140
0.0
140
0.0
140
0.0
140
0.0
140
0.0
140
0.0
140
0.0
140
0.0
140
0.0
140
0.0
140
0.0
140
0.0
140
0.0
140
0.0
140
0.0
140
0.0
140
0.0
140
0.0
140
0.0
140
0.0
140
0.0
140
0.0
140
0.0
140
0.0
140
0.0
140
0.0
140
0.0
140
0.0
140
0.0
140
0.0
140
0.0
140
0.0
140
0.0
140
0.0
140
0.0
140
0.0
140
0.0
140
0.0
140
0.0
140
0.0
140
0.0
140
0.0
140
0.0
140
0.0
140
0.0
140
0.0
140
0.0
140
0.0
140
0.0
140
0.0
140
0.0
140
0.0
140
0.0
140
0.0
140
0.0
140
0.0
140
0.0
140
0.0
140
0.0
140
0.0
140
0.0
140
0.0
140
0.0
140
0.0
140
0.0
140
0.0
140
0.0
140
0.0
140
0.0
140
0.0
140
0.0
140
0.0
140
0.0
140
0.0
140
0.0
140
0.0
140
0.0
140
0.0
140
0.0
140
0.0
140
0.0
140
0.0
140
0.0
140
0.0
140
0.0
140
0.0
140
0.0
140
0.0
140
0.0
140
0.0
140
0.0
140
0.0
140
0.0
140
0.0
140
0.0
140
0.0
140
0.0
140
0.0
140
0.0
140
0.0
140
0.0
140
0.0
140
0.0
140
0.0
140
0.0
140
0.0
140
0.0
140
0.0
140
0.0
140
0.0
140
0.0
140
0.0
140
0.0
140
0.0
140
0.0
140
0.0
140
0.0
140
0.0
140
0.0
140
0.0
140
0.0
140
0.0
140
0.0
140
0.0
140
0.0
140
0.0
140
0.0
140
0.0
140
0.0
140
0.0
140
0.0
140
0.0
140
0.0
140
0.0
140
0.0
140
0.0
140
0.0
140
0.0
140
0.0
140
0.0
140
0.0
140
0.0
140
0.0
140
0.0
140
0.0
140
0.0
140
0.0
140
0.0
140
0.0
140
0.0
140
0.0
140
0.0
140
0.0
140
0.0
140
0.0
140
0.0
140
0.0
140
0.0
140
0.0
140
0.0
140
0.0
140
0.0
140
0.0
140
0.0
140
0.0
140
0.0
140
0.0
140
0.0
140
0.0
140
0.0
140
0.0
140
0.0
140
0.0
140
0.0
140
0.0
140
0.0
140
0.0
140
0.0
140
0.0
140
0.0
140
0.0
140
0.0
140
0.0
140
0.0
140
0.0
140
0.0
140
0.0
140
0.0
140
0.0
140
0.0
140
0.0
140
0.0
140
0.0
140
0.0
140
0.0
140
0.0
140
0.0
140
0.0
140
0.0
140
0.0
140
0.0
140
0.0
140
0.0
140
0.0
140
0.0
140
0.0
140
0.0
140
0.0
140
0.0
140
0.0
140
0.0
140
0.0
140
0.0
140
0.0
140
0.0
140
0.0
140
0.0
140
0.0
140
0.0
140
0.0
140
0.0
140
0.0
140
0.0
140
0.0
140
0.0
140
0.0
140
0.0
 90
        0
  0
ENDSEC
  0
SECTION
  2
OBJECTS
  0
DICTIONARY
  5
C
330
0
100
AcDbDictionary
281
     1
  3
ACAD_COLOR
350
DC
  3
ACAD_DETAILVIEWSTYLE
350
F5
  3
ACAD_GROUP
350
D
  3
ACAD_LAYOUT
350
1A
  3
ACAD_MATERIAL
350
AA
  3
ACAD_MLEADERSTYLE
350
F1
  3
ACAD_MLINESTYLE
350
17
  3
ACAD_PLOTSETTINGS
350
19
  3
ACAD_PLOTSTYLENAME
350
E
  3
ACAD_SCALELIST
350
DF
  3
ACAD_SECTIONVIEWSTYLE
350
F3
  3
ACAD_TABLESTYLE
350
DD
  3
ACAD_VISUALSTYLE
350
C3
  3
ACDB_RECOMPOSE_DATA
350
14A
  3
AcDbVariableDictionary
350
13E
  0
DICTIONARY
  5
DC
102
{ACAD_REACTORS
330
C
102
}
330
C
100
AcDbDictionary
281
     1
  0
DICTIONARY
  5
F5
102
{ACAD_REACTORS
330
C
102
}
330
C
100
AcDbDictionary
281
     1
  3
Imperial24
350
F6
  0
DICTIONARY
  5
D
102
{ACAD_REACTORS
330
C
102
}
330
C
100
AcDbDictionary
281
     1
  0
DICTIONARY
  5
1A
102
{ACAD_REACTORS
330
C
102
}
330
C
100
AcDbDictionary
281
     1
  3
Layout1
350
1E
  3
Layout2
350
26
  3
Model
350
22
  0
DICTIONARY
  5
AA
102
{ACAD_REACTORS
330
C
102
}
330
C
100
AcDbDictionary
281
     1
  3
ByBlock
350
B3
  3
ByLayer
350
AB
  3
Global
350
BB
  0
DICTIONARY
  5
F1
102
{ACAD_REACTORS
330
C
102
}
330
C
100
AcDbDictionary
281
     1
  3
Standard
350
F2
  0
DICTIONARY
  5
17
102
{ACAD_REACTORS
330
C
102
}
330
C
100
AcDbDictionary
281
     1
  3
Standard
350
18
  0
DICTIONARY
  5
19
102
{ACAD_REACTORS
330
C
102
}
330
C
100
AcDbDictionary
281
     1
  0
ACDBDICTIONARYWDFLT
  5
E
102
{ACAD_REACTORS
330
C
102
}
330
C
100
AcDbDictionary
281
     1
  3
ByLayer
350
2D
  3
Normal
350
F
100
AcDbDictionaryWithDefault
340
F
  0
DICTIONARY
  5
DF
102
{ACAD_REACTORS
330
C
102
}
330
C
100
AcDbDictionary
281
     1
  3
A0
350
E0
  3
A1
350
E1
  3
A2
350
E2
  3
A3
350
E3
  3
A4
350
E4
  3
A5
350
E5
  3
A6
350
E6
  3
A7
350
E7
  3
A8
350
E8
  3
A9
350
E9
  3
B0
350
EA
  3
B1
350
EB
  3
B2
350
EC
  3
B3
350
ED
  3
B4
350
EE
  3
B5
350
EF
  3
B6
350
F0
  0
DICTIONARY
  5
F3
102
{ACAD_REACTORS
330
C
102
}
330
C
100
AcDbDictionary
281
     1
  3
Imperial24
350
F4
  0
DICTIONARY
  5
DD
102
{ACAD_REACTORS
330
C
102
}
330
C
100
AcDbDictionary
281
     1
  3
Standard
350
DE
  0
DICTIONARY
  5
C3
102
{ACAD_REACTORS
330
C
102
}
330
C
100
AcDbDictionary
281
     1
  3
2dWireframe
350
C9
  3
Basic
350
C8
  3
Brighten
350
CF
  3
ColorChange
350
D3
  3
Conceptual
350
CC
  3
Dim
350
CE
  3
EdgeColorOff
350
DB
  3
Facepattern
350
D2
  3
Flat
350
C4
  3
FlatWithEdges
350
C5
  3
Gouraud
350
C6
  3
GouraudWithEdges
350
C7
  3
Hidden
350
CB
  3
JitterOff
350
D9
  3
Linepattern
350
D1
  3
OverhangOff
350
DA
  3
Realistic
350
CD
  3
Shaded
350
D8
  3
Shaded with edges
350
D7
  3
Shades of Gray
350
D4
  3
Sketchy
350
D5
  3
Thicken
350
D0
  3
Wireframe
350
CA
  3
X-Ray
350
D6
  0
XRECORD
  5
14A
102
{ACAD_REACTORS
330
C
102
}
330
C
100
AcDbXrecord
280
     1
 90
        1
330
DE
  0
DICTIONARY
  5
13E
102
{ACAD_REACTORS
330
C
102
}
330
C
100
AcDbDictionary
281
     1
  3
CANNOSCALE
350
144
  3
CMLEADERSTYLE
350
140
  3
CTABLESTYLE
350
13F
  3
CVIEWDETAILSTYLE
350
141
  3
CVIEWSECTIONSTYLE
350
142
  3
LAYEREVAL
350
146
  3
LAYERNOTIFY
350
147
  3
LIGHTINGUNITS
350
145
  3
MSLTSCALE
350
143
  0
ACDBDETAILVIEWSTYLE
  5
F6
102
{ACAD_XDICTIONARY
360
17F
102
}
102
{ACAD_REACTORS
330
F5
102
}
330
F5
100
AcDbModelDocViewStyle
 70
     0
  3
Imperial24
290
     0
100
AcDbDetailViewStyle
 70
     0
 71
     0
 90
        3
 71
     1
340
11
 62
   256
 40
0.24
340
0
 62
   256
 40
0.24
300

 40
0.36
280
     3
 71
     2
340
16
 90
       25
 62
   256
 71
     3
340
11
 62
   256
 40
0.24
 90
        1
 40
0.75
 90
        1
300
%<\AcVar ViewType \f "%tc1">% %<\AcVar ViewDetailId>%\PSCALE %<\AcVar ViewScale \f "%sn">%
 71
     4
340
16
 90
       25
 62
   256
340
16
 90
       25
 62
   256
280
     0
  0
LAYOUT
  5
1E
102
{ACAD_REACTORS
330
1A
102
}
330
1A
100
AcDbPlotSettings
  1

  2
\\KTXNTBDC\CASF2PN1
  4

  6

 40
0.0
 41
0.0
 42
0.0
 43
0.0
 44
0.0
 45
0.0
 46
0.0
 47
0.0
 48
0.0
 49
0.0
140
0.0
141
0.0
142
1.0
143
1.0
 70
   688
 72
     0
 73
     0
 74
     5
  7

 75
    16
147
1.0
 76
     0
 77
     2
 78
   300
148
0.0
149
0.0
100
AcDbLayout
  1
Layout1
 70
     1
 71
     1
 10
0.0
 20
0.0
 11
12.0
 21
9.0
 12
0.0
 22
0.0
 32
0.0
 14
1.000000000000000E+20
 24
1.000000000000000E+20
 34
1.000000000000000E+20
 15
-1.000000000000000E+20
 25
-1.000000000000000E+20
 35
-1.000000000000000E+20
146
0.0
 13
0.0
 23
0.0
 33
0.0
 16
1.0
 26
0.0
 36
0.0
 17
0.0
 27
1.0
 37
0.0
 76
     0
330
1B
  0
LAYOUT
  5
26
102
{ACAD_REACTORS
330
1A
102
}
330
1A
100
AcDbPlotSettings
  1

  2
\\KTXNTBDC\CASF2PN1
  4

  6

 40
0.0
 41
0.0
 42
0.0
 43
0.0
 44
0.0
 45
0.0
 46
0.0
 47
0.0
 48
0.0
 49
0.0
140
0.0
141
0.0
142
1.0
143
1.0
 70
   688
 72
     0
 73
     0
 74
     5
  7

 75
    16
147
1.0
 76
     0
 77
     2
 78
   300
148
0.0
149
0.0
100
AcDbLayout
  1
Layout2
 70
     1
 71
     2
 10
0.0
 20
0.0
 11
12.0
 21
9.0
 12
0.0
 22
0.0
 32
0.0
 14
0.0
 24
0.0
 34
0.0
 15
0.0
 25
0.0
 35
0.0
146
0.0
 13
0.0
 23
0.0
 33
0.0
 16
1.0
 26
0.0
 36
0.0
 17
0.0
 27
1.0
 37
0.0
 76
     0
330
23
  0
LAYOUT
  5
22
102
{ACAD_REACTORS
330
1A
102
}
330
1A
100
AcDbPlotSettings
  1

  2
\\KTXNTBDC\CASF2PN1
  4

  6

 40
0.0
 41
0.0
 42
0.0
 43
0.0
 44
0.0
 45
0.0
 46
0.0
 47
0.0
 48
0.0
 49
0.0
140
0.0
141
0.0
142
1.0
143
1.0
 70
  1712
 72
     0
 73
     0
 74
     0
  7

 75
     0
147
1.0
 76
     0
 77
     2
 78
   300
148
0.0
149
0.0
100
AcDbLayout
  1
Model
 70
     1
 71
     0
 10
0.0
 20
0.0
 11
12.0
 21
9.0
 12
0.0
 22
0.0
 32
0.0
 14
0.0
 24
0.0
 34
0.0
 15
0.0
 25
0.0
 35
0.0
146
0.0
 13
0.0
 23
0.0
 33
0.0
 16
1.0
 26
0.0
 36
0.0
 17
0.0
 27
1.0
 37
0.0
 76
     0
330
1F
  0
MATERIAL
  5
B3
102
{ACAD_XDICTIONARY
360
B4
102
}
102
{ACAD_REACTORS
330
AA
102
}
330
AA
100
AcDbMaterial
  1
ByBlock
 72
     0
 43
0.0208333333333333
 43
0.0
 43
0.0
 43
0.0
 43
0.0
 43
0.0208333333333333
 43
0.0
 43
0.0
 43
0.0
 43
0.0
 43
1.0
 43
0.0
 43
0.0
 43
0.0
 43
0.0
 43
1.0
 77
     0
 47
0.0208333333333333
 47
0.0
 47
0.0
 47
0.0
 47
0.0
 47
0.0208333333333333
 47
0.0
 47
0.0
 47
0.0
 47
0.0
 47
1.0
 47
0.0
 47
0.0
 47
0.0
 47
0.0
 47
1.0
171
     0
 49
0.0208333333333333
 49
0.0
 49
0.0
 49
0.0
 49
0.0
 49
0.0208333333333333
 49
0.0
 49
0.0
 49
0.0
 49
0.0
 49
1.0
 49
0.0
 49
0.0
 49
0.0
 49
0.0
 49
1.0
175
     0
142
0.0208333333333333
142
0.0
142
0.0
142
0.0
142
0.0
142
0.0208333333333333
142
0.0
142
0.0
142
0.0
142
0.0
142
1.0
142
0.0
142
0.0
142
0.0
142
0.0
142
1.0
179
     0
144
0.0208333333333333
144
0.0
144
0.0
144
0.0
144
0.0
144
0.0208333333333333
144
0.0
144
0.0
144
0.0
144
0.0
144
1.0
144
0.0
144
0.0
144
0.0
144
0.0
144
1.0
147
0.0208333333333333
147
0.0
147
0.0
147
0.0
147
0.0
147
0.0208333333333333
147
0.0
147
0.0
147
0.0
147
0.0
147
1.0
147
0.0
147
0.0
147
0.0
147
0.0
147
1.0
  0
MATERIAL
  5
AB
102
{ACAD_XDICTIONARY
360
AC
102
}
102
{ACAD_REACTORS
330
AA
102
}
330
AA
100
AcDbMaterial
  1
ByLayer
 72
     0
 43
0.0208333333333333
 43
0.0
 43
0.0
 43
0.0
 43
0.0
 43
0.0208333333333333
 43
0.0
 43
0.0
 43
0.0
 43
0.0
 43
1.0
 43
0.0
 43
0.0
 43
0.0
 43
0.0
 43
1.0
 77
     0
 47
0.0208333333333333
 47
0.0
 47
0.0
 47
0.0
 47
0.0
 47
0.0208333333333333
 47
0.0
 47
0.0
 47
0.0
 47
0.0
 47
1.0
 47
0.0
 47
0.0
 47
0.0
 47
0.0
 47
1.0
171
     0
 49
0.0208333333333333
 49
0.0
 49
0.0
 49
0.0
 49
0.0
 49
0.0208333333333333
 49
0.0
 49
0.0
 49
0.0
 49
0.0
 49
1.0
 49
0.0
 49
0.0
 49
0.0
 49
0.0
 49
1.0
175
     0
142
0.0208333333333333
142
0.0
142
0.0
142
0.0
142
0.0
142
0.0208333333333333
142
0.0
142
0.0
142
0.0
142
0.0
142
1.0
142
0.0
142
0.0
142
0.0
142
0.0
142
1.0
179
     0
144
0.0208333333333333
144
0.0
144
0.0
144
0.0
144
0.0
144
0.0208333333333333
144
0.0
144
0.0
144
0.0
144
0.0
144
1.0
144
0.0
144
0.0
144
0.0
144
0.0
144
1.0
147
0.0208333333333333
147
0.0
147
0.0
147
0.0
147
0.0
147
0.0208333333333333
147
0.0
147
0.0
147
0.0
147
0.0
147
1.0
147
0.0
147
0.0
147
0.0
147
0.0
147
1.0
  0
MATERIAL
  5
BB
102
{ACAD_XDICTIONARY
360
BC
102
}
102
{ACAD_REACTORS
330
AA
102
}
330
AA
100
AcDbMaterial
  1
Global
 72
     0
 43
0.0208333333333333
 43
0.0
 43
0.0
 43
0.0
 43
0.0
 43
0.0208333333333333
 43
0.0
 43
0.0
 43
0.0
 43
0.0
 43
1.0
 43
0.0
 43
0.0
 43
0.0
 43
0.0
 43
1.0
 77
     0
 47
0.0208333333333333
 47
0.0
 47
0.0
 47
0.0
 47
0.0
 47
0.0208333333333333
 47
0.0
 47
0.0
 47
0.0
 47
0.0
 47
1.0
 47
0.0
 47
0.0
 47
0.0
 47
0.0
 47
1.0
171
     0
 49
0.0208333333333333
 49
0.0
 49
0.0
 49
0.0
 49
0.0
 49
0.0208333333333333
 49
0.0
 49
0.0
 49
0.0
 49
0.0
 49
1.0
 49
0.0
 49
0.0
 49
0.0
 49
0.0
 49
1.0
175
     0
142
0.0208333333333333
142
0.0
142
0.0
142
0.0
142
0.0
142
0.0208333333333333
142
0.0
142
0.0
142
0.0
142
0.0
142
1.0
142
0.0
142
0.0
142
0.0
142
0.0
142
1.0
179
     0
144
0.0208333333333333
144
0.0
144
0.0
144
0.0
144
0.0
144
0.0208333333333333
144
0.0
144
0.0
144
0.0
144
0.0
144
1.0
144
0.0
144
0.0
144
0.0
144
0.0
144
1.0
147
0.0208333333333333
147
0.0
147
0.0
147
0.0
147
0.0
147
0.0208333333333333
147
0.0
147
0.0
147
0.0
147
0.0
147
1.0
147
0.0
147
0.0
147
0.0
147
0.0
147
1.0
  0
MLEADERSTYLE
  5
F2
102
{ACAD_XDICTIONARY
360
17B
102
}
102
{ACAD_REACTORS
330
F1
102
}
330
F1
100
AcDbMLeaderStyle
179
     2
170
     2
171
     1
172
     0
 90
        2
 40
0.0
 41
0.0
173
     1
 91
-1056964608
340
14
 92
       -2
290
     1
 42
0.09
291
     1
 43
0.36
  3
Standard
 44
0.18
300

342
11
174
     1
178
     6
175
     1
176
     0
 93
-1056964608
 45
0.18
292
     0
297
     0
 46
0.18
 94
-1056964608
 47
1.0
 49
1.0
140
1.0
293
     1
141
0.0
294
     1
177
     0
142
1.0
295
     0
296
     0
143
0.125
271
     0
272
     9
273
     9
  0
MLINESTYLE
  5
18
102
{ACAD_REACTORS
330
17
102
}
330
17
100
AcDbMlineStyle
  2
STANDARD
 70
     0
  3

 62
   256
 51
90.0
 52
90.0
 71
     2
 49
0.5
 62
   256
  6
BYLAYER
 49
-0.5
 62
   256
  6
BYLAYER
  0
ACDBPLACEHOLDER
  5
2D
102
{ACAD_REACTORS
330
E
102
}
330
E
  0
ACDBPLACEHOLDER
  5
F
102
{ACAD_REACTORS
330
E
102
}
330
E
  0
SCALE
  5
E0
102
{ACAD_REACTORS
330
DF
102
}
330
DF
100
AcDbScale
 70
     0
300
1:1
140
1.0
141
1.0
290
     1
  0
SCALE
  5
E1
102
{ACAD_REACTORS
330
DF
102
}
330
DF
100
AcDbScale
 70
     0
300
1/128" = 1'-0"
140
0.0078125
141
12.0
290
     0
  0
SCALE
  5
E2
102
{ACAD_REACTORS
330
DF
102
}
330
DF
100
AcDbScale
 70
     0
300
1/64" = 1'-0"
140
0.015625
141
12.0
290
     0
  0
SCALE
  5
E3
102
{ACAD_REACTORS
330
DF
102
}
330
DF
100
AcDbScale
 70
     0
300
1/32" = 1'-0"
140
0.03125
141
12.0
290
     0
  0
SCALE
  5
E4
102
{ACAD_REACTORS
330
DF
102
}
330
DF
100
AcDbScale
 70
     0
300
1/16" = 1'-0"
140
0.0625
141
12.0
290
     0
  0
SCALE
  5
E5
102
{ACAD_REACTORS
330
DF
102
}
330
DF
100
AcDbScale
 70
     0
300
3/32" = 1'-0"
140
0.09375
141
12.0
290
     0
  0
SCALE
  5
E6
102
{ACAD_REACTORS
330
DF
102
}
330
DF
100
AcDbScale
 70
     0
300
1/8" = 1'-0"
140
0.125
141
12.0
290
     0
  0
SCALE
  5
E7
102
{ACAD_REACTORS
330
DF
102
}
330
DF
100
AcDbScale
 70
     0
300
3/16" = 1'-0"
140
0.1875
141
12.0
290
     0
  0
SCALE
  5
E8
102
{ACAD_REACTORS
330
DF
102
}
330
DF
100
AcDbScale
 70
     0
300
1/4" = 1'-0"
140
0.25
141
12.0
290
     0
  0
SCALE
  5
E9
102
{ACAD_REACTORS
330
DF
102
}
330
DF
100
AcDbScale
 70
     0
300
3/8" = 1'-0"
140
0.375
141
12.0
290
     0
  0
SCALE
  5
EA
102
{ACAD_REACTORS
330
DF
102
}
330
DF
100
AcDbScale
 70
     0
300
1/2" = 1'-0"
140
0.5
141
12.0
290
     0
  0
SCALE
  5
EB
102
{ACAD_REACTORS
330
DF
102
}
330
DF
100
AcDbScale
 70
     0
300
3/4" = 1'-0"
140
0.75
141
12.0
290
     0
  0
SCALE
  5
EC
102
{ACAD_REACTORS
330
DF
102
}
330
DF
100
AcDbScale
 70
     0
300
1" = 1'-0"
140
1.0
141
12.0
290
     0
  0
SCALE
  5
ED
102
{ACAD_REACTORS
330
DF
102
}
330
DF
100
AcDbScale
 70
     0
300
1-1/2" = 1'-0"
140
1.5
141
12.0
290
     0
  0
SCALE
  5
EE
102
{ACAD_REACTORS
330
DF
102
}
330
DF
100
AcDbScale
 70
     0
300
3" = 1'-0"
140
3.0
141
12.0
290
     0
  0
SCALE
  5
EF
102
{ACAD_REACTORS
330
DF
102
}
330
DF
100
AcDbScale
 70
     0
300
6" = 1'-0"
140
6.0
141
12.0
290
     0
  0
SCALE
  5
F0
102
{ACAD_REACTORS
330
DF
102
}
330
DF
100
AcDbScale
 70
     0
300
1'-0" = 1'-0"
140
12.0
141
12.0
290
     0
  0
ACDBSECTIONVIEWSTYLE
  5
F4
102
{ACAD_XDICTIONARY
360
17D
102
}
102
{ACAD_REACTORS
330
F3
102
}
330
F3
100
AcDbModelDocViewStyle
 70
     0
  3
Imperial24
290
     0
100
AcDbSectionViewStyle
 70
     0
 71
     0
 90
       78
 71
     1
340
11
 62
   256
 40
0.24
340
0
340
0
 62
   256
 40
0.24
300
I, O, Q, S, X, Z
 40
0.48
 90
        3
 40
0.18
 90
        1
 71
     2
340
16
 90
       25
 62
   256
340
16
 90
       50
 62
   256
 40
0.24
 40
0.0
 40
0.24
 71
     3
340
11
 62
   256
 40
0.24
 90
        1
 40
0.75
 90
        1
300
%<\AcVar ViewType \f "%tc1">% %<\AcVar ViewSectionStartId>%-%<\AcVar ViewSectionEndId>%\PSCALE %<\AcVar ViewScale \f "%sn">%
 71
     4
 62
   256
 62
   257
300
ANSI31
 40
1.0
 90
        0
290
     0
290
     0
 90
        6
 40
0.0
 40
1.570796326794896
 40
0.2617993877991494
 40
1.308996938995747
 40
-0.2617993877991494
 40
1.832595714594046
  0
TABLESTYLE
  5
DE
102
{ACAD_XDICTIONARY
360
148
102
}
102
{ACAD_REACTORS
330
DD
102
}
330
DD
100
AcDbTableStyle
280
     0
  3
Standard
 70
     0
 71
     0
 40
0.06
 41
0.06
280
     0
281
     0
  7
Standard
140
0.18
170
     2
 62
     0
 63
     7
283
     0
 90
      512
 91
        0
  1

274
    -2
284
     1
 64
     0
275
    -2
285
     1
 65
     0
276
    -2
286
     1
 66
     0
277
    -2
287
     1
 67
     0
278
    -2
288
     1
 68
     0
279
    -2
289
     1
 69
     0
  7
Standard
140
0.25
170
     5
 62
     0
 63
     7
283
     0
 90
      512
 91
        0
  1

274
    -2
284
     1
 64
     0
275
    -2
285
     1
 65
     0
276
    -2
286
     1
 66
     0
277
    -2
287
     1
 67
     0
278
    -2
288
     1
 68
     0
279
    -2
289
     1
 69
     0
  7
Standard
140
0.18
170
     5
 62
     0
 63
     7
283
     0
 90
      512
 91
        0
  1

274
    -2
284
     1
 64
     0
275
    -2
285
     1
 65
     0
276
    -2
286
     1
 66
     0
277
    -2
287
     1
 67
     0
278
    -2
288
     1
 68
     0
279
    -2
289
     1
 69
     0
  0
VISUALSTYLE
  5
C9
102
{ACAD_XDICTIONARY
360
155
102
}
102
{ACAD_REACTORS
330
C3
102
}
330
C3
100
AcDbVisualStyle
  2
2dWireframe
 70
     4
177
     2
291
     0
 71
     0
176
     1
 72
     2
176
     1
 73
     0
176
     1
 90
        0
176
     1
 40
0.6
176
     1
 41
30.0
176
     1
 63
     7
421
 16777215
176
     1
 74
     1
176
     1
 91
        4
176
     1
 64
     7
176
     1
 65
   257
176
     1
 75
     1
176
     1
175
     1
176
     1
 42
1.0
176
     1
 92
        0
176
     1
 66
   257
176
     1
 43
1.0
176
     1
 76
     1
176
     1
 77
     6
176
     1
 78
     2
176
     1
 67
     7
176
     1
 79
     5
176
     1
170
     0
176
     1
171
     0
176
     1
290
     0
176
     1
 93
        1
176
     1
 44
0.0
176
     1
173
     0
176
     1
1001
ACAD
1000
AcDbSavedByObjectVersion
1070
     0
  0
VISUALSTYLE
  5
C8
102
{ACAD_XDICTIONARY
360
153
102
}
102
{ACAD_REACTORS
330
C3
102
}
330
C3
100
AcDbVisualStyle
  2
Basic
 70
     7
177
     2
291
     1
 71
     1
176
     1
 72
     0
176
     1
 73
     1
176
     1
 90
        0
176
     1
 40
0.6
176
     1
 41
30.0
176
     1
 63
     7
421
 16777215
176
     1
 74
     0
176
     1
 91
        4
176
     1
 64
     7
176
     1
 65
   257
176
     1
 75
     1
176
     1
175
     1
176
     1
 42
1.0
176
     1
 92
        8
176
     1
 66
     7
176
     1
 43
1.0
176
     1
 76
     1
176
     1
 77
     6
176
     1
 78
     2
176
     1
 67
     7
176
     1
 79
     5
176
     1
170
     0
176
     1
171
     0
176
     1
290
     0
176
     1
 93
        1
176
     1
 44
0.0
176
     1
173
     0
176
     1
1001
ACAD
1000
AcDbSavedByObjectVersion
1070
     0
  0
VISUALSTYLE
  5
CF
102
{ACAD_XDICTIONARY
360
161
102
}
102
{ACAD_REACTORS
330
C3
102
}
330
C3
100
AcDbVisualStyle
  2
Brighten
 70
    12
177
     2
291
     1
 71
     2
176
     1
 72
     2
176
     1
 73
     0
176
     1
 90
        0
176
     1
 40
0.6
176
     1
 41
30.0
176
     1
 63
     7
421
 16777215
176
     1
 74
     1
176
     1
 91
        4
176
     1
 64
     7
176
     1
 65
   257
176
     1
 75
     1
176
     1
175
     1
176
     1
 42
1.0
176
     1
 92
        8
176
     1
 66
     7
176
     1
 43
1.0
176
     1
 76
     1
176
     1
 77
     6
176
     1
 78
     2
176
     1
 67
     7
176
     1
 79
     5
176
     1
170
     0
176
     1
171
     0
176
     1
290
     0
176
     1
 93
        1
176
     1
 44
50.0
176
     1
173
     0
176
     1
1001
ACAD
1000
AcDbSavedByObjectVersion
1070
     0
  0
VISUALSTYLE
  5
D3
102
{ACAD_XDICTIONARY
360
169
102
}
102
{ACAD_REACTORS
330
C3
102
}
330
C3
100
AcDbVisualStyle
  2
ColorChange
 70
    16
177
     2
291
     1
 71
     2
176
     1
 72
     2
176
     1
 73
     3
176
     1
 90
        0
176
     1
 40
0.6
176
     1
 41
30.0
176
     1
 63
     8
421
  8421504
176
     1
 74
     1
176
     1
 91
        4
176
     1
 64
     7
176
     1
 65
   257
176
     1
 75
     1
176
     1
175
     1
176
     1
 42
1.0
176
     1
 92
        8
176
     1
 66
     8
424
  8421504
176
     1
 43
1.0
176
     1
 76
     1
176
     1
 77
     6
176
     1
 78
     2
176
     1
 67
     7
176
     1
 79
     5
176
     1
170
     0
176
     1
171
     0
176
     1
290
     0
176
     1
 93
        1
176
     1
 44
0.0
176
     1
173
     0
176
     1
1001
ACAD
1000
AcDbSavedByObjectVersion
1070
     0
  0
VISUALSTYLE
  5
CC
102
{ACAD_XDICTIONARY
360
15B
102
}
102
{ACAD_REACTORS
330
C3
102
}
330
C3
100
AcDbVisualStyle
  2
Conceptual
 70
     9
177
     2
291
     0
 71
     3
176
     1
 72
     2
176
     1
 73
     0
176
     1
 90
        0
176
     1
 40
0.6
176
     1
 41
30.0
176
     1
 63
     7
421
 16777215
176
     1
 74
     2
176
     1
 91
        2
176
     1
 64
     7
176
     1
 65
   257
176
     1
 75
     1
176
     1
175
     1
176
     1
 42
179.0
176
     1
 92
        8
176
     1
 66
     7
176
     1
 43
1.0
176
     1
 76
     1
176
     1
 77
     6
176
     1
 78
     2
176
     1
 67
     7
176
     1
 79
     3
176
     1
170
     0
176
     1
171
     0
176
     1
290
     0
176
     1
 93
        1
176
     1
 44
0.0
176
     1
173
     0
176
     1
1001
ACAD
1000
AcDbSavedByObjectVersion
1070
     0
  0
VISUALSTYLE
  5
CE
102
{ACAD_XDICTIONARY
360
15F
102
}
102
{ACAD_REACTORS
330
C3
102
}
330
C3
100
AcDbVisualStyle
  2
Dim
 70
    11
177
     2
291
     1
 71
     2
176
     1
 72
     2
176
     1
 73
     0
176
     1
 90
        0
176
     1
 40
0.6
176
     1
 41
30.0
176
     1
 63
     7
421
 16777215
176
     1
 74
     1
176
     1
 91
        4
176
     1
 64
     7
176
     1
 65
   257
176
     1
 75
     1
176
     1
175
     1
176
     1
 42
1.0
176
     1
 92
        8
176
     1
 66
     7
176
     1
 43
1.0
176
     1
 76
     1
176
     1
 77
     6
176
     1
 78
     2
176
     1
 67
     7
176
     1
 79
     5
176
     1
170
     0
176
     1
171
     0
176
     1
290
     0
176
     1
 93
        1
176
     1
 44
-50.0
176
     1
173
     0
176
     1
1001
ACAD
1000
AcDbSavedByObjectVersion
1070
     0
  0
VISUALSTYLE
  5
DB
102
{ACAD_XDICTIONARY
360
179
102
}
102
{ACAD_REACTORS
330
C3
102
}
330
C3
100
AcDbVisualStyle
  2
EdgeColorOff
 70
    22
177
     2
291
     1
 71
     2
176
     0
 72
     2
176
     0
 73
     0
176
     0
 90
        0
176
     0
 40
0.6
176
     0
 41
30.0
176
     0
 63
     7
421
 16777215
176
     0
 74
     1
176
     0
 91
        4
176
     0
 64
     7
176
     0
 65
   257
176
     0
 75
     1
176
     0
175
     1
176
     0
 42
1.0
176
     0
 92
        8
176
     2
 66
     7
176
     0
 43
1.0
176
     0
 76
     1
176
     0
 77
     6
176
     0
 78
     2
176
     0
 67
     7
176
     0
 79
     5
176
     0
170
     0
176
     0
171
     0
176
     0
290
     0
176
     0
 93
        1
176
     0
 44
0.0
176
     0
173
     0
176
     0
1001
ACAD
1000
AcDbSavedByObjectVersion
1070
     0
  0
VISUALSTYLE
  5
D2
102
{ACAD_XDICTIONARY
360
167
102
}
102
{ACAD_REACTORS
330
C3
102
}
330
C3
100
AcDbVisualStyle
  2
Facepattern
 70
    15
177
     2
291
     1
 71
     2
176
     1
 72
     2
176
     1
 73
     0
176
     1
 90
        0
176
     1
 40
0.6
176
     1
 41
30.0
176
     1
 63
     7
421
 16777215
176
     1
 74
     1
176
     1
 91
        4
176
     1
 64
     7
176
     1
 65
   257
176
     1
 75
     1
176
     1
175
     1
176
     1
 42
1.0
176
     1
 92
        8
176
     1
 66
     7
176
     1
 43
1.0
176
     1
 76
     1
176
     1
 77
     6
176
     1
 78
     2
176
     1
 67
     7
176
     1
 79
     5
176
     1
170
     0
176
     1
171
     0
176
     1
290
     0
176
     1
 93
        1
176
     1
 44
0.0
176
     1
173
     0
176
     1
1001
ACAD
1000
AcDbSavedByObjectVersion
1070
     0
  0
VISUALSTYLE
  5
C4
102
{ACAD_XDICTIONARY
360
14B
102
}
102
{ACAD_REACTORS
330
C3
102
}
330
C3
100
AcDbVisualStyle
  2
Flat
 70
     0
177
     2
291
     1
 71
     2
176
     1
 72
     1
176
     1
 73
     1
176
     1
 90
        2
176
     1
 40
0.6
176
     1
 41
30.0
176
     1
 63
     7
421
 16777215
176
     1
 74
     0
176
     1
 91
        0
176
     1
 64
     7
176
     1
 65
   257
176
     1
 75
     1
176
     1
175
     1
176
     1
 42
1.0
176
     1
 92
        8
176
     1
 66
     7
176
     1
 43
1.0
176
     1
 76
     1
176
     1
 77
     6
176
     1
 78
     2
176
     1
 67
     7
176
     1
 79
     5
176
     1
170
     0
176
     1
171
     0
176
     1
290
     0
176
     1
 93
       13
176
     1
 44
0.0
176
     1
173
     0
176
     1
1001
ACAD
1000
AcDbSavedByObjectVersion
1070
     0
  0
VISUALSTYLE
  5
C5
102
{ACAD_XDICTIONARY
360
14D
102
}
102
{ACAD_REACTORS
330
C3
102
}
330
C3
100
AcDbVisualStyle
  2
FlatWithEdges
 70
     1
177
     2
291
     1
 71
     2
176
     1
 72
     1
176
     1
 73
     1
176
     1
 90
        2
176
     1
 40
0.6
176
     1
 41
30.0
176
     1
 63
     7
421
 16777215
176
     1
 74
     1
176
     1
 91
        0
176
     1
 64
     7
176
     1
 65
   257
176
     1
 75
     1
176
     1
175
     1
176
     1
 42
1.0
176
     1
 92
        0
176
     1
 66
   257
176
     1
 43
1.0
176
     1
 76
     1
176
     1
 77
     6
176
     1
 78
     2
176
     1
 67
     7
176
     1
 79
     5
176
     1
170
     0
176
     1
171
     0
176
     1
290
     0
176
     1
 93
       13
176
     1
 44
0.0
176
     1
173
     0
176
     1
1001
ACAD
1000
AcDbSavedByObjectVersion
1070
     0
  0
VISUALSTYLE
  5
C6
102
{ACAD_XDICTIONARY
360
14F
102
}
102
{ACAD_REACTORS
330
C3
102
}
330
C3
100
AcDbVisualStyle
  2
Gouraud
 70
     2
177
     2
291
     1
 71
     2
176
     1
 72
     2
176
     1
 73
     1
176
     1
 90
        2
176
     1
 40
0.6
176
     1
 41
30.0
176
     1
 63
     7
421
 16777215
176
     1
 74
     0
176
     1
 91
        0
176
     1
 64
     7
176
     1
 65
   257
176
     1
 75
     1
176
     1
175
     1
176
     1
 42
1.0
176
     1
 92
        0
176
     1
 66
     7
176
     1
 43
1.0
176
     1
 76
     1
176
     1
 77
     6
176
     1
 78
     2
176
     1
 67
     7
176
     1
 79
     5
176
     1
170
     0
176
     1
171
     0
176
     1
290
     0
176
     1
 93
       13
176
     1
 44
0.0
176
     1
173
     0
176
     1
1001
ACAD
1000
AcDbSavedByObjectVersion
1070
     0
  0
VISUALSTYLE
  5
C7
102
{ACAD_XDICTIONARY
360
151
102
}
102
{ACAD_REACTORS
330
C3
102
}
330
C3
100
AcDbVisualStyle
  2
GouraudWithEdges
 70
     3
177
     2
291
     1
 71
     2
176
     1
 72
     2
176
     1
 73
     1
176
     1
 90
        2
176
     1
 40
0.6
176
     1
 41
30.0
176
     1
 63
     7
421
 16777215
176
     1
 74
     1
176
     1
 91
        0
176
     1
 64
     7
176
     1
 65
   257
176
     1
 75
     1
176
     1
175
     1
176
     1
 42
1.0
176
     1
 92
        0
176
     1
 66
   257
176
     1
 43
1.0
176
     1
 76
     1
176
     1
 77
     6
176
     1
 78
     2
176
     1
 67
     7
176
     1
 79
     5
176
     1
170
     0
176
     1
171
     0
176
     1
290
     0
176
     1
 93
       13
176
     1
 44
0.0
176
     1
173
     0
176
     1
1001
ACAD
1000
AcDbSavedByObjectVersion
1070
     0
  0
VISUALSTYLE
  5
CB
102
{ACAD_XDICTIONARY
360
159
102
}
102
{ACAD_REACTORS
330
C3
102
}
330
C3
100
AcDbVisualStyle
  2
Hidden
 70
     6
177
     2
291
     0
 71
     1
176
     1
 72
     2
176
     1
 73
     2
176
     1
 90
        0
176
     1
 40
0.6
176
     1
 41
30.0
176
     1
 63
     7
421
 16777215
176
     1
 74
     2
176
     1
 91
        2
176
     1
 64
     7
176
     1
 65
   257
176
     1
 75
     2
176
     1
175
     1
176
     1
 42
40.0
176
     1
 92
        0
176
     1
 66
   257
176
     1
 43
1.0
176
     1
 76
     1
176
     1
 77
     6
176
     1
 78
     2
176
     1
 67
     7
176
     1
 79
     3
176
     1
170
     0
176
     1
171
     0
176
     1
290
     0
176
     1
 93
        1
176
     1
 44
0.0
176
     1
173
     0
176
     1
1001
ACAD
1000
AcDbSavedByObjectVersion
1070
     0
  0
VISUALSTYLE
  5
D9
102
{ACAD_XDICTIONARY
360
175
102
}
102
{ACAD_REACTORS
330
C3
102
}
330
C3
100
AcDbVisualStyle
  2
JitterOff
 70
    20
177
     2
291
     1
 71
     2
176
     0
 72
     2
176
     0
 73
     0
176
     0
 90
        0
176
     0
 40
0.6
176
     0
 41
30.0
176
     0
 63
     7
421
 16777215
176
     0
 74
     1
176
     0
 91
        4
176
     0
 64
     7
176
     0
 65
   257
176
     0
 75
     1
176
     0
175
     1
176
     0
 42
1.0
176
     0
 92
       10
176
     2
 66
     7
176
     0
 43
1.0
176
     0
 76
     1
176
     0
 77
     6
176
     0
 78
     2
176
     0
 67
     7
176
     0
 79
     5
176
     0
170
     0
176
     0
171
     0
176
     0
290
     0
176
     0
 93
        1
176
     0
 44
0.0
176
     0
173
     0
176
     0
1001
ACAD
1000
AcDbSavedByObjectVersion
1070
     0
  0
VISUALSTYLE
  5
D1
102
{ACAD_XDICTIONARY
360
165
102
}
102
{ACAD_REACTORS
330
C3
102
}
330
C3
100
AcDbVisualStyle
  2
Linepattern
 70
    14
177
     2
291
     1
 71
     2
176
     1
 72
     2
176
     1
 73
     0
176
     1
 90
        0
176
     1
 40
0.6
176
     1
 41
30.0
176
     1
 63
     7
421
 16777215
176
     1
 74
     1
176
     1
 91
        4
176
     1
 64
     7
176
     1
 65
   257
176
     1
 75
     7
176
     1
175
     7
176
     1
 42
1.0
176
     1
 92
        8
176
     1
 66
     7
176
     1
 43
1.0
176
     1
 76
     1
176
     1
 77
     6
176
     1
 78
     2
176
     1
 67
     7
176
     1
 79
     5
176
     1
170
     0
176
     1
171
     0
176
     1
290
     0
176
     1
 93
        1
176
     1
 44
0.0
176
     1
173
     0
176
     1
1001
ACAD
1000
AcDbSavedByObjectVersion
1070
     0
  0
VISUALSTYLE
  5
DA
102
{ACAD_XDICTIONARY
360
177
102
}
102
{ACAD_REACTORS
330
C3
102
}
330
C3
100
AcDbVisualStyle
  2
OverhangOff
 70
    21
177
     2
291
     1
 71
     2
176
     0
 72
     2
176
     0
 73
     0
176
     0
 90
        0
176
     0
 40
0.6
176
     0
 41
30.0
176
     0
 63
     7
421
 16777215
176
     0
 74
     1
176
     0
 91
        4
176
     0
 64
     7
176
     0
 65
   257
176
     0
 75
     1
176
     0
175
     1
176
     0
 42
1.0
176
     0
 92
        9
176
     2
 66
     7
176
     0
 43
1.0
176
     0
 76
     1
176
     0
 77
     6
176
     0
 78
     2
176
     0
 67
     7
176
     0
 79
     5
176
     0
170
     0
176
     0
171
     0
176
     0
290
     0
176
     0
 93
        1
176
     0
 44
0.0
176
     0
173
     0
176
     0
1001
ACAD
1000
AcDbSavedByObjectVersion
1070
     0
  0
VISUALSTYLE
  5
CD
102
{ACAD_XDICTIONARY
360
15D
102
}
102
{ACAD_REACTORS
330
C3
102
}
330
C3
100
AcDbVisualStyle
  2
Realistic
 70
     8
177
     2
291
     0
 71
     2
176
     1
 72
     3
176
     1
 73
     0
176
     1
 90
        2
176
     1
 40
0.6
176
     1
 41
30.0
176
     1
 63
     7
421
 16777215
176
     1
 74
     0
176
     1
 91
        0
176
     1
 64
     7
176
     1
 65
   257
176
     1
 75
     1
176
     1
175
     1
176
     1
 42
1.0
176
     1
 92
        8
176
     1
 66
   257
176
     1
 43
1.0
176
     1
 76
     1
176
     1
 77
     6
176
     1
 78
     2
176
     1
 67
     7
176
     1
 79
     3
176
     1
170
     0
176
     1
171
     0
176
     1
290
     0
176
     1
 93
       13
176
     1
 44
0.0
176
     1
173
     0
176
     1
1001
ACAD
1000
AcDbSavedByObjectVersion
1070
     0
  0
VISUALSTYLE
  5
D8
102
{ACAD_XDICTIONARY
360
173
102
}
102
{ACAD_REACTORS
330
C3
102
}
330
C3
100
AcDbVisualStyle
  2
Shaded
 70
    27
177
     2
291
     0
 71
     2
176
     1
 72
     2
176
     1
 73
     1
176
     1
 90
        2
176
     1
 40
0.6
176
     1
 41
30.0
176
     1
 63
     7
421
 16777215
176
     1
 74
     0
176
     1
 91
        4
176
     1
 64
     7
176
     1
 65
   257
176
     1
 75
     1
176
     1
175
     1
176
     1
 42
1.0
176
     1
 92
        8
176
     1
 66
   257
176
     1
 43
1.0
176
     1
 76
     1
176
     1
 77
     6
176
     1
 78
     2
176
     1
 67
     8
425
  7895160
176
     1
 79
     3
176
     1
170
     0
176
     1
171
     0
176
     1
290
     0
176
     1
 93
        5
176
     1
 44
0.0
176
     1
173
     0
176
     1
1001
ACAD
1000
AcDbSavedByObjectVersion
1070
     0
  0
VISUALSTYLE
  5
D7
102
{ACAD_XDICTIONARY
360
171
102
}
102
{ACAD_REACTORS
330
C3
102
}
330
C3
100
AcDbVisualStyle
  2
Shaded with edges
 70
    26
177
     2
291
     0
 71
     2
176
     1
 72
     2
176
     1
 73
     1
176
     1
 90
        2
176
     1
 40
0.6
176
     1
 41
30.0
176
     1
 63
     7
421
 16777215
176
     1
 74
     1
176
     1
 91
       10
176
     1
 64
     7
176
     1
 65
   257
176
     1
 75
     2
176
     1
175
     1
176
     1
 42
1.0
176
     1
 92
        8
176
     1
 66
   257
176
     1
 43
1.0
176
     1
 76
     1
176
     1
 77
     6
176
     1
 78
     2
176
     1
 67
     7
176
     1
 79
     3
176
     1
170
     0
176
     1
171
     0
176
     1
290
     0
176
     1
 93
        5
176
     1
 44
0.0
176
     1
173
     0
176
     1
1001
ACAD
1000
AcDbSavedByObjectVersion
1070
     0
  0
VISUALSTYLE
  5
D4
102
{ACAD_XDICTIONARY
360
16B
102
}
102
{ACAD_REACTORS
330
C3
102
}
330
C3
100
AcDbVisualStyle
  2
Shades of Gray
 70
    23
177
     2
291
     0
 71
     2
176
     1
 72
     2
176
     1
 73
     3
176
     1
 90
        0
176
     1
 40
0.6
176
     1
 41
30.0
176
     1
 63
     7
421
 16777215
176
     1
 74
     2
176
     1
 91
        2
176
     1
 64
     7
176
     1
 65
     7
176
     1
 75
     1
176
     1
175
     1
176
     1
 42
40.0
176
     1
 92
        8
176
     1
 66
     7
176
     1
 43
1.0
176
     1
 76
     1
176
     1
 77
     6
176
     1
 78
     2
176
     1
 67
     7
176
     1
 79
     3
176
     1
170
     0
176
     1
171
     0
176
     1
290
     0
176
     1
 93
        1
176
     1
 44
0.0
176
     1
173
     0
176
     1
1001
ACAD
1000
AcDbSavedByObjectVersion
1070
     0
  0
VISUALSTYLE
  5
D5
102
{ACAD_XDICTIONARY
360
16D
102
}
102
{ACAD_REACTORS
330
C3
102
}
330
C3
100
AcDbVisualStyle
  2
Sketchy
 70
    24
177
     2
291
     0
 71
     1
176
     1
 72
     2
176
     1
 73
     2
176
     1
 90
        0
176
     1
 40
0.6
176
     1
 41
30.0
176
     1
 63
     7
421
 16777215
176
     1
 74
     2
176
     1
 91
        2
176
     1
 64
     7
176
     1
 65
     7
176
     1
 75
     1
176
     1
175
     1
176
     1
 42
40.0
176
     1
 92
       11
176
     1
 66
     7
176
     1
 43
1.0
176
     1
 76
     1
176
     1
 77
     6
176
     1
 78
     2
176
     1
 67
     7
176
     1
 79
     6
176
     1
170
     0
176
     1
171
     0
176
     1
290
     0
176
     1
 93
        1
176
     1
 44
0.0
176
     1
173
     0
176
     1
1001
ACAD
1000
AcDbSavedByObjectVersion
1070
     0
  0
VISUALSTYLE
  5
D0
102
{ACAD_XDICTIONARY
360
163
102
}
102
{ACAD_REACTORS
330
C3
102
}
330
C3
100
AcDbVisualStyle
  2
Thicken
 70
    13
177
     2
291
     1
 71
     2
176
     1
 72
     2
176
     1
 73
     0
176
     1
 90
        0
176
     1
 40
0.6
176
     1
 41
30.0
176
     1
 63
     7
421
 16777215
176
     1
 74
     1
176
     1
 91
        4
176
     1
 64
     7
176
     1
 65
   257
176
     1
 75
     1
176
     1
175
     1
176
     1
 42
1.0
176
     1
 92
       12
176
     1
 66
     7
176
     1
 43
1.0
176
     1
 76
     1
176
     1
 77
     6
176
     1
 78
     2
176
     1
 67
     7
176
     1
 79
     5
176
     1
170
     0
176
     1
171
     0
176
     1
290
     0
176
     1
 93
        1
176
     1
 44
0.0
176
     1
173
     0
176
     1
1001
ACAD
1000
AcDbSavedByObjectVersion
1070
     0
  0
VISUALSTYLE
  5
CA
102
{ACAD_XDICTIONARY
360
157
102
}
102
{ACAD_REACTORS
330
C3
102
}
330
C3
100
AcDbVisualStyle
  2
Wireframe
 70
     5
177
     2
291
     0
 71
     0
176
     1
 72
     2
176
     1
 73
     0
176
     1
 90
        0
176
     1
 40
0.6
176
     1
 41
30.0
176
     1
 63
     7
421
 16777215
176
     1
 74
     1
176
     1
 91
        4
176
     1
 64
     7
176
     1
 65
   257
176
     1
 75
     1
176
     1
175
     1
176
     1
 42
1.0
176
     1
 92
        0
176
     1
 66
   257
176
     1
 43
1.0
176
     1
 76
     1
176
     1
 77
     6
176
     1
 78
     2
176
     1
 67
     7
176
     1
 79
     3
176
     1
170
     0
176
     1
171
     0
176
     1
290
     0
176
     1
 93
        1
176
     1
 44
0.0
176
     1
173
     0
176
     1
1001
ACAD
1000
AcDbSavedByObjectVersion
1070
     0
  0
VISUALSTYLE
  5
D6
102
{ACAD_XDICTIONARY
360
16F
102
}
102
{ACAD_REACTORS
330
C3
102
}
330
C3
100
AcDbVisualStyle
  2
X-Ray
 70
    25
177
     2
291
     0
 71
     2
176
     1
 72
     2
176
     1
 73
     1
176
     1
 90
        1
176
     1
 40
0.5
176
     1
 41
30.0
176
     1
 63
     7
421
 16777215
176
     1
 74
     1
176
     1
 91
        0
176
     1
 64
     7
176
     1
 65
   257
176
     1
 75
     1
176
     1
175
     1
176
     1
 42
1.0
176
     1
 92
        8
176
     1
 66
     7
176
     1
 43
1.0
176
     1
 76
     1
176
     1
 77
     6
176
     1
 78
     2
176
     1
 67
     7
176
     1
 79
     3
176
     1
170
     0
176
     1
171
     0
176
     1
290
     0
176
     1
 93
       13
176
     1
 44
0.0
176
     1
173
     0
176
     1
1001
ACAD
1000
AcDbSavedByObjectVersion
1070
     0
  0
DICTIONARYVAR
  5
144
102
{ACAD_REACTORS
330
13E
102
}
330
13E
100
DictionaryVariables
280
     0
  1
1:1
  0
DICTIONARYVAR
  5
140
102
{ACAD_REACTORS
330
13E
102
}
330
13E
100
DictionaryVariables
280
     0
  1
STANDARD
  0
DICTIONARYVAR
  5
13F
102
{ACAD_REACTORS
330
13E
102
}
330
13E
100
DictionaryVariables
280
     0
  1
STANDARD
  0
DICTIONARYVAR
  5
141
102
{ACAD_REACTORS
330
13E
102
}
330
13E
100
DictionaryVariables
280
     0
  1
Imperial24
  0
DICTIONARYVAR
  5
142
102
{ACAD_REACTORS
330
13E
102
}
330
13E
100
DictionaryVariables
280
     0
  1
Imperial24
  0
DICTIONARYVAR
  5
146
102
{ACAD_REACTORS
330
13E
102
}
330
13E
100
DictionaryVariables
280
     0
  1
1
  0
DICTIONARYVAR
  5
147
102
{ACAD_REACTORS
330
13E
102
}
330
13E
100
DictionaryVariables
280
     0
  1
15
  0
DICTIONARYVAR
  5
145
102
{ACAD_REACTORS
330
13E
102
}
330
13E
100
DictionaryVariables
280
     0
  1
0
  0
DICTIONARYVAR
  5
143
102
{ACAD_REACTORS
330
13E
102
}
330
13E
100
DictionaryVariables
280
     0
  1
0
  0
DICTIONARY
  5
17F
330
F6
100
AcDbDictionary
280
     1
281
     1
  3
ACAD_XREC_ROUNDTRIP
360
180
  0
DICTIONARY
  5
B4
330
B3
100
AcDbDictionary
280
     1
281
     1
  3
BUMPTILE
360
B6
  3
DIFFUSETILE
360
B5
  3
OPACITYTILE
360
B9
  3
REFLECTIONTILE
360
B8
  3
REFRACTIONTILE
360
BA
  3
SPECULARTILE
360
B7
  0
DICTIONARY
  5
AC
330
AB
100
AcDbDictionary
280
     1
281
     1
  3
BUMPTILE
360
AE
  3
DIFFUSETILE
360
AD
  3
OPACITYTILE
360
B1
  3
REFLECTIONTILE
360
B0
  3
REFRACTIONTILE
360
B2
  3
SPECULARTILE
360
AF
  0
DICTIONARY
  5
BC
330
BB
100
AcDbDictionary
280
     1
281
     1
  3
BUMPTILE
360
BE
  3
DIFFUSETILE
360
BD
  3
OPACITYTILE
360
C1
  3
REFLECTIONTILE
360
C0
  3
REFRACTIONTILE
360
C2
  3
SPECULARTILE
360
BF
  0
DICTIONARY
  5
17B
330
F2
100
AcDbDictionary
280
     1
281
     1
  3
ACAD_XREC_ROUNDTRIP
360
17C
  0
DICTIONARY
  5
17D
330
F4
100
AcDbDictionary
280
     1
281
     1
  3
ACAD_XREC_ROUNDTRIP
360
17E
  0
DICTIONARY
  5
148
330
DE
100
AcDbDictionary
280
     1
281
     1
  3
ACAD_ROUNDTRIP_2008_TABLESTYLE_CELLSTYLEMAP
360
149
  0
DICTIONARY
  5
155
330
C9
100
AcDbDictionary
280
     1
281
     1
  3
ACAD_XREC_ROUNDTRIP
360
156
  0
DICTIONARY
  5
153
330
C8
100
AcDbDictionary
280
     1
281
     1
  3
ACAD_XREC_ROUNDTRIP
360
154
  0
DICTIONARY
  5
161
330
CF
100
AcDbDictionary
280
     1
281
     1
  3
ACAD_XREC_ROUNDTRIP
360
162
  0
DICTIONARY
  5
169
330
D3
100
AcDbDictionary
280
     1
281
     1
  3
ACAD_XREC_ROUNDTRIP
360
16A
  0
DICTIONARY
  5
15B
330
CC
100
AcDbDictionary
280
     1
281
     1
  3
ACAD_XREC_ROUNDTRIP
360
15C
  0
DICTIONARY
  5
15F
330
CE
100
AcDbDictionary
280
     1
281
     1
  3
ACAD_XREC_ROUNDTRIP
360
160
  0
DICTIONARY
  5
179
330
DB
100
AcDbDictionary
280
     1
281
     1
  3
ACAD_XREC_ROUNDTRIP
360
17A
  0
DICTIONARY
  5
167
330
D2
100
AcDbDictionary
280
     1
281
     1
  3
ACAD_XREC_ROUNDTRIP
360
168
  0
DICTIONARY
  5
14B
330
C4
100
AcDbDictionary
280
     1
281
     1
  3
ACAD_XREC_ROUNDTRIP
360
14C
  0
DICTIONARY
  5
14D
330
C5
100
AcDbDictionary
280
     1
281
     1
  3
ACAD_XREC_ROUNDTRIP
360
14E
  0
DICTIONARY
  5
14F
330
C6
100
AcDbDictionary
280
     1
281
     1
  3
ACAD_XREC_ROUNDTRIP
360
150
  0
DICTIONARY
  5
151
330
C7
100
AcDbDictionary
280
     1
281
     1
  3
ACAD_XREC_ROUNDTRIP
360
152
  0
DICTIONARY
  5
159
330
CB
100
AcDbDictionary
280
     1
281
     1
  3
ACAD_XREC_ROUNDTRIP
360
15A
  0
DICTIONARY
  5
175
330
D9
100
AcDbDictionary
280
     1
281
     1
  3
ACAD_XREC_ROUNDTRIP
360
176
  0
DICTIONARY
  5
165
330
D1
100
AcDbDictionary
280
     1
281
     1
  3
ACAD_XREC_ROUNDTRIP
360
166
  0
DICTIONARY
  5
177
330
DA
100
AcDbDictionary
280
     1
281
     1
  3
ACAD_XREC_ROUNDTRIP
360
178
  0
DICTIONARY
  5
15D
330
CD
100
AcDbDictionary
280
     1
281
     1
  3
ACAD_XREC_ROUNDTRIP
360
15E
  0
DICTIONARY
  5
173
330
D8
100
AcDbDictionary
280
     1
281
     1
  3
ACAD_XREC_ROUNDTRIP
360
174
  0
DICTIONARY
  5
171
330
D7
100
AcDbDictionary
280
     1
281
     1
  3
ACAD_XREC_ROUNDTRIP
360
172
  0
DICTIONARY
  5
16B
330
D4
100
AcDbDictionary
280
     1
281
     1
  3
ACAD_XREC_ROUNDTRIP
360
16C
  0
DICTIONARY
  5
16D
330
D5
100
AcDbDictionary
280
     1
281
     1
  3
ACAD_XREC_ROUNDTRIP
360
16E
  0
DICTIONARY
  5
163
330
D0
100
AcDbDictionary
280
     1
281
     1
  3
ACAD_XREC_ROUNDTRIP
360
164
  0
DICTIONARY
  5
157
330
CA
100
AcDbDictionary
280
     1
281
     1
  3
ACAD_XREC_ROUNDTRIP
360
158
  0
DICTIONARY
  5
16F
330
D6
100
AcDbDictionary
280
     1
281
     1
  3
ACAD_XREC_ROUNDTRIP
360
170
  0
XRECORD
  5
180
102
{ACAD_REACTORS
330
17F
102
}
330
17F
100
AcDbXrecord
280
     1
102
DISPLAYNAME
  1
Imperial24
102
FLAGS
 90
        0
  0
XRECORD
  5
B6
102
{ACAD_REACTORS
330
B4
102
}
330
B4
100
AcDbXrecord
280
     1
270
     1
271
     1
  0
XRECORD
  5
B5
102
{ACAD_REACTORS
330
B4
102
}
330
B4
100
AcDbXrecord
280
     1
270
     1
271
     1
  0
XRECORD
  5
B9
102
{ACAD_REACTORS
330
B4
102
}
330
B4
100
AcDbXrecord
280
     1
270
     1
271
     1
  0
XRECORD
  5
B8
102
{ACAD_REACTORS
330
B4
102
}
330
B4
100
AcDbXrecord
280
     1
270
     1
271
     1
  0
XRECORD
  5
BA
102
{ACAD_REACTORS
330
B4
102
}
330
B4
100
AcDbXrecord
280
     1
270
     1
271
     1
  0
XRECORD
  5
B7
102
{ACAD_REACTORS
330
B4
102
}
330
B4
100
AcDbXrecord
280
     1
270
     1
271
     1
  0
XRECORD
  5
AE
102
{ACAD_REACTORS
330
AC
102
}
330
AC
100
AcDbXrecord
280
     1
270
     1
271
     1
  0
XRECORD
  5
AD
102
{ACAD_REACTORS
330
AC
102
}
330
AC
100
AcDbXrecord
280
     1
270
     1
271
     1
  0
XRECORD
  5
B1
102
{ACAD_REACTORS
330
AC
102
}
330
AC
100
AcDbXrecord
280
     1
270
     1
271
     1
  0
XRECORD
  5
B0
102
{ACAD_REACTORS
330
AC
102
}
330
AC
100
AcDbXrecord
280
     1
270
     1
271
     1
  0
XRECORD
  5
B2
102
{ACAD_REACTORS
330
AC
102
}
330
AC
100
AcDbXrecord
280
     1
270
     1
271
     1
  0
XRECORD
  5
AF
102
{ACAD_REACTORS
330
AC
102
}
330
AC
100
AcDbXrecord
280
     1
270
     1
271
     1
  0
XRECORD
  5
BE
102
{ACAD_REACTORS
330
BC
102
}
330
BC
100
AcDbXrecord
280
     1
270
     1
271
     1
  0
XRECORD
  5
BD
102
{ACAD_REACTORS
330
BC
102
}
330
BC
100
AcDbXrecord
280
     1
270
     1
271
     1
  0
XRECORD
  5
C1
102
{ACAD_REACTORS
330
BC
102
}
330
BC
100
AcDbXrecord
280
     1
270
     1
271
     1
  0
XRECORD
  5
C0
102
{ACAD_REACTORS
330
BC
102
}
330
BC
100
AcDbXrecord
280
     1
270
     1
271
     1
  0
XRECORD
  5
C2
102
{ACAD_REACTORS
330
BC
102
}
330
BC
100
AcDbXrecord
280
     1
270
     1
271
     1
  0
XRECORD
  5
BF
102
{ACAD_REACTORS
330
BC
102
}
330
BC
100
AcDbXrecord
280
     1
270
     1
271
     1
  0
XRECORD
  5
17C
102
{ACAD_REACTORS
330
17B
102
}
330
17B
100
AcDbXrecord
280
     1
102
ACAD_ROUNDTRIP_2012_MLEADER_STYLE
298
     1
  0
XRECORD
  5
17E
102
{ACAD_REACTORS
330
17D
102
}
330
17D
100
AcDbXrecord
280
     1
102
DISPLAYNAME
  1
Imperial24
102
FLAGS
 90
        0
  0
CELLSTYLEMAP
  5
149
102
{ACAD_REACTORS
330
148
102
}
330
148
100
AcDbCellStyleMap
 90
        3
300
CELLSTYLE
  1
TABLEFORMAT_BEGIN
 90
        5
170
     1
 91
        0
 92
    32768
 62
   257
 93
        1
300
CONTENTFORMAT
  1
CONTENTFORMAT_BEGIN
 90
        0
 91
        0
 92
      512
 93
        0
300

 40
0.0
140
1.0
 94
        5
 62
     0
340
11
144
0.25
309
CONTENTFORMAT_END
171
     0
 94
        0
309
TABLEFORMAT_END
  1
CELLSTYLE_BEGIN
 90
        1
 91
        1
300
_TITLE
309
CELLSTYLE_END
300
CELLSTYLE
  1
TABLEFORMAT_BEGIN
 90
        5
170
     1
 91
        0
 92
        0
 62
   257
 93
        1
300
CONTENTFORMAT
  1
CONTENTFORMAT_BEGIN
 90
        0
 91
        0
 92
      512
 93
        0
300

 40
0.0
140
1.0
 94
        5
 62
     0
340
11
144
0.18
309
CONTENTFORMAT_END
171
     0
 94
        0
309
TABLEFORMAT_END
  1
CELLSTYLE_BEGIN
 90
        2
 91
        1
300
_HEADER
309
CELLSTYLE_END
300
CELLSTYLE
  1
TABLEFORMAT_BEGIN
 90
        5
170
     1
 91
        0
 92
        0
 62
   257
 93
        1
300
CONTENTFORMAT
  1
CONTENTFORMAT_BEGIN
 90
        0
 91
        0
 92
      512
 93
        0
300

 40
0.0
140
1.0
 94
        2
 62
     0
340
11
144
0.18
309
CONTENTFORMAT_END
171
     0
 94
        0
309
TABLEFORMAT_END
  1
CELLSTYLE_BEGIN
 90
        3
 91
        2
300
_DATA
309
CELLSTYLE_END
  0
XRECORD
  5
156
102
{ACAD_REACTORS
330
155
102
}
330
155
100
AcDbXrecord
280
     1
102
RTVSPost2010Prop28
280
     1
102
RTVSPost2010PropOp28
 70
     1
102
RTVSPost2010Prop29
280
     1
102
RTVSPost2010PropOp29
 70
     1
102
RTVSPost2010Prop30
280
     0
102
RTVSPost2010PropOp30
 70
     1
102
RTVSPost2010Prop31
280
     0
102
RTVSPost2010PropOp31
 70
     1
102
RTVSPost2010Prop32
280
     0
102
RTVSPost2010PropOp32
 70
     1
102
RTVSPost2010Prop33
280
     0
102
RTVSPost2010PropOp33
 70
     1
102
RTVSPost2010Prop34
280
     0
102
RTVSPost2010PropOp34
 70
     1
102
RTVSPost2010Prop35
280
     0
102
RTVSPost2010PropOp35
 70
     1
102
RTVSPost2010Prop36
280
     0
102
RTVSPost2010PropOp36
 70
     1
102
RTVSPost2010Prop37
 90
       50
102
RTVSPost2010PropOp37
 70
     1
102
RTVSPost2010Prop38
140
0.0
102
RTVSPost2010PropOp38
 70
     1
102
RTVSPost2010Prop39
140
1.0
102
RTVSPost2010PropOp39
 70
     1
102
RTVSPost2010Prop40
 90
        0
102
RTVSPost2010PropOp40
 70
     1
102
RTVSPost2010Prop41ColorIndex
 90
       18
102
RTVSPost2010Prop41ColorRGB
 90
        0
102
RTVSPost2010PropOp41
 70
     1
102
RTVSPost2010Prop42
 90
       50
102
RTVSPost2010PropOp42
 70
     1
102
RTVSPost2010Prop43
 90
        3
102
RTVSPost2010PropOp43
 70
     1
102
RTVSPost2010Prop44ColorIndex
 90
        5
102
RTVSPost2010Prop44ColorRGB
 90
      255
102
RTVSPost2010PropOp44
 70
     1
102
RTVSPost2010Prop45
280
     0
102
RTVSPost2010PropOp45
 70
     1
102
RTVSPost2010Prop46
 90
       50
102
RTVSPost2010PropOp46
 70
     1
102
RTVSPost2010Prop47
 90
       50
102
RTVSPost2010PropOp47
 70
     1
102
RTVSPost2010Prop48
 90
       50
102
RTVSPost2010PropOp48
 70
     1
102
RTVSPost2010Prop49
280
     0
102
RTVSPost2010PropOp49
 70
     1
102
RTVSPost2010Prop50
 90
       50
102
RTVSPost2010PropOp50
 70
     1
102
RTVSPost2010Prop51ColorIndex
 90
      256
102
RTVSPost2010Prop51ColorRGB
 90
-16777216
102
RTVSPost2010PropOp51
 70
     0
102
RTVSPost2010Prop52
140
1.0
102
RTVSPost2010PropOp52
 70
     0
102
RTVSPost2010Prop53
 90
        2
102
RTVSPost2010PropOp53
 70
     1
102
RTVSPost2010Prop54
  1
strokes_ogs.tif
102
RTVSPost2010PropOp54
 70
     1
102
RTVSPost2010Prop55
280
     0
102
RTVSPost2010PropOp55
 70
     1
102
RTVSPost2010Prop56
140
1.0
102
RTVSPost2010PropOp56
 70
     1
102
RTVSPost2010Prop57
140
1.0
102
RTVSPost2010PropOp57
 70
     1
  0
XRECORD
  5
154
102
{ACAD_REACTORS
330
153
102
}
330
153
100
AcDbXrecord
280
     1
102
RTVSPost2010Prop28
280
     0
102
RTVSPost2010PropOp28
 70
     1
102
RTVSPost2010Prop29
280
     1
102
RTVSPost2010PropOp29
 70
     1
102
RTVSPost2010Prop30
280
     1
102
RTVSPost2010PropOp30
 70
     1
102
RTVSPost2010Prop31
280
     0
102
RTVSPost2010PropOp31
 70
     1
102
RTVSPost2010Prop32
280
     0
102
RTVSPost2010PropOp32
 70
     1
102
RTVSPost2010Prop33
280
     0
102
RTVSPost2010PropOp33
 70
     1
102
RTVSPost2010Prop34
280
     0
102
RTVSPost2010PropOp34
 70
     1
102
RTVSPost2010Prop35
280
     0
102
RTVSPost2010PropOp35
 70
     1
102
RTVSPost2010Prop36
280
     0
102
RTVSPost2010PropOp36
 70
     1
102
RTVSPost2010Prop37
 90
       50
102
RTVSPost2010PropOp37
 70
     1
102
RTVSPost2010Prop38
140
0.0
102
RTVSPost2010PropOp38
 70
     1
102
RTVSPost2010Prop39
140
1.0
102
RTVSPost2010PropOp39
 70
     1
102
RTVSPost2010Prop40
 90
        0
102
RTVSPost2010PropOp40
 70
     1
102
RTVSPost2010Prop41ColorIndex
 90
       18
102
RTVSPost2010Prop41ColorRGB
 90
        0
102
RTVSPost2010PropOp41
 70
     1
102
RTVSPost2010Prop42
 90
       50
102
RTVSPost2010PropOp42
 70
     1
102
RTVSPost2010Prop43
 90
        3
102
RTVSPost2010PropOp43
 70
     1
102
RTVSPost2010Prop44ColorIndex
 90
        5
102
RTVSPost2010Prop44ColorRGB
 90
      255
102
RTVSPost2010PropOp44
 70
     1
102
RTVSPost2010Prop45
280
     0
102
RTVSPost2010PropOp45
 70
     1
102
RTVSPost2010Prop46
 90
       50
102
RTVSPost2010PropOp46
 70
     1
102
RTVSPost2010Prop47
 90
       50
102
RTVSPost2010PropOp47
 70
     1
102
RTVSPost2010Prop48
 90
       50
102
RTVSPost2010PropOp48
 70
     1
102
RTVSPost2010Prop49
280
     0
102
RTVSPost2010PropOp49
 70
     1
102
RTVSPost2010Prop50
 90
       50
102
RTVSPost2010PropOp50
 70
     1
102
RTVSPost2010Prop51ColorIndex
 90
      256
102
RTVSPost2010Prop51ColorRGB
 90
-16777216
102
RTVSPost2010PropOp51
 70
     0
102
RTVSPost2010Prop52
140
1.0
102
RTVSPost2010PropOp52
 70
     0
102
RTVSPost2010Prop53
 90
        2
102
RTVSPost2010PropOp53
 70
     1
102
RTVSPost2010Prop54
  1
strokes_ogs.tif
102
RTVSPost2010PropOp54
 70
     1
102
RTVSPost2010Prop55
280
     0
102
RTVSPost2010PropOp55
 70
     1
102
RTVSPost2010Prop56
140
1.0
102
RTVSPost2010PropOp56
 70
     1
102
RTVSPost2010Prop57
140
1.0
102
RTVSPost2010PropOp57
 70
     1
  0
XRECORD
  5
162
102
{ACAD_REACTORS
330
161
102
}
330
161
100
AcDbXrecord
280
     1
102
RTVSPost2010Prop28
280
     0
102
RTVSPost2010PropOp28
 70
     1
102
RTVSPost2010Prop29
280
     1
102
RTVSPost2010PropOp29
 70
     1
102
RTVSPost2010Prop30
280
     1
102
RTVSPost2010PropOp30
 70
     1
102
RTVSPost2010Prop31
280
     0
102
RTVSPost2010PropOp31
 70
     1
102
RTVSPost2010Prop32
280
     0
102
RTVSPost2010PropOp32
 70
     1
102
RTVSPost2010Prop33
280
     0
102
RTVSPost2010PropOp33
 70
     1
102
RTVSPost2010Prop34
280
     0
102
RTVSPost2010PropOp34
 70
     1
102
RTVSPost2010Prop35
280
     0
102
RTVSPost2010PropOp35
 70
     1
102
RTVSPost2010Prop36
280
     0
102
RTVSPost2010PropOp36
 70
     1
102
RTVSPost2010Prop37
 90
       50
102
RTVSPost2010PropOp37
 70
     1
102
RTVSPost2010Prop38
140
0.0
102
RTVSPost2010PropOp38
 70
     1
102
RTVSPost2010Prop39
140
1.0
102
RTVSPost2010PropOp39
 70
     1
102
RTVSPost2010Prop40
 90
        0
102
RTVSPost2010PropOp40
 70
     1
102
RTVSPost2010Prop41ColorIndex
 90
       18
102
RTVSPost2010Prop41ColorRGB
 90
        0
102
RTVSPost2010PropOp41
 70
     1
102
RTVSPost2010Prop42
 90
       50
102
RTVSPost2010PropOp42
 70
     1
102
RTVSPost2010Prop43
 90
        3
102
RTVSPost2010PropOp43
 70
     1
102
RTVSPost2010Prop44ColorIndex
 90
        5
102
RTVSPost2010Prop44ColorRGB
 90
      255
102
RTVSPost2010PropOp44
 70
     1
102
RTVSPost2010Prop45
280
     0
102
RTVSPost2010PropOp45
 70
     1
102
RTVSPost2010Prop46
 90
       50
102
RTVSPost2010PropOp46
 70
     1
102
RTVSPost2010Prop47
 90
       50
102
RTVSPost2010PropOp47
 70
     1
102
RTVSPost2010Prop48
 90
       50
102
RTVSPost2010PropOp48
 70
     1
102
RTVSPost2010Prop49
280
     0
102
RTVSPost2010PropOp49
 70
     1
102
RTVSPost2010Prop50
 90
       50
102
RTVSPost2010PropOp50
 70
     1
102
RTVSPost2010Prop51ColorIndex
 90
      256
102
RTVSPost2010Prop51ColorRGB
 90
-16777216
102
RTVSPost2010PropOp51
 70
     0
102
RTVSPost2010Prop52
140
1.0
102
RTVSPost2010PropOp52
 70
     0
102
RTVSPost2010Prop53
 90
        2
102
RTVSPost2010PropOp53
 70
     1
102
RTVSPost2010Prop54
  1
strokes_ogs.tif
102
RTVSPost2010PropOp54
 70
     1
102
RTVSPost2010Prop55
280
     0
102
RTVSPost2010PropOp55
 70
     1
102
RTVSPost2010Prop56
140
1.0
102
RTVSPost2010PropOp56
 70
     1
102
RTVSPost2010Prop57
140
1.0
102
RTVSPost2010PropOp57
 70
     1
  0
XRECORD
  5
16A
102
{ACAD_REACTORS
330
169
102
}
330
169
100
AcDbXrecord
280
     1
102
RTVSPost2010Prop28
280
     0
102
RTVSPost2010PropOp28
 70
     1
102
RTVSPost2010Prop29
280
     1
102
RTVSPost2010PropOp29
 70
     1
102
RTVSPost2010Prop30
280
     1
102
RTVSPost2010PropOp30
 70
     1
102
RTVSPost2010Prop31
280
     0
102
RTVSPost2010PropOp31
 70
     1
102
RTVSPost2010Prop32
280
     0
102
RTVSPost2010PropOp32
 70
     1
102
RTVSPost2010Prop33
280
     0
102
RTVSPost2010PropOp33
 70
     1
102
RTVSPost2010Prop34
280
     0
102
RTVSPost2010PropOp34
 70
     1
102
RTVSPost2010Prop35
280
     0
102
RTVSPost2010PropOp35
 70
     1
102
RTVSPost2010Prop36
280
     0
102
RTVSPost2010PropOp36
 70
     1
102
RTVSPost2010Prop37
 90
       50
102
RTVSPost2010PropOp37
 70
     1
102
RTVSPost2010Prop38
140
0.0
102
RTVSPost2010PropOp38
 70
     1
102
RTVSPost2010Prop39
140
1.0
102
RTVSPost2010PropOp39
 70
     1
102
RTVSPost2010Prop40
 90
        0
102
RTVSPost2010PropOp40
 70
     1
102
RTVSPost2010Prop41ColorIndex
 90
       18
102
RTVSPost2010Prop41ColorRGB
 90
        0
102
RTVSPost2010PropOp41
 70
     1
102
RTVSPost2010Prop42
 90
       50
102
RTVSPost2010PropOp42
 70
     1
102
RTVSPost2010Prop43
 90
        3
102
RTVSPost2010PropOp43
 70
     1
102
RTVSPost2010Prop44ColorIndex
 90
        5
102
RTVSPost2010Prop44ColorRGB
 90
      255
102
RTVSPost2010PropOp44
 70
     1
102
RTVSPost2010Prop45
280
     0
102
RTVSPost2010PropOp45
 70
     1
102
RTVSPost2010Prop46
 90
       50
102
RTVSPost2010PropOp46
 70
     1
102
RTVSPost2010Prop47
 90
       50
102
RTVSPost2010PropOp47
 70
     1
102
RTVSPost2010Prop48
 90
       50
102
RTVSPost2010PropOp48
 70
     1
102
RTVSPost2010Prop49
280
     0
102
RTVSPost2010PropOp49
 70
     1
102
RTVSPost2010Prop50
 90
       50
102
RTVSPost2010PropOp50
 70
     1
102
RTVSPost2010Prop51ColorIndex
 90
      256
102
RTVSPost2010Prop51ColorRGB
 90
-16777216
102
RTVSPost2010PropOp51
 70
     0
102
RTVSPost2010Prop52
140
1.0
102
RTVSPost2010PropOp52
 70
     0
102
RTVSPost2010Prop53
 90
        2
102
RTVSPost2010PropOp53
 70
     1
102
RTVSPost2010Prop54
  1
strokes_ogs.tif
102
RTVSPost2010PropOp54
 70
     1
102
RTVSPost2010Prop55
280
     0
102
RTVSPost2010PropOp55
 70
     1
102
RTVSPost2010Prop56
140
1.0
102
RTVSPost2010PropOp56
 70
     1
102
RTVSPost2010Prop57
140
1.0
102
RTVSPost2010PropOp57
 70
     1
  0
XRECORD
  5
15C
102
{ACAD_REACTORS
330
15B
102
}
330
15B
100
AcDbXrecord
280
     1
102
RTVSPost2010Prop28
280
     0
102
RTVSPost2010PropOp28
 70
     1
102
RTVSPost2010Prop29
280
     1
102
RTVSPost2010PropOp29
 70
     1
102
RTVSPost2010Prop30
280
     1
102
RTVSPost2010PropOp30
 70
     1
102
RTVSPost2010Prop31
280
     0
102
RTVSPost2010PropOp31
 70
     1
102
RTVSPost2010Prop32
280
     0
102
RTVSPost2010PropOp32
 70
     1
102
RTVSPost2010Prop33
280
     0
102
RTVSPost2010PropOp33
 70
     1
102
RTVSPost2010Prop34
280
     0
102
RTVSPost2010PropOp34
 70
     1
102
RTVSPost2010Prop35
280
     0
102
RTVSPost2010PropOp35
 70
     1
102
RTVSPost2010Prop36
280
     0
102
RTVSPost2010PropOp36
 70
     1
102
RTVSPost2010Prop37
 90
       50
102
RTVSPost2010PropOp37
 70
     1
102
RTVSPost2010Prop38
140
0.0
102
RTVSPost2010PropOp38
 70
     1
102
RTVSPost2010Prop39
140
1.0
102
RTVSPost2010PropOp39
 70
     1
102
RTVSPost2010Prop40
 90
        0
102
RTVSPost2010PropOp40
 70
     1
102
RTVSPost2010Prop41ColorIndex
 90
       18
102
RTVSPost2010Prop41ColorRGB
 90
        0
102
RTVSPost2010PropOp41
 70
     1
102
RTVSPost2010Prop42
 90
       50
102
RTVSPost2010PropOp42
 70
     1
102
RTVSPost2010Prop43
 90
        3
102
RTVSPost2010PropOp43
 70
     1
102
RTVSPost2010Prop44ColorIndex
 90
        5
102
RTVSPost2010Prop44ColorRGB
 90
      255
102
RTVSPost2010PropOp44
 70
     1
102
RTVSPost2010Prop45
280
     0
102
RTVSPost2010PropOp45
 70
     1
102
RTVSPost2010Prop46
 90
       50
102
RTVSPost2010PropOp46
 70
     1
102
RTVSPost2010Prop47
 90
       50
102
RTVSPost2010PropOp47
 70
     1
102
RTVSPost2010Prop48
 90
       50
102
RTVSPost2010PropOp48
 70
     1
102
RTVSPost2010Prop49
280
     0
102
RTVSPost2010PropOp49
 70
     1
102
RTVSPost2010Prop50
 90
       50
102
RTVSPost2010PropOp50
 70
     1
102
RTVSPost2010Prop51ColorIndex
 90
      256
102
RTVSPost2010Prop51ColorRGB
 90
-16777216
102
RTVSPost2010PropOp51
 70
     0
102
RTVSPost2010Prop52
140
1.0
102
RTVSPost2010PropOp52
 70
     0
102
RTVSPost2010Prop53
 90
        2
102
RTVSPost2010PropOp53
 70
     1
102
RTVSPost2010Prop54
  1
strokes_ogs.tif
102
RTVSPost2010PropOp54
 70
     1
102
RTVSPost2010Prop55
280
     0
102
RTVSPost2010PropOp55
 70
     1
102
RTVSPost2010Prop56
140
1.0
102
RTVSPost2010PropOp56
 70
     1
102
RTVSPost2010Prop57
140
1.0
102
RTVSPost2010PropOp57
 70
     1
  0
XRECORD
  5
160
102
{ACAD_REACTORS
330
15F
102
}
330
15F
100
AcDbXrecord
280
     1
102
RTVSPost2010Prop28
280
     0
102
RTVSPost2010PropOp28
 70
     1
102
RTVSPost2010Prop29
280
     1
102
RTVSPost2010PropOp29
 70
     1
102
RTVSPost2010Prop30
280
     1
102
RTVSPost2010PropOp30
 70
     1
102
RTVSPost2010Prop31
280
     0
102
RTVSPost2010PropOp31
 70
     1
102
RTVSPost2010Prop32
280
     0
102
RTVSPost2010PropOp32
 70
     1
102
RTVSPost2010Prop33
280
     0
102
RTVSPost2010PropOp33
 70
     1
102
RTVSPost2010Prop34
280
     0
102
RTVSPost2010PropOp34
 70
     1
102
RTVSPost2010Prop35
280
     0
102
RTVSPost2010PropOp35
 70
     1
102
RTVSPost2010Prop36
280
     0
102
RTVSPost2010PropOp36
 70
     1
102
RTVSPost2010Prop37
 90
       50
102
RTVSPost2010PropOp37
 70
     1
102
RTVSPost2010Prop38
140
0.0
102
RTVSPost2010PropOp38
 70
     1
102
RTVSPost2010Prop39
140
1.0
102
RTVSPost2010PropOp39
 70
     1
102
RTVSPost2010Prop40
 90
        0
102
RTVSPost2010PropOp40
 70
     1
102
RTVSPost2010Prop41ColorIndex
 90
       18
102
RTVSPost2010Prop41ColorRGB
 90
        0
102
RTVSPost2010PropOp41
 70
     1
102
RTVSPost2010Prop42
 90
       50
102
RTVSPost2010PropOp42
 70
     1
102
RTVSPost2010Prop43
 90
        3
102
RTVSPost2010PropOp43
 70
     1
102
RTVSPost2010Prop44ColorIndex
 90
        5
102
RTVSPost2010Prop44ColorRGB
 90
      255
102
RTVSPost2010PropOp44
 70
     1
102
RTVSPost2010Prop45
280
     0
102
RTVSPost2010PropOp45
 70
     1
102
RTVSPost2010Prop46
 90
       50
102
RTVSPost2010PropOp46
 70
     1
102
RTVSPost2010Prop47
 90
       50
102
RTVSPost2010PropOp47
 70
     1
102
RTVSPost2010Prop48
 90
       50
102
RTVSPost2010PropOp48
 70
     1
102
RTVSPost2010Prop49
280
     0
102
RTVSPost2010PropOp49
 70
     1
102
RTVSPost2010Prop50
 90
       50
102
RTVSPost2010PropOp50
 70
     1
102
RTVSPost2010Prop51ColorIndex
 90
      256
102
RTVSPost2010Prop51ColorRGB
 90
-16777216
102
RTVSPost2010PropOp51
 70
     0
102
RTVSPost2010Prop52
140
1.0
102
RTVSPost2010PropOp52
 70
     0
102
RTVSPost2010Prop53
 90
        2
102
RTVSPost2010PropOp53
 70
     1
102
RTVSPost2010Prop54
  1
strokes_ogs.tif
102
RTVSPost2010PropOp54
 70
     1
102
RTVSPost2010Prop55
280
     0
102
RTVSPost2010PropOp55
 70
     1
102
RTVSPost2010Prop56
140
1.0
102
RTVSPost2010PropOp56
 70
     1
102
RTVSPost2010Prop57
140
1.0
102
RTVSPost2010PropOp57
 70
     1
  0
XRECORD
  5
17A
102
{ACAD_REACTORS
330
179
102
}
330
179
100
AcDbXrecord
280
     1
102
RTVSPost2010Prop28
280
     0
102
RTVSPost2010PropOp28
 70
     0
102
RTVSPost2010Prop29
280
     1
102
RTVSPost2010PropOp29
 70
     0
102
RTVSPost2010Prop30
280
     1
102
RTVSPost2010PropOp30
 70
     0
102
RTVSPost2010Prop31
280
     0
102
RTVSPost2010PropOp31
 70
     0
102
RTVSPost2010Prop32
280
     0
102
RTVSPost2010PropOp32
 70
     0
102
RTVSPost2010Prop33
280
     0
102
RTVSPost2010PropOp33
 70
     0
102
RTVSPost2010Prop34
280
     0
102
RTVSPost2010PropOp34
 70
     0
102
RTVSPost2010Prop35
280
     0
102
RTVSPost2010PropOp35
 70
     0
102
RTVSPost2010Prop36
280
     0
102
RTVSPost2010PropOp36
 70
     0
102
RTVSPost2010Prop37
 90
       50
102
RTVSPost2010PropOp37
 70
     0
102
RTVSPost2010Prop38
140
0.0
102
RTVSPost2010PropOp38
 70
     0
102
RTVSPost2010Prop39
140
1.0
102
RTVSPost2010PropOp39
 70
     0
102
RTVSPost2010Prop40
 90
        0
102
RTVSPost2010PropOp40
 70
     0
102
RTVSPost2010Prop41ColorIndex
 90
       18
102
RTVSPost2010Prop41ColorRGB
 90
        0
102
RTVSPost2010PropOp41
 70
     0
102
RTVSPost2010Prop42
 90
       50
102
RTVSPost2010PropOp42
 70
     0
102
RTVSPost2010Prop43
 90
        3
102
RTVSPost2010PropOp43
 70
     0
102
RTVSPost2010Prop44ColorIndex
 90
        5
102
RTVSPost2010Prop44ColorRGB
 90
      255
102
RTVSPost2010PropOp44
 70
     0
102
RTVSPost2010Prop45
280
     0
102
RTVSPost2010PropOp45
 70
     0
102
RTVSPost2010Prop46
 90
       50
102
RTVSPost2010PropOp46
 70
     0
102
RTVSPost2010Prop47
 90
       50
102
RTVSPost2010PropOp47
 70
     0
102
RTVSPost2010Prop48
 90
       50
102
RTVSPost2010PropOp48
 70
     0
102
RTVSPost2010Prop49
280
     0
102
RTVSPost2010PropOp49
 70
     0
102
RTVSPost2010Prop50
 90
       50
102
RTVSPost2010PropOp50
 70
     0
102
RTVSPost2010Prop51ColorIndex
 90
      256
102
RTVSPost2010Prop51ColorRGB
 90
-16777216
102
RTVSPost2010PropOp51
 70
     0
102
RTVSPost2010Prop52
140
1.0
102
RTVSPost2010PropOp52
 70
     0
102
RTVSPost2010Prop53
 90
        2
102
RTVSPost2010PropOp53
 70
     0
102
RTVSPost2010Prop54
  1
strokes_ogs.tif
102
RTVSPost2010PropOp54
 70
     0
102
RTVSPost2010Prop55
280
     0
102
RTVSPost2010PropOp55
 70
     0
102
RTVSPost2010Prop56
140
1.0
102
RTVSPost2010PropOp56
 70
     0
102
RTVSPost2010Prop57
140
1.0
102
RTVSPost2010PropOp57
 70
     0
  0
XRECORD
  5
168
102
{ACAD_REACTORS
330
167
102
}
330
167
100
AcDbXrecord
280
     1
102
RTVSPost2010Prop28
280
     0
102
RTVSPost2010PropOp28
 70
     1
102
RTVSPost2010Prop29
280
     1
102
RTVSPost2010PropOp29
 70
     1
102
RTVSPost2010Prop30
280
     1
102
RTVSPost2010PropOp30
 70
     1
102
RTVSPost2010Prop31
280
     0
102
RTVSPost2010PropOp31
 70
     1
102
RTVSPost2010Prop32
280
     0
102
RTVSPost2010PropOp32
 70
     1
102
RTVSPost2010Prop33
280
     0
102
RTVSPost2010PropOp33
 70
     1
102
RTVSPost2010Prop34
280
     0
102
RTVSPost2010PropOp34
 70
     1
102
RTVSPost2010Prop35
280
     0
102
RTVSPost2010PropOp35
 70
     1
102
RTVSPost2010Prop36
280
     0
102
RTVSPost2010PropOp36
 70
     1
102
RTVSPost2010Prop37
 90
       50
102
RTVSPost2010PropOp37
 70
     1
102
RTVSPost2010Prop38
140
0.0
102
RTVSPost2010PropOp38
 70
     1
102
RTVSPost2010Prop39
140
1.0
102
RTVSPost2010PropOp39
 70
     1
102
RTVSPost2010Prop40
 90
        0
102
RTVSPost2010PropOp40
 70
     1
102
RTVSPost2010Prop41ColorIndex
 90
       18
102
RTVSPost2010Prop41ColorRGB
 90
        0
102
RTVSPost2010PropOp41
 70
     1
102
RTVSPost2010Prop42
 90
       50
102
RTVSPost2010PropOp42
 70
     1
102
RTVSPost2010Prop43
 90
        3
102
RTVSPost2010PropOp43
 70
     1
102
RTVSPost2010Prop44ColorIndex
 90
        5
102
RTVSPost2010Prop44ColorRGB
 90
      255
102
RTVSPost2010PropOp44
 70
     1
102
RTVSPost2010Prop45
280
     0
102
RTVSPost2010PropOp45
 70
     1
102
RTVSPost2010Prop46
 90
       50
102
RTVSPost2010PropOp46
 70
     1
102
RTVSPost2010Prop47
 90
       50
102
RTVSPost2010PropOp47
 70
     1
102
RTVSPost2010Prop48
 90
       50
102
RTVSPost2010PropOp48
 70
     1
102
RTVSPost2010Prop49
280
     0
102
RTVSPost2010PropOp49
 70
     1
102
RTVSPost2010Prop50
 90
       50
102
RTVSPost2010PropOp50
 70
     1
102
RTVSPost2010Prop51ColorIndex
 90
      256
102
RTVSPost2010Prop51ColorRGB
 90
-16777216
102
RTVSPost2010PropOp51
 70
     0
102
RTVSPost2010Prop52
140
1.0
102
RTVSPost2010PropOp52
 70
     0
102
RTVSPost2010Prop53
 90
        2
102
RTVSPost2010PropOp53
 70
     1
102
RTVSPost2010Prop54
  1
strokes_ogs.tif
102
RTVSPost2010PropOp54
 70
     1
102
RTVSPost2010Prop55
280
     0
102
RTVSPost2010PropOp55
 70
     1
102
RTVSPost2010Prop56
140
1.0
102
RTVSPost2010PropOp56
 70
     1
102
RTVSPost2010Prop57
140
1.0
102
RTVSPost2010PropOp57
 70
     1
  0
XRECORD
  5
14C
102
{ACAD_REACTORS
330
14B
102
}
330
14B
100
AcDbXrecord
280
     1
102
RTVSPost2010Prop28
280
     0
102
RTVSPost2010PropOp28
 70
     1
102
RTVSPost2010Prop29
280
     1
102
RTVSPost2010PropOp29
 70
     1
102
RTVSPost2010Prop30
280
     1
102
RTVSPost2010PropOp30
 70
     1
102
RTVSPost2010Prop31
280
     0
102
RTVSPost2010PropOp31
 70
     1
102
RTVSPost2010Prop32
280
     0
102
RTVSPost2010PropOp32
 70
     1
102
RTVSPost2010Prop33
280
     0
102
RTVSPost2010PropOp33
 70
     1
102
RTVSPost2010Prop34
280
     0
102
RTVSPost2010PropOp34
 70
     1
102
RTVSPost2010Prop35
280
     0
102
RTVSPost2010PropOp35
 70
     1
102
RTVSPost2010Prop36
280
     0
102
RTVSPost2010PropOp36
 70
     1
102
RTVSPost2010Prop37
 90
       50
102
RTVSPost2010PropOp37
 70
     1
102
RTVSPost2010Prop38
140
0.0
102
RTVSPost2010PropOp38
 70
     1
102
RTVSPost2010Prop39
140
1.0
102
RTVSPost2010PropOp39
 70
     1
102
RTVSPost2010Prop40
 90
        0
102
RTVSPost2010PropOp40
 70
     1
102
RTVSPost2010Prop41ColorIndex
 90
       18
102
RTVSPost2010Prop41ColorRGB
 90
        0
102
RTVSPost2010PropOp41
 70
     1
102
RTVSPost2010Prop42
 90
       50
102
RTVSPost2010PropOp42
 70
     1
102
RTVSPost2010Prop43
 90
        3
102
RTVSPost2010PropOp43
 70
     1
102
RTVSPost2010Prop44ColorIndex
 90
        5
102
RTVSPost2010Prop44ColorRGB
 90
      255
102
RTVSPost2010PropOp44
 70
     1
102
RTVSPost2010Prop45
280
     0
102
RTVSPost2010PropOp45
 70
     1
102
RTVSPost2010Prop46
 90
       50
102
RTVSPost2010PropOp46
 70
     1
102
RTVSPost2010Prop47
 90
       50
102
RTVSPost2010PropOp47
 70
     1
102
RTVSPost2010Prop48
 90
       50
102
RTVSPost2010PropOp48
 70
     1
102
RTVSPost2010Prop49
280
     0
102
RTVSPost2010PropOp49
 70
     1
102
RTVSPost2010Prop50
 90
       50
102
RTVSPost2010PropOp50
 70
     1
102
RTVSPost2010Prop51ColorIndex
 90
      256
102
RTVSPost2010Prop51ColorRGB
 90
-16777216
102
RTVSPost2010PropOp51
 70
     0
102
RTVSPost2010Prop52
140
1.0
102
RTVSPost2010PropOp52
 70
     0
102
RTVSPost2010Prop53
 90
        2
102
RTVSPost2010PropOp53
 70
     1
102
RTVSPost2010Prop54
  1
strokes_ogs.tif
102
RTVSPost2010PropOp54
 70
     1
102
RTVSPost2010Prop55
280
     0
102
RTVSPost2010PropOp55
 70
     1
102
RTVSPost2010Prop56
140
1.0
102
RTVSPost2010PropOp56
 70
     1
102
RTVSPost2010Prop57
140
1.0
102
RTVSPost2010PropOp57
 70
     1
  0
XRECORD
  5
14E
102
{ACAD_REACTORS
330
14D
102
}
330
14D
100
AcDbXrecord
280
     1
102
RTVSPost2010Prop28
280
     0
102
RTVSPost2010PropOp28
 70
     1
102
RTVSPost2010Prop29
280
     1
102
RTVSPost2010PropOp29
 70
     1
102
RTVSPost2010Prop30
280
     1
102
RTVSPost2010PropOp30
 70
     1
102
RTVSPost2010Prop31
280
     0
102
RTVSPost2010PropOp31
 70
     1
102
RTVSPost2010Prop32
280
     0
102
RTVSPost2010PropOp32
 70
     1
102
RTVSPost2010Prop33
280
     0
102
RTVSPost2010PropOp33
 70
     1
102
RTVSPost2010Prop34
280
     0
102
RTVSPost2010PropOp34
 70
     1
102
RTVSPost2010Prop35
280
     0
102
RTVSPost2010PropOp35
 70
     1
102
RTVSPost2010Prop36
280
     0
102
RTVSPost2010PropOp36
 70
     1
102
RTVSPost2010Prop37
 90
       50
102
RTVSPost2010PropOp37
 70
     1
102
RTVSPost2010Prop38
140
0.0
102
RTVSPost2010PropOp38
 70
     1
102
RTVSPost2010Prop39
140
1.0
102
RTVSPost2010PropOp39
 70
     1
102
RTVSPost2010Prop40
 90
        0
102
RTVSPost2010PropOp40
 70
     1
102
RTVSPost2010Prop41ColorIndex
 90
       18
102
RTVSPost2010Prop41ColorRGB
 90
        0
102
RTVSPost2010PropOp41
 70
     1
102
RTVSPost2010Prop42
 90
       50
102
RTVSPost2010PropOp42
 70
     1
102
RTVSPost2010Prop43
 90
        3
102
RTVSPost2010PropOp43
 70
     1
102
RTVSPost2010Prop44ColorIndex
 90
        5
102
RTVSPost2010Prop44ColorRGB
 90
      255
102
RTVSPost2010PropOp44
 70
     1
102
RTVSPost2010Prop45
280
     0
102
RTVSPost2010PropOp45
 70
     1
102
RTVSPost2010Prop46
 90
       50
102
RTVSPost2010PropOp46
 70
     1
102
RTVSPost2010Prop47
 90
       50
102
RTVSPost2010PropOp47
 70
     1
102
RTVSPost2010Prop48
 90
       50
102
RTVSPost2010PropOp48
 70
     1
102
RTVSPost2010Prop49
280
     0
102
RTVSPost2010PropOp49
 70
     1
102
RTVSPost2010Prop50
 90
       50
102
RTVSPost2010PropOp50
 70
     1
102
RTVSPost2010Prop51ColorIndex
 90
      256
102
RTVSPost2010Prop51ColorRGB
 90
-16777216
102
RTVSPost2010PropOp51
 70
     0
102
RTVSPost2010Prop52
140
1.0
102
RTVSPost2010PropOp52
 70
     0
102
RTVSPost2010Prop53
 90
        2
102
RTVSPost2010PropOp53
 70
     1
102
RTVSPost2010Prop54
  1
strokes_ogs.tif
102
RTVSPost2010PropOp54
 70
     1
102
RTVSPost2010Prop55
280
     0
102
RTVSPost2010PropOp55
 70
     1
102
RTVSPost2010Prop56
140
1.0
102
RTVSPost2010PropOp56
 70
     1
102
RTVSPost2010Prop57
140
1.0
102
RTVSPost2010PropOp57
 70
     1
  0
XRECORD
  5
150
102
{ACAD_REACTORS
330
14F
102
}
330
14F
100
AcDbXrecord
280
     1
102
RTVSPost2010Prop28
280
     0
102
RTVSPost2010PropOp28
 70
     1
102
RTVSPost2010Prop29
280
     1
102
RTVSPost2010PropOp29
 70
     1
102
RTVSPost2010Prop30
280
     1
102
RTVSPost2010PropOp30
 70
     1
102
RTVSPost2010Prop31
280
     0
102
RTVSPost2010PropOp31
 70
     1
102
RTVSPost2010Prop32
280
     0
102
RTVSPost2010PropOp32
 70
     1
102
RTVSPost2010Prop33
280
     0
102
RTVSPost2010PropOp33
 70
     1
102
RTVSPost2010Prop34
280
     0
102
RTVSPost2010PropOp34
 70
     1
102
RTVSPost2010Prop35
280
     0
102
RTVSPost2010PropOp35
 70
     1
102
RTVSPost2010Prop36
280
     0
102
RTVSPost2010PropOp36
 70
     1
102
RTVSPost2010Prop37
 90
       50
102
RTVSPost2010PropOp37
 70
     1
102
RTVSPost2010Prop38
140
0.0
102
RTVSPost2010PropOp38
 70
     1
102
RTVSPost2010Prop39
140
1.0
102
RTVSPost2010PropOp39
 70
     1
102
RTVSPost2010Prop40
 90
        0
102
RTVSPost2010PropOp40
 70
     1
102
RTVSPost2010Prop41ColorIndex
 90
       18
102
RTVSPost2010Prop41ColorRGB
 90
        0
102
RTVSPost2010PropOp41
 70
     1
102
RTVSPost2010Prop42
 90
       50
102
RTVSPost2010PropOp42
 70
     1
102
RTVSPost2010Prop43
 90
        3
102
RTVSPost2010PropOp43
 70
     1
102
RTVSPost2010Prop44ColorIndex
 90
        5
102
RTVSPost2010Prop44ColorRGB
 90
      255
102
RTVSPost2010PropOp44
 70
     1
102
RTVSPost2010Prop45
280
     0
102
RTVSPost2010PropOp45
 70
     1
102
RTVSPost2010Prop46
 90
       50
102
RTVSPost2010PropOp46
 70
     1
102
RTVSPost2010Prop47
 90
       50
102
RTVSPost2010PropOp47
 70
     1
102
RTVSPost2010Prop48
 90
       50
102
RTVSPost2010PropOp48
 70
     1
102
RTVSPost2010Prop49
280
     0
102
RTVSPost2010PropOp49
 70
     1
102
RTVSPost2010Prop50
 90
       50
102
RTVSPost2010PropOp50
 70
     1
102
RTVSPost2010Prop51ColorIndex
 90
      256
102
RTVSPost2010Prop51ColorRGB
 90
-16777216
102
RTVSPost2010PropOp51
 70
     0
102
RTVSPost2010Prop52
140
1.0
102
RTVSPost2010PropOp52
 70
     0
102
RTVSPost2010Prop53
 90
        2
102
RTVSPost2010PropOp53
 70
     1
102
RTVSPost2010Prop54
  1
strokes_ogs.tif
102
RTVSPost2010PropOp54
 70
     1
102
RTVSPost2010Prop55
280
     0
102
RTVSPost2010PropOp55
 70
     1
102
RTVSPost2010Prop56
140
1.0
102
RTVSPost2010PropOp56
 70
     1
102
RTVSPost2010Prop57
140
1.0
102
RTVSPost2010PropOp57
 70
     1
  0
XRECORD
  5
152
102
{ACAD_REACTORS
330
151
102
}
330
151
100
AcDbXrecord
280
     1
102
RTVSPost2010Prop28
280
     0
102
RTVSPost2010PropOp28
 70
     1
102
RTVSPost2010Prop29
280
     1
102
RTVSPost2010PropOp29
 70
     1
102
RTVSPost2010Prop30
280
     1
102
RTVSPost2010PropOp30
 70
     1
102
RTVSPost2010Prop31
280
     0
102
RTVSPost2010PropOp31
 70
     1
102
RTVSPost2010Prop32
280
     0
102
RTVSPost2010PropOp32
 70
     1
102
RTVSPost2010Prop33
280
     0
102
RTVSPost2010PropOp33
 70
     1
102
RTVSPost2010Prop34
280
     0
102
RTVSPost2010PropOp34
 70
     1
102
RTVSPost2010Prop35
280
     0
102
RTVSPost2010PropOp35
 70
     1
102
RTVSPost2010Prop36
280
     0
102
RTVSPost2010PropOp36
 70
     1
102
RTVSPost2010Prop37
 90
       50
102
RTVSPost2010PropOp37
 70
     1
102
RTVSPost2010Prop38
140
0.0
102
RTVSPost2010PropOp38
 70
     1
102
RTVSPost2010Prop39
140
1.0
102
RTVSPost2010PropOp39
 70
     1
102
RTVSPost2010Prop40
 90
        0
102
RTVSPost2010PropOp40
 70
     1
102
RTVSPost2010Prop41ColorIndex
 90
       18
102
RTVSPost2010Prop41ColorRGB
 90
        0
102
RTVSPost2010PropOp41
 70
     1
102
RTVSPost2010Prop42
 90
       50
102
RTVSPost2010PropOp42
 70
     1
102
RTVSPost2010Prop43
 90
        3
102
RTVSPost2010PropOp43
 70
     1
102
RTVSPost2010Prop44ColorIndex
 90
        5
102
RTVSPost2010Prop44ColorRGB
 90
      255
102
RTVSPost2010PropOp44
 70
     1
102
RTVSPost2010Prop45
280
     0
102
RTVSPost2010PropOp45
 70
     1
102
RTVSPost2010Prop46
 90
       50
102
RTVSPost2010PropOp46
 70
     1
102
RTVSPost2010Prop47
 90
       50
102
RTVSPost2010PropOp47
 70
     1
102
RTVSPost2010Prop48
 90
       50
102
RTVSPost2010PropOp48
 70
     1
102
RTVSPost2010Prop49
280
     0
102
RTVSPost2010PropOp49
 70
     1
102
RTVSPost2010Prop50
 90
       50
102
RTVSPost2010PropOp50
 70
     1
102
RTVSPost2010Prop51ColorIndex
 90
      256
102
RTVSPost2010Prop51ColorRGB
 90
-16777216
102
RTVSPost2010PropOp51
 70
     0
102
RTVSPost2010Prop52
140
1.0
102
RTVSPost2010PropOp52
 70
     0
102
RTVSPost2010Prop53
 90
        2
102
RTVSPost2010PropOp53
 70
     1
102
RTVSPost2010Prop54
  1
strokes_ogs.tif
102
RTVSPost2010PropOp54
 70
     1
102
RTVSPost2010Prop55
280
     0
102
RTVSPost2010PropOp55
 70
     1
102
RTVSPost2010Prop56
140
1.0
102
RTVSPost2010PropOp56
 70
     1
102
RTVSPost2010Prop57
140
1.0
102
RTVSPost2010PropOp57
 70
     1
  0
XRECORD
  5
15A
102
{ACAD_REACTORS
330
159
102
}
330
159
100
AcDbXrecord
280
     1
102
RTVSPost2010Prop28
280
     0
102
RTVSPost2010PropOp28
 70
     1
102
RTVSPost2010Prop29
280
     1
102
RTVSPost2010PropOp29
 70
     1
102
RTVSPost2010Prop30
280
     1
102
RTVSPost2010PropOp30
 70
     1
102
RTVSPost2010Prop31
280
     0
102
RTVSPost2010PropOp31
 70
     1
102
RTVSPost2010Prop32
280
     0
102
RTVSPost2010PropOp32
 70
     1
102
RTVSPost2010Prop33
280
     0
102
RTVSPost2010PropOp33
 70
     1
102
RTVSPost2010Prop34
280
     0
102
RTVSPost2010PropOp34
 70
     1
102
RTVSPost2010Prop35
280
     0
102
RTVSPost2010PropOp35
 70
     1
102
RTVSPost2010Prop36
280
     0
102
RTVSPost2010PropOp36
 70
     1
102
RTVSPost2010Prop37
 90
       50
102
RTVSPost2010PropOp37
 70
     1
102
RTVSPost2010Prop38
140
0.0
102
RTVSPost2010PropOp38
 70
     1
102
RTVSPost2010Prop39
140
1.0
102
RTVSPost2010PropOp39
 70
     1
102
RTVSPost2010Prop40
 90
        0
102
RTVSPost2010PropOp40
 70
     1
102
RTVSPost2010Prop41ColorIndex
 90
       18
102
RTVSPost2010Prop41ColorRGB
 90
        0
102
RTVSPost2010PropOp41
 70
     1
102
RTVSPost2010Prop42
 90
       50
102
RTVSPost2010PropOp42
 70
     1
102
RTVSPost2010Prop43
 90
        3
102
RTVSPost2010PropOp43
 70
     1
102
RTVSPost2010Prop44ColorIndex
 90
        5
102
RTVSPost2010Prop44ColorRGB
 90
      255
102
RTVSPost2010PropOp44
 70
     1
102
RTVSPost2010Prop45
280
     0
102
RTVSPost2010PropOp45
 70
     1
102
RTVSPost2010Prop46
 90
       50
102
RTVSPost2010PropOp46
 70
     1
102
RTVSPost2010Prop47
 90
       50
102
RTVSPost2010PropOp47
 70
     1
102
RTVSPost2010Prop48
 90
       50
102
RTVSPost2010PropOp48
 70
     1
102
RTVSPost2010Prop49
280
     0
102
RTVSPost2010PropOp49
 70
     1
102
RTVSPost2010Prop50
 90
       50
102
RTVSPost2010PropOp50
 70
     1
102
RTVSPost2010Prop51ColorIndex
 90
      256
102
RTVSPost2010Prop51ColorRGB
 90
-16777216
102
RTVSPost2010PropOp51
 70
     0
102
RTVSPost2010Prop52
140
1.0
102
RTVSPost2010PropOp52
 70
     0
102
RTVSPost2010Prop53
 90
        2
102
RTVSPost2010PropOp53
 70
     1
102
RTVSPost2010Prop54
  1
strokes_ogs.tif
102
RTVSPost2010PropOp54
 70
     1
102
RTVSPost2010Prop55
280
     0
102
RTVSPost2010PropOp55
 70
     1
102
RTVSPost2010Prop56
140
1.0
102
RTVSPost2010PropOp56
 70
     1
102
RTVSPost2010Prop57
140
1.0
102
RTVSPost2010PropOp57
 70
     1
  0
XRECORD
  5
176
102
{ACAD_REACTORS
330
175
102
}
330
175
100
AcDbXrecord
280
     1
102
RTVSPost2010Prop28
280
     0
102
RTVSPost2010PropOp28
 70
     0
102
RTVSPost2010Prop29
280
     1
102
RTVSPost2010PropOp29
 70
     0
102
RTVSPost2010Prop30
280
     1
102
RTVSPost2010PropOp30
 70
     0
102
RTVSPost2010Prop31
280
     0
102
RTVSPost2010PropOp31
 70
     0
102
RTVSPost2010Prop32
280
     0
102
RTVSPost2010PropOp32
 70
     0
102
RTVSPost2010Prop33
280
     0
102
RTVSPost2010PropOp33
 70
     0
102
RTVSPost2010Prop34
280
     0
102
RTVSPost2010PropOp34
 70
     0
102
RTVSPost2010Prop35
280
     0
102
RTVSPost2010PropOp35
 70
     0
102
RTVSPost2010Prop36
280
     0
102
RTVSPost2010PropOp36
 70
     0
102
RTVSPost2010Prop37
 90
       50
102
RTVSPost2010PropOp37
 70
     0
102
RTVSPost2010Prop38
140
0.0
102
RTVSPost2010PropOp38
 70
     0
102
RTVSPost2010Prop39
140
1.0
102
RTVSPost2010PropOp39
 70
     0
102
RTVSPost2010Prop40
 90
        0
102
RTVSPost2010PropOp40
 70
     0
102
RTVSPost2010Prop41ColorIndex
 90
       18
102
RTVSPost2010Prop41ColorRGB
 90
        0
102
RTVSPost2010PropOp41
 70
     0
102
RTVSPost2010Prop42
 90
       50
102
RTVSPost2010PropOp42
 70
     0
102
RTVSPost2010Prop43
 90
        3
102
RTVSPost2010PropOp43
 70
     0
102
RTVSPost2010Prop44ColorIndex
 90
        5
102
RTVSPost2010Prop44ColorRGB
 90
      255
102
RTVSPost2010PropOp44
 70
     0
102
RTVSPost2010Prop45
280
     0
102
RTVSPost2010PropOp45
 70
     0
102
RTVSPost2010Prop46
 90
       50
102
RTVSPost2010PropOp46
 70
     0
102
RTVSPost2010Prop47
 90
       50
102
RTVSPost2010PropOp47
 70
     0
102
RTVSPost2010Prop48
 90
       50
102
RTVSPost2010PropOp48
 70
     0
102
RTVSPost2010Prop49
280
     0
102
RTVSPost2010PropOp49
 70
     0
102
RTVSPost2010Prop50
 90
       50
102
RTVSPost2010PropOp50
 70
     0
102
RTVSPost2010Prop51ColorIndex
 90
      256
102
RTVSPost2010Prop51ColorRGB
 90
-16777216
102
RTVSPost2010PropOp51
 70
     0
102
RTVSPost2010Prop52
140
1.0
102
RTVSPost2010PropOp52
 70
     0
102
RTVSPost2010Prop53
 90
        2
102
RTVSPost2010PropOp53
 70
     0
102
RTVSPost2010Prop54
  1
strokes_ogs.tif
102
RTVSPost2010PropOp54
 70
     0
102
RTVSPost2010Prop55
280
     0
102
RTVSPost2010PropOp55
 70
     0
102
RTVSPost2010Prop56
140
1.0
102
RTVSPost2010PropOp56
 70
     0
102
RTVSPost2010Prop57
140
1.0
102
RTVSPost2010PropOp57
 70
     0
  0
XRECORD
  5
166
102
{ACAD_REACTORS
330
165
102
}
330
165
100
AcDbXrecord
280
     1
102
RTVSPost2010Prop28
280
     0
102
RTVSPost2010PropOp28
 70
     1
102
RTVSPost2010Prop29
280
     1
102
RTVSPost2010PropOp29
 70
     1
102
RTVSPost2010Prop30
280
     1
102
RTVSPost2010PropOp30
 70
     1
102
RTVSPost2010Prop31
280
     0
102
RTVSPost2010PropOp31
 70
     1
102
RTVSPost2010Prop32
280
     0
102
RTVSPost2010PropOp32
 70
     1
102
RTVSPost2010Prop33
280
     0
102
RTVSPost2010PropOp33
 70
     1
102
RTVSPost2010Prop34
280
     0
102
RTVSPost2010PropOp34
 70
     1
102
RTVSPost2010Prop35
280
     0
102
RTVSPost2010PropOp35
 70
     1
102
RTVSPost2010Prop36
280
     0
102
RTVSPost2010PropOp36
 70
     1
102
RTVSPost2010Prop37
 90
       50
102
RTVSPost2010PropOp37
 70
     1
102
RTVSPost2010Prop38
140
0.0
102
RTVSPost2010PropOp38
 70
     1
102
RTVSPost2010Prop39
140
1.0
102
RTVSPost2010PropOp39
 70
     1
102
RTVSPost2010Prop40
 90
        0
102
RTVSPost2010PropOp40
 70
     1
102
RTVSPost2010Prop41ColorIndex
 90
       18
102
RTVSPost2010Prop41ColorRGB
 90
        0
102
RTVSPost2010PropOp41
 70
     1
102
RTVSPost2010Prop42
 90
       50
102
RTVSPost2010PropOp42
 70
     1
102
RTVSPost2010Prop43
 90
        3
102
RTVSPost2010PropOp43
 70
     1
102
RTVSPost2010Prop44ColorIndex
 90
        5
102
RTVSPost2010Prop44ColorRGB
 90
      255
102
RTVSPost2010PropOp44
 70
     1
102
RTVSPost2010Prop45
280
     0
102
RTVSPost2010PropOp45
 70
     1
102
RTVSPost2010Prop46
 90
       50
102
RTVSPost2010PropOp46
 70
     1
102
RTVSPost2010Prop47
 90
       50
102
RTVSPost2010PropOp47
 70
     1
102
RTVSPost2010Prop48
 90
       50
102
RTVSPost2010PropOp48
 70
     1
102
RTVSPost2010Prop49
280
     0
102
RTVSPost2010PropOp49
 70
     1
102
RTVSPost2010Prop50
 90
       50
102
RTVSPost2010PropOp50
 70
     1
102
RTVSPost2010Prop51ColorIndex
 90
      256
102
RTVSPost2010Prop51ColorRGB
 90
-16777216
102
RTVSPost2010PropOp51
 70
     0
102
RTVSPost2010Prop52
140
1.0
102
RTVSPost2010PropOp52
 70
     0
102
RTVSPost2010Prop53
 90
        2
102
RTVSPost2010PropOp53
 70
     1
102
RTVSPost2010Prop54
  1
strokes_ogs.tif
102
RTVSPost2010PropOp54
 70
     1
102
RTVSPost2010Prop55
280
     0
102
RTVSPost2010PropOp55
 70
     1
102
RTVSPost2010Prop56
140
1.0
102
RTVSPost2010PropOp56
 70
     1
102
RTVSPost2010Prop57
140
1.0
102
RTVSPost2010PropOp57
 70
     1
  0
XRECORD
  5
178
102
{ACAD_REACTORS
330
177
102
}
330
177
100
AcDbXrecord
280
     1
102
RTVSPost2010Prop28
280
     0
102
RTVSPost2010PropOp28
 70
     0
102
RTVSPost2010Prop29
280
     1
102
RTVSPost2010PropOp29
 70
     0
102
RTVSPost2010Prop30
280
     1
102
RTVSPost2010PropOp30
 70
     0
102
RTVSPost2010Prop31
280
     0
102
RTVSPost2010PropOp31
 70
     0
102
RTVSPost2010Prop32
280
     0
102
RTVSPost2010PropOp32
 70
     0
102
RTVSPost2010Prop33
280
     0
102
RTVSPost2010PropOp33
 70
     0
102
RTVSPost2010Prop34
280
     0
102
RTVSPost2010PropOp34
 70
     0
102
RTVSPost2010Prop35
280
     0
102
RTVSPost2010PropOp35
 70
     0
102
RTVSPost2010Prop36
280
     0
102
RTVSPost2010PropOp36
 70
     0
102
RTVSPost2010Prop37
 90
       50
102
RTVSPost2010PropOp37
 70
     0
102
RTVSPost2010Prop38
140
0.0
102
RTVSPost2010PropOp38
 70
     0
102
RTVSPost2010Prop39
140
1.0
102
RTVSPost2010PropOp39
 70
     0
102
RTVSPost2010Prop40
 90
        0
102
RTVSPost2010PropOp40
 70
     0
102
RTVSPost2010Prop41ColorIndex
 90
       18
102
RTVSPost2010Prop41ColorRGB
 90
        0
102
RTVSPost2010PropOp41
 70
     0
102
RTVSPost2010Prop42
 90
       50
102
RTVSPost2010PropOp42
 70
     0
102
RTVSPost2010Prop43
 90
        3
102
RTVSPost2010PropOp43
 70
     0
102
RTVSPost2010Prop44ColorIndex
 90
        5
102
RTVSPost2010Prop44ColorRGB
 90
      255
102
RTVSPost2010PropOp44
 70
     0
102
RTVSPost2010Prop45
280
     0
102
RTVSPost2010PropOp45
 70
     0
102
RTVSPost2010Prop46
 90
       50
102
RTVSPost2010PropOp46
 70
     0
102
RTVSPost2010Prop47
 90
       50
102
RTVSPost2010PropOp47
 70
     0
102
RTVSPost2010Prop48
 90
       50
102
RTVSPost2010PropOp48
 70
     0
102
RTVSPost2010Prop49
280
     0
102
RTVSPost2010PropOp49
 70
     0
102
RTVSPost2010Prop50
 90
       50
102
RTVSPost2010PropOp50
 70
     0
102
RTVSPost2010Prop51ColorIndex
 90
      256
102
RTVSPost2010Prop51ColorRGB
 90
-16777216
102
RTVSPost2010PropOp51
 70
     0
102
RTVSPost2010Prop52
140
1.0
102
RTVSPost2010PropOp52
 70
     0
102
RTVSPost2010Prop53
 90
        2
102
RTVSPost2010PropOp53
 70
     0
102
RTVSPost2010Prop54
  1
strokes_ogs.tif
102
RTVSPost2010PropOp54
 70
     0
102
RTVSPost2010Prop55
280
     0
102
RTVSPost2010PropOp55
 70
     0
102
RTVSPost2010Prop56
140
1.0
102
RTVSPost2010PropOp56
 70
     0
102
RTVSPost2010Prop57
140
1.0
102
RTVSPost2010PropOp57
 70
     0
  0
XRECORD
  5
15E
102
{ACAD_REACTORS
330
15D
102
}
330
15D
100
AcDbXrecord
280
     1
102
RTVSPost2010Prop28
280
     0
102
RTVSPost2010PropOp28
 70
     1
102
RTVSPost2010Prop29
280
     1
102
RTVSPost2010PropOp29
 70
     1
102
RTVSPost2010Prop30
280
     1
102
RTVSPost2010PropOp30
 70
     1
102
RTVSPost2010Prop31
280
     0
102
RTVSPost2010PropOp31
 70
     1
102
RTVSPost2010Prop32
280
     0
102
RTVSPost2010PropOp32
 70
     1
102
RTVSPost2010Prop33
280
     0
102
RTVSPost2010PropOp33
 70
     1
102
RTVSPost2010Prop34
280
     0
102
RTVSPost2010PropOp34
 70
     1
102
RTVSPost2010Prop35
280
     0
102
RTVSPost2010PropOp35
 70
     1
102
RTVSPost2010Prop36
280
     0
102
RTVSPost2010PropOp36
 70
     1
102
RTVSPost2010Prop37
 90
       50
102
RTVSPost2010PropOp37
 70
     1
102
RTVSPost2010Prop38
140
0.0
102
RTVSPost2010PropOp38
 70
     1
102
RTVSPost2010Prop39
140
1.0
102
RTVSPost2010PropOp39
 70
     1
102
RTVSPost2010Prop40
 90
        0
102
RTVSPost2010PropOp40
 70
     1
102
RTVSPost2010Prop41ColorIndex
 90
       18
102
RTVSPost2010Prop41ColorRGB
 90
        0
102
RTVSPost2010PropOp41
 70
     1
102
RTVSPost2010Prop42
 90
       50
102
RTVSPost2010PropOp42
 70
     1
102
RTVSPost2010Prop43
 90
        3
102
RTVSPost2010PropOp43
 70
     1
102
RTVSPost2010Prop44ColorIndex
 90
        5
102
RTVSPost2010Prop44ColorRGB
 90
      255
102
RTVSPost2010PropOp44
 70
     1
102
RTVSPost2010Prop45
280
     0
102
RTVSPost2010PropOp45
 70
     1
102
RTVSPost2010Prop46
 90
       50
102
RTVSPost2010PropOp46
 70
     1
102
RTVSPost2010Prop47
 90
       50
102
RTVSPost2010PropOp47
 70
     1
102
RTVSPost2010Prop48
 90
       50
102
RTVSPost2010PropOp48
 70
     1
102
RTVSPost2010Prop49
280
     0
102
RTVSPost2010PropOp49
 70
     1
102
RTVSPost2010Prop50
 90
       50
102
RTVSPost2010PropOp50
 70
     1
102
RTVSPost2010Prop51ColorIndex
 90
      256
102
RTVSPost2010Prop51ColorRGB
 90
-16777216
102
RTVSPost2010PropOp51
 70
     0
102
RTVSPost2010Prop52
140
1.0
102
RTVSPost2010PropOp52
 70
     0
102
RTVSPost2010Prop53
 90
        2
102
RTVSPost2010PropOp53
 70
     1
102
RTVSPost2010Prop54
  1
strokes_ogs.tif
102
RTVSPost2010PropOp54
 70
     1
102
RTVSPost2010Prop55
280
     0
102
RTVSPost2010PropOp55
 70
     1
102
RTVSPost2010Prop56
140
1.0
102
RTVSPost2010PropOp56
 70
     1
102
RTVSPost2010Prop57
140
1.0
102
RTVSPost2010PropOp57
 70
     1
  0
XRECORD
  5
174
102
{ACAD_REACTORS
330
173
102
}
330
173
100
AcDbXrecord
280
     1
102
RTVSPost2010Prop28
280
     0
102
RTVSPost2010PropOp28
 70
     1
102
RTVSPost2010Prop29
280
     1
102
RTVSPost2010PropOp29
 70
     1
102
RTVSPost2010Prop30
280
     1
102
RTVSPost2010PropOp30
 70
     1
102
RTVSPost2010Prop31
280
     0
102
RTVSPost2010PropOp31
 70
     1
102
RTVSPost2010Prop32
280
     0
102
RTVSPost2010PropOp32
 70
     1
102
RTVSPost2010Prop33
280
     0
102
RTVSPost2010PropOp33
 70
     1
102
RTVSPost2010Prop34
280
     0
102
RTVSPost2010PropOp34
 70
     1
102
RTVSPost2010Prop35
280
     0
102
RTVSPost2010PropOp35
 70
     1
102
RTVSPost2010Prop36
280
     0
102
RTVSPost2010PropOp36
 70
     1
102
RTVSPost2010Prop37
 90
       50
102
RTVSPost2010PropOp37
 70
     1
102
RTVSPost2010Prop38
140
0.0
102
RTVSPost2010PropOp38
 70
     1
102
RTVSPost2010Prop39
140
1.0
102
RTVSPost2010PropOp39
 70
     1
102
RTVSPost2010Prop40
 90
        0
102
RTVSPost2010PropOp40
 70
     1
102
RTVSPost2010Prop41ColorIndex
 90
       18
102
RTVSPost2010Prop41ColorRGB
 90
        0
102
RTVSPost2010PropOp41
 70
     1
102
RTVSPost2010Prop42
 90
       50
102
RTVSPost2010PropOp42
 70
     1
102
RTVSPost2010Prop43
 90
        3
102
RTVSPost2010PropOp43
 70
     1
102
RTVSPost2010Prop44ColorIndex
 90
        5
102
RTVSPost2010Prop44ColorRGB
 90
      255
102
RTVSPost2010PropOp44
 70
     1
102
RTVSPost2010Prop45
280
     0
102
RTVSPost2010PropOp45
 70
     1
102
RTVSPost2010Prop46
 90
       50
102
RTVSPost2010PropOp46
 70
     1
102
RTVSPost2010Prop47
 90
       50
102
RTVSPost2010PropOp47
 70
     1
102
RTVSPost2010Prop48
 90
       50
102
RTVSPost2010PropOp48
 70
     1
102
RTVSPost2010Prop49
280
     0
102
RTVSPost2010PropOp49
 70
     1
102
RTVSPost2010Prop50
 90
       50
102
RTVSPost2010PropOp50
 70
     1
102
RTVSPost2010Prop51ColorIndex
 90
      256
102
RTVSPost2010Prop51ColorRGB
 90
-16777216
102
RTVSPost2010PropOp51
 70
     0
102
RTVSPost2010Prop52
140
1.0
102
RTVSPost2010PropOp52
 70
     0
102
RTVSPost2010Prop53
 90
        2
102
RTVSPost2010PropOp53
 70
     1
102
RTVSPost2010Prop54
  1
strokes_ogs.tif
102
RTVSPost2010PropOp54
 70
     1
102
RTVSPost2010Prop55
280
     0
102
RTVSPost2010PropOp55
 70
     1
102
RTVSPost2010Prop56
140
1.0
102
RTVSPost2010PropOp56
 70
     1
102
RTVSPost2010Prop57
140
1.0
102
RTVSPost2010PropOp57
 70
     1
  0
XRECORD
  5
172
102
{ACAD_REACTORS
330
171
102
}
330
171
100
AcDbXrecord
280
     1
102
RTVSPost2010Prop28
280
     0
102
RTVSPost2010PropOp28
 70
     1
102
RTVSPost2010Prop29
280
     1
102
RTVSPost2010PropOp29
 70
     1
102
RTVSPost2010Prop30
280
     1
102
RTVSPost2010PropOp30
 70
     1
102
RTVSPost2010Prop31
280
     0
102
RTVSPost2010PropOp31
 70
     1
102
RTVSPost2010Prop32
280
     0
102
RTVSPost2010PropOp32
 70
     1
102
RTVSPost2010Prop33
280
     0
102
RTVSPost2010PropOp33
 70
     1
102
RTVSPost2010Prop34
280
     0
102
RTVSPost2010PropOp34
 70
     1
102
RTVSPost2010Prop35
280
     0
102
RTVSPost2010PropOp35
 70
     1
102
RTVSPost2010Prop36
280
     0
102
RTVSPost2010PropOp36
 70
     1
102
RTVSPost2010Prop37
 90
       50
102
RTVSPost2010PropOp37
 70
     1
102
RTVSPost2010Prop38
140
0.0
102
RTVSPost2010PropOp38
 70
     1
102
RTVSPost2010Prop39
140
1.0
102
RTVSPost2010PropOp39
 70
     1
102
RTVSPost2010Prop40
 90
        0
102
RTVSPost2010PropOp40
 70
     1
102
RTVSPost2010Prop41ColorIndex
 90
       18
102
RTVSPost2010Prop41ColorRGB
 90
        0
102
RTVSPost2010PropOp41
 70
     1
102
RTVSPost2010Prop42
 90
       50
102
RTVSPost2010PropOp42
 70
     1
102
RTVSPost2010Prop43
 90
        3
102
RTVSPost2010PropOp43
 70
     1
102
RTVSPost2010Prop44ColorIndex
 90
        5
102
RTVSPost2010Prop44ColorRGB
 90
      255
102
RTVSPost2010PropOp44
 70
     1
102
RTVSPost2010Prop45
280
     0
102
RTVSPost2010PropOp45
 70
     1
102
RTVSPost2010Prop46
 90
       50
102
RTVSPost2010PropOp46
 70
     1
102
RTVSPost2010Prop47
 90
       50
102
RTVSPost2010PropOp47
 70
     1
102
RTVSPost2010Prop48
 90
       50
102
RTVSPost2010PropOp48
 70
     1
102
RTVSPost2010Prop49
280
     0
102
RTVSPost2010PropOp49
 70
     1
102
RTVSPost2010Prop50
 90
       50
102
RTVSPost2010PropOp50
 70
     1
102
RTVSPost2010Prop51ColorIndex
 90
      256
102
RTVSPost2010Prop51ColorRGB
 90
-16777216
102
RTVSPost2010PropOp51
 70
     0
102
RTVSPost2010Prop52
140
1.0
102
RTVSPost2010PropOp52
 70
     0
102
RTVSPost2010Prop53
 90
        2
102
RTVSPost2010PropOp53
 70
     1
102
RTVSPost2010Prop54
  1
strokes_ogs.tif
102
RTVSPost2010PropOp54
 70
     1
102
RTVSPost2010Prop55
280
     0
102
RTVSPost2010PropOp55
 70
     1
102
RTVSPost2010Prop56
140
1.0
102
RTVSPost2010PropOp56
 70
     1
102
RTVSPost2010Prop57
140
1.0
102
RTVSPost2010PropOp57
 70
     1
  0
XRECORD
  5
16C
102
{ACAD_REACTORS
330
16B
102
}
330
16B
100
AcDbXrecord
280
     1
102
RTVSPost2010Prop28
280
     0
102
RTVSPost2010PropOp28
 70
     1
102
RTVSPost2010Prop29
280
     1
102
RTVSPost2010PropOp29
 70
     1
102
RTVSPost2010Prop30
280
     1
102
RTVSPost2010PropOp30
 70
     1
102
RTVSPost2010Prop31
280
     0
102
RTVSPost2010PropOp31
 70
     1
102
RTVSPost2010Prop32
280
     0
102
RTVSPost2010PropOp32
 70
     1
102
RTVSPost2010Prop33
280
     0
102
RTVSPost2010PropOp33
 70
     1
102
RTVSPost2010Prop34
280
     0
102
RTVSPost2010PropOp34
 70
     1
102
RTVSPost2010Prop35
280
     0
102
RTVSPost2010PropOp35
 70
     1
102
RTVSPost2010Prop36
280
     0
102
RTVSPost2010PropOp36
 70
     1
102
RTVSPost2010Prop37
 90
       50
102
RTVSPost2010PropOp37
 70
     1
102
RTVSPost2010Prop38
140
0.0
102
RTVSPost2010PropOp38
 70
     1
102
RTVSPost2010Prop39
140
1.0
102
RTVSPost2010PropOp39
 70
     1
102
RTVSPost2010Prop40
 90
        0
102
RTVSPost2010PropOp40
 70
     1
102
RTVSPost2010Prop41ColorIndex
 90
       18
102
RTVSPost2010Prop41ColorRGB
 90
        0
102
RTVSPost2010PropOp41
 70
     1
102
RTVSPost2010Prop42
 90
       50
102
RTVSPost2010PropOp42
 70
     1
102
RTVSPost2010Prop43
 90
        3
102
RTVSPost2010PropOp43
 70
     1
102
RTVSPost2010Prop44ColorIndex
 90
        5
102
RTVSPost2010Prop44ColorRGB
 90
      255
102
RTVSPost2010PropOp44
 70
     1
102
RTVSPost2010Prop45
280
     0
102
RTVSPost2010PropOp45
 70
     1
102
RTVSPost2010Prop46
 90
       50
102
RTVSPost2010PropOp46
 70
     1
102
RTVSPost2010Prop47
 90
       50
102
RTVSPost2010PropOp47
 70
     1
102
RTVSPost2010Prop48
 90
       50
102
RTVSPost2010PropOp48
 70
     1
102
RTVSPost2010Prop49
280
     0
102
RTVSPost2010PropOp49
 70
     1
102
RTVSPost2010Prop50
 90
       50
102
RTVSPost2010PropOp50
 70
     1
102
RTVSPost2010Prop51ColorIndex
 90
      256
102
RTVSPost2010Prop51ColorRGB
 90
-16777216
102
RTVSPost2010PropOp51
 70
     0
102
RTVSPost2010Prop52
140
1.0
102
RTVSPost2010PropOp52
 70
     0
102
RTVSPost2010Prop53
 90
        2
102
RTVSPost2010PropOp53
 70
     1
102
RTVSPost2010Prop54
  1
strokes_ogs.tif
102
RTVSPost2010PropOp54
 70
     1
102
RTVSPost2010Prop55
280
     0
102
RTVSPost2010PropOp55
 70
     1
102
RTVSPost2010Prop56
140
1.0
102
RTVSPost2010PropOp56
 70
     1
102
RTVSPost2010Prop57
140
1.0
102
RTVSPost2010PropOp57
 70
     1
  0
XRECORD
  5
16E
102
{ACAD_REACTORS
330
16D
102
}
330
16D
100
AcDbXrecord
280
     1
102
RTVSPost2010Prop28
280
     0
102
RTVSPost2010PropOp28
 70
     1
102
RTVSPost2010Prop29
280
     1
102
RTVSPost2010PropOp29
 70
     1
102
RTVSPost2010Prop30
280
     1
102
RTVSPost2010PropOp30
 70
     1
102
RTVSPost2010Prop31
280
     0
102
RTVSPost2010PropOp31
 70
     1
102
RTVSPost2010Prop32
280
     0
102
RTVSPost2010PropOp32
 70
     1
102
RTVSPost2010Prop33
280
     0
102
RTVSPost2010PropOp33
 70
     1
102
RTVSPost2010Prop34
280
     0
102
RTVSPost2010PropOp34
 70
     1
102
RTVSPost2010Prop35
280
     0
102
RTVSPost2010PropOp35
 70
     1
102
RTVSPost2010Prop36
280
     0
102
RTVSPost2010PropOp36
 70
     1
102
RTVSPost2010Prop37
 90
       50
102
RTVSPost2010PropOp37
 70
     1
102
RTVSPost2010Prop38
140
0.0
102
RTVSPost2010PropOp38
 70
     1
102
RTVSPost2010Prop39
140
1.0
102
RTVSPost2010PropOp39
 70
     1
102
RTVSPost2010Prop40
 90
        0
102
RTVSPost2010PropOp40
 70
     1
102
RTVSPost2010Prop41ColorIndex
 90
       18
102
RTVSPost2010Prop41ColorRGB
 90
        0
102
RTVSPost2010PropOp41
 70
     1
102
RTVSPost2010Prop42
 90
       50
102
RTVSPost2010PropOp42
 70
     1
102
RTVSPost2010Prop43
 90
        3
102
RTVSPost2010PropOp43
 70
     1
102
RTVSPost2010Prop44ColorIndex
 90
        5
102
RTVSPost2010Prop44ColorRGB
 90
      255
102
RTVSPost2010PropOp44
 70
     1
102
RTVSPost2010Prop45
280
     0
102
RTVSPost2010PropOp45
 70
     1
102
RTVSPost2010Prop46
 90
       50
102
RTVSPost2010PropOp46
 70
     1
102
RTVSPost2010Prop47
 90
       50
102
RTVSPost2010PropOp47
 70
     1
102
RTVSPost2010Prop48
 90
       50
102
RTVSPost2010PropOp48
 70
     1
102
RTVSPost2010Prop49
280
     0
102
RTVSPost2010PropOp49
 70
     1
102
RTVSPost2010Prop50
 90
       50
102
RTVSPost2010PropOp50
 70
     1
102
RTVSPost2010Prop51ColorIndex
 90
      256
102
RTVSPost2010Prop51ColorRGB
 90
-16777216
102
RTVSPost2010PropOp51
 70
     0
102
RTVSPost2010Prop52
140
1.0
102
RTVSPost2010PropOp52
 70
     0
102
RTVSPost2010Prop53
 90
        2
102
RTVSPost2010PropOp53
 70
     1
102
RTVSPost2010Prop54
  1
strokes_ogs.tif
102
RTVSPost2010PropOp54
 70
     1
102
RTVSPost2010Prop55
280
     0
102
RTVSPost2010PropOp55
 70
     1
102
RTVSPost2010Prop56
140
1.0
102
RTVSPost2010PropOp56
 70
     1
102
RTVSPost2010Prop57
140
1.0
102
RTVSPost2010PropOp57
 70
     1
  0
XRECORD
  5
164
102
{ACAD_REACTORS
330
163
102
}
330
163
100
AcDbXrecord
280
     1
102
RTVSPost2010Prop28
280
     0
102
RTVSPost2010PropOp28
 70
     1
102
RTVSPost2010Prop29
280
     1
102
RTVSPost2010PropOp29
 70
     1
102
RTVSPost2010Prop30
280
     1
102
RTVSPost2010PropOp30
 70
     1
102
RTVSPost2010Prop31
280
     0
102
RTVSPost2010PropOp31
 70
     1
102
RTVSPost2010Prop32
280
     0
102
RTVSPost2010PropOp32
 70
     1
102
RTVSPost2010Prop33
280
     0
102
RTVSPost2010PropOp33
 70
     1
102
RTVSPost2010Prop34
280
     0
102
RTVSPost2010PropOp34
 70
     1
102
RTVSPost2010Prop35
280
     0
102
RTVSPost2010PropOp35
 70
     1
102
RTVSPost2010Prop36
280
     0
102
RTVSPost2010PropOp36
 70
     1
102
RTVSPost2010Prop37
 90
       50
102
RTVSPost2010PropOp37
 70
     1
102
RTVSPost2010Prop38
140
0.0
102
RTVSPost2010PropOp38
 70
     1
102
RTVSPost2010Prop39
140
1.0
102
RTVSPost2010PropOp39
 70
     1
102
RTVSPost2010Prop40
 90
        0
102
RTVSPost2010PropOp40
 70
     1
102
RTVSPost2010Prop41ColorIndex
 90
       18
102
RTVSPost2010Prop41ColorRGB
 90
        0
102
RTVSPost2010PropOp41
 70
     1
102
RTVSPost2010Prop42
 90
       50
102
RTVSPost2010PropOp42
 70
     1
102
RTVSPost2010Prop43
 90
        3
102
RTVSPost2010PropOp43
 70
     1
102
RTVSPost2010Prop44ColorIndex
 90
        5
102
RTVSPost2010Prop44ColorRGB
 90
      255
102
RTVSPost2010PropOp44
 70
     1
102
RTVSPost2010Prop45
280
     0
102
RTVSPost2010PropOp45
 70
     1
102
RTVSPost2010Prop46
 90
       50
102
RTVSPost2010PropOp46
 70
     1
102
RTVSPost2010Prop47
 90
       50
102
RTVSPost2010PropOp47
 70
     1
102
RTVSPost2010Prop48
 90
       50
102
RTVSPost2010PropOp48
 70
     1
102
RTVSPost2010Prop49
280
     0
102
RTVSPost2010PropOp49
 70
     1
102
RTVSPost2010Prop50
 90
       50
102
RTVSPost2010PropOp50
 70
     1
102
RTVSPost2010Prop51ColorIndex
 90
      256
102
RTVSPost2010Prop51ColorRGB
 90
-16777216
102
RTVSPost2010PropOp51
 70
     0
102
RTVSPost2010Prop52
140
1.0
102
RTVSPost2010PropOp52
 70
     0
102
RTVSPost2010Prop53
 90
        2
102
RTVSPost2010PropOp53
 70
     1
102
RTVSPost2010Prop54
  1
strokes_ogs.tif
102
RTVSPost2010PropOp54
 70
     1
102
RTVSPost2010Prop55
280
     0
102
RTVSPost2010PropOp55
 70
     1
102
RTVSPost2010Prop56
140
1.0
102
RTVSPost2010PropOp56
 70
     1
102
RTVSPost2010Prop57
140
1.0
102
RTVSPost2010PropOp57
 70
     1
  0
XRECORD
  5
158
102
{ACAD_REACTORS
330
157
102
}
330
157
100
AcDbXrecord
280
     1
102
RTVSPost2010Prop28
280
     0
102
RTVSPost2010PropOp28
 70
     1
102
RTVSPost2010Prop29
280
     1
102
RTVSPost2010PropOp29
 70
     1
102
RTVSPost2010Prop30
280
     1
102
RTVSPost2010PropOp30
 70
     1
102
RTVSPost2010Prop31
280
     0
102
RTVSPost2010PropOp31
 70
     1
102
RTVSPost2010Prop32
280
     0
102
RTVSPost2010PropOp32
 70
     1
102
RTVSPost2010Prop33
280
     0
102
RTVSPost2010PropOp33
 70
     1
102
RTVSPost2010Prop34
280
     0
102
RTVSPost2010PropOp34
 70
     1
102
RTVSPost2010Prop35
280
     0
102
RTVSPost2010PropOp35
 70
     1
102
RTVSPost2010Prop36
280
     0
102
RTVSPost2010PropOp36
 70
     1
102
RTVSPost2010Prop37
 90
       50
102
RTVSPost2010PropOp37
 70
     1
102
RTVSPost2010Prop38
140
0.0
102
RTVSPost2010PropOp38
 70
     1
102
RTVSPost2010Prop39
140
1.0
102
RTVSPost2010PropOp39
 70
     1
102
RTVSPost2010Prop40
 90
        0
102
RTVSPost2010PropOp40
 70
     1
102
RTVSPost2010Prop41ColorIndex
 90
       18
102
RTVSPost2010Prop41ColorRGB
 90
        0
102
RTVSPost2010PropOp41
 70
     1
102
RTVSPost2010Prop42
 90
       50
102
RTVSPost2010PropOp42
 70
     1
102
RTVSPost2010Prop43
 90
        3
102
RTVSPost2010PropOp43
 70
     1
102
RTVSPost2010Prop44ColorIndex
 90
        5
102
RTVSPost2010Prop44ColorRGB
 90
      255
102
RTVSPost2010PropOp44
 70
     1
102
RTVSPost2010Prop45
280
     0
102
RTVSPost2010PropOp45
 70
     1
102
RTVSPost2010Prop46
 90
       50
102
RTVSPost2010PropOp46
 70
     1
102
RTVSPost2010Prop47
 90
       50
102
RTVSPost2010PropOp47
 70
     1
102
RTVSPost2010Prop48
 90
       50
102
RTVSPost2010PropOp48
 70
     1
102
RTVSPost2010Prop49
280
     0
102
RTVSPost2010PropOp49
 70
     1
102
RTVSPost2010Prop50
 90
       50
102
RTVSPost2010PropOp50
 70
     1
102
RTVSPost2010Prop51ColorIndex
 90
      256
102
RTVSPost2010Prop51ColorRGB
 90
-16777216
102
RTVSPost2010PropOp51
 70
     0
102
RTVSPost2010Prop52
140
1.0
102
RTVSPost2010PropOp52
 70
     0
102
RTVSPost2010Prop53
 90
        2
102
RTVSPost2010PropOp53
 70
     1
102
RTVSPost2010Prop54
  1
strokes_ogs.tif
102
RTVSPost2010PropOp54
 70
     1
102
RTVSPost2010Prop55
280
     0
102
RTVSPost2010PropOp55
 70
     1
102
RTVSPost2010Prop56
140
1.0
102
RTVSPost2010PropOp56
 70
     1
102
RTVSPost2010Prop57
140
1.0
102
RTVSPost2010PropOp57
 70
     1
  0
XRECORD
  5
170
102
{ACAD_REACTORS
330
16F
102
}
330
16F
100
AcDbXrecord
280
     1
102
RTVSPost2010Prop28
280
     0
102
RTVSPost2010PropOp28
 70
     1
102
RTVSPost2010Prop29
280
     1
102
RTVSPost2010PropOp29
 70
     1
102
RTVSPost2010Prop30
280
     1
102
RTVSPost2010PropOp30
 70
     1
102
RTVSPost2010Prop31
280
     0
102
RTVSPost2010PropOp31
 70
     1
102
RTVSPost2010Prop32
280
     0
102
RTVSPost2010PropOp32
 70
     1
102
RTVSPost2010Prop33
280
     0
102
RTVSPost2010PropOp33
 70
     1
102
RTVSPost2010Prop34
280
     0
102
RTVSPost2010PropOp34
 70
     1
102
RTVSPost2010Prop35
280
     0
102
RTVSPost2010PropOp35
 70
     1
102
RTVSPost2010Prop36
280
     0
102
RTVSPost2010PropOp36
 70
     1
102
RTVSPost2010Prop37
 90
       50
102
RTVSPost2010PropOp37
 70
     1
102
RTVSPost2010Prop38
140
0.0
102
RTVSPost2010PropOp38
 70
     1
102
RTVSPost2010Prop39
140
1.0
102
RTVSPost2010PropOp39
 70
     1
102
RTVSPost2010Prop40
 90
        0
102
RTVSPost2010PropOp40
 70
     1
102
RTVSPost2010Prop41ColorIndex
 90
       18
102
RTVSPost2010Prop41ColorRGB
 90
        0
102
RTVSPost2010PropOp41
 70
     1
102
RTVSPost2010Prop42
 90
       50
102
RTVSPost2010PropOp42
 70
     1
102
RTVSPost2010Prop43
 90
        3
102
RTVSPost2010PropOp43
 70
     1
102
RTVSPost2010Prop44ColorIndex
 90
        5
102
RTVSPost2010Prop44ColorRGB
 90
      255
102
RTVSPost2010PropOp44
 70
     1
102
RTVSPost2010Prop45
280
     0
102
RTVSPost2010PropOp45
 70
     1
102
RTVSPost2010Prop46
 90
       50
102
RTVSPost2010PropOp46
 70
     1
102
RTVSPost2010Prop47
 90
       50
102
RTVSPost2010PropOp47
 70
     1
102
RTVSPost2010Prop48
 90
       50
102
RTVSPost2010PropOp48
 70
     1
102
RTVSPost2010Prop49
280
     0
102
RTVSPost2010PropOp49
 70
     1
102
RTVSPost2010Prop50
 90
       50
102
RTVSPost2010PropOp50
 70
     1
102
RTVSPost2010Prop51ColorIndex
 90
      256
102
RTVSPost2010Prop51ColorRGB
 90
-16777216
102
RTVSPost2010PropOp51
 70
     0
102
RTVSPost2010Prop52
140
1.0
102
RTVSPost2010PropOp52
 70
     0
102
RTVSPost2010Prop53
 90
        2
102
RTVSPost2010PropOp53
 70
     1
102
RTVSPost2010Prop54
  1
strokes_ogs.tif
102
RTVSPost2010PropOp54
 70
     1
102
RTVSPost2010Prop55
280
     0
102
RTVSPost2010PropOp55
 70
     1
102
RTVSPost2010Prop56
140
1.0
102
RTVSPost2010PropOp56
 70
     1
102
RTVSPost2010Prop57
140
1.0
102
RTVSPost2010PropOp57
 70
     1
  0
ENDSEC
  0
EOF
