  0
SECTION
  2
HEADER
  9
$ACADVER
  1
AC1024
  9
$ACADMAINTVER
 70
   205
  9
$DWGCODEPAGE
  3
ANSI_1251
  9
$INSBASE
 10
0.0
 20
0.0
 30
0.0
  9
$EXTMIN
 10
1.000000000000000E+20
 20
1.000000000000000E+20
 30
1.000000000000000E+20
  9
$EXTMAX
 10
-1.000000000000000E+20
 20
-1.000000000000000E+20
 30
-1.000000000000000E+20
  9
$LIMMIN
 10
0.0
 20
0.0
  9
$LIMMAX
 10
12.0
 20
9.0
  9
$ORTHOMODE
 70
     0
  9
$REGENMODE
 70
     1
  9
$FILLMODE
 70
     1
  9
$QTEXTMODE
 70
     0
  9
$MIRRTEXT
 70
     1
  9
$LTSCALE
 40
1.0
  9
$ATTMODE
 70
     1
  9
$TEXTSIZE
 40
0.2
  9
$TRACEWID
 40
0.05
  9
$TEXTSTYLE
  7
Standard
  9
$CLAYER
  8
OracDecor_indirect_lighting
  9
$CELTYPE
  6
ByLayer
  9
$CECOLOR
 62
   256
  9
$CELTSCALE
 40
1.0
  9
$DISPSILH
 70
     0
  9
$DIMSCALE
 40
1.0
  9
$DIMASZ
 40
0.18
  9
$DIMEXO
 40
0.0625
  9
$DIMDLI
 40
0.38
  9
$DIMRND
 40
0.0
  9
$DIMDLE
 40
0.0
  9
$DIMEXE
 40
0.18
  9
$DIMTP
 40
0.0
  9
$DIMTM
 40
0.0
  9
$DIMTXT
 40
0.18
  9
$DIMCEN
 40
0.09
  9
$DIMTSZ
 40
0.0
  9
$DIMTOL
 70
     0
  9
$DIMLIM
 70
     0
  9
$DIMTIH
 70
     1
  9
$DIMTOH
 70
     1
  9
$DIMSE1
 70
     0
  9
$DIMSE2
 70
     0
  9
$DIMTAD
 70
     0
  9
$DIMZIN
 70
     0
  9
$DIMBLK
  1

  9
$DIMASO
 70
     1
  9
$DIMSHO
 70
     1
  9
$DIMPOST
  1

  9
$DIMAPOST
  1

  9
$DIMALT
 70
     0
  9
$DIMALTD
 70
     2
  9
$DIMALTF
 40
25.4
  9
$DIMLFAC
 40
1.0
  9
$DIMTOFL
 70
     0
  9
$DIMTVP
 40
0.0
  9
$DIMTIX
 70
     0
  9
$DIMSOXD
 70
     0
  9
$DIMSAH
 70
     0
  9
$DIMBLK1
  1

  9
$DIMBLK2
  1

  9
$DIMSTYLE
  2
Standard
  9
$DIMCLRD
 70
     0
  9
$DIMCLRE
 70
     0
  9
$DIMCLRT
 70
     0
  9
$DIMTFAC
 40
1.0
  9
$DIMGAP
 40
0.09
  9
$DIMJUST
 70
     0
  9
$DIMSD1
 70
     0
  9
$DIMSD2
 70
     0
  9
$DIMTOLJ
 70
     1
  9
$DIMTZIN
 70
     0
  9
$DIMALTZ
 70
     0
  9
$DIMALTTZ
 70
     0
  9
$DIMUPT
 70
     0
  9
$DIMDEC
 70
     4
  9
$DIMTDEC
 70
     4
  9
$DIMALTU
 70
     2
  9
$DIMALTTD
 70
     2
  9
$DIMTXSTY
  7
Standard
  9
$DIMAUNIT
 70
     0
  9
$DIMADEC
 70
     0
  9
$DIMALTRND
 40
0.0
  9
$DIMAZIN
 70
     0
  9
$DIMDSEP
 70
    46
  9
$DIMATFIT
 70
     3
  9
$DIMFRAC
 70
     0
  9
$DIMLDRBLK
  1

  9
$DIMLUNIT
 70
     2
  9
$DIMLWD
 70
    -2
  9
$DIMLWE
 70
    -2
  9
$DIMTMOVE
 70
     0
  9
$DIMFXL
 40
1.0
  9
$DIMFXLON
 70
     0
  9
$DIMJOGANG
 40
0.7853981633974483
  9
$DIMTFILL
 70
     0
  9
$DIMTFILLCLR
 70
     0
  9
$DIMARCSYM
 70
     0
  9
$DIMLTYPE
  6

  9
$DIMLTEX1
  6

  9
$DIMLTEX2
  6

  9
$DIMTXTDIRECTION
 70
     0
  9
$LUNITS
 70
     2
  9
$LUPREC
 70
     4
  9
$SKETCHINC
 40
0.1
  9
$FILLETRAD
 40
0.5
  9
$AUNITS
 70
     0
  9
$AUPREC
 70
     0
  9
$MENU
  1
.
  9
$ELEVATION
 40
0.0
  9
$PELEVATION
 40
0.0
  9
$THICKNESS
 40
0.0
  9
$LIMCHECK
 70
     0
  9
$CHAMFERA
 40
0.5
  9
$CHAMFERB
 40
0.5
  9
$CHAMFERC
 40
1.0
  9
$CHAMFERD
 40
0.0
  9
$SKPOLY
 70
     0
  9
$TDCREATE
 40
2451380.930432396
  9
$TDUCREATE
 40
2451380.805432396
  9
$TDUPDATE
 40
2451380.966180555
  9
$TDUUPDATE
 40
2451380.841180556
  9
$TDINDWG
 40
0.0075611458
  9
$TDUSRTIMER
 40
0.0075521065
  9
$USRTIMER
 70
     1
  9
$ANGBASE
 50
0.0
  9
$ANGDIR
 70
     0
  9
$PDMODE
 70
     0
  9
$PDSIZE
 40
0.0
  9
$PLINEWID
 40
0.0
  9
$SPLFRAME
 70
     0
  9
$SPLINETYPE
 70
     6
  9
$SPLINESEGS
 70
     8
  9
$HANDSEED
  5
2A7
  9
$SURFTAB1
 70
     6
  9
$SURFTAB2
 70
     6
  9
$SURFTYPE
 70
     6
  9
$SURFU
 70
     6
  9
$SURFV
 70
     6
  9
$UCSBASE
  2

  9
$UCSNAME
  2

  9
$UCSORG
 10
0.0
 20
0.0
 30
0.0
  9
$UCSXDIR
 10
1.0
 20
0.0
 30
0.0
  9
$UCSYDIR
 10
0.0
 20
1.0
 30
0.0
  9
$UCSORTHOREF
  2

  9
$UCSORTHOVIEW
 70
     0
  9
$UCSORGTOP
 10
0.0
 20
0.0
 30
0.0
  9
$UCSORGBOTTOM
 10
0.0
 20
0.0
 30
0.0
  9
$UCSORGLEFT
 10
0.0
 20
0.0
 30
0.0
  9
$UCSORGRIGHT
 10
0.0
 20
0.0
 30
0.0
  9
$UCSORGFRONT
 10
0.0
 20
0.0
 30
0.0
  9
$UCSORGBACK
 10
0.0
 20
0.0
 30
0.0
  9
$PUCSBASE
  2

  9
$PUCSNAME
  2

  9
$PUCSORG
 10
0.0
 20
0.0
 30
0.0
  9
$PUCSXDIR
 10
1.0
 20
0.0
 30
0.0
  9
$PUCSYDIR
 10
0.0
 20
1.0
 30
0.0
  9
$PUCSORTHOREF
  2

  9
$PUCSORTHOVIEW
 70
     0
  9
$PUCSORGTOP
 10
0.0
 20
0.0
 30
0.0
  9
$PUCSORGBOTTOM
 10
0.0
 20
0.0
 30
0.0
  9
$PUCSORGLEFT
 10
0.0
 20
0.0
 30
0.0
  9
$PUCSORGRIGHT
 10
0.0
 20
0.0
 30
0.0
  9
$PUCSORGFRONT
 10
0.0
 20
0.0
 30
0.0
  9
$PUCSORGBACK
 10
0.0
 20
0.0
 30
0.0
  9
$USERI1
 70
     0
  9
$USERI2
 70
     0
  9
$USERI3
 70
     0
  9
$USERI4
 70
     0
  9
$USERI5
 70
     0
  9
$USERR1
 40
0.0
  9
$USERR2
 40
0.0
  9
$USERR3
 40
0.0
  9
$USERR4
 40
0.0
  9
$USERR5
 40
0.0
  9
$WORLDVIEW
 70
     1
  9
$SHADEDGE
 70
     3
  9
$SHADEDIF
 70
    70
  9
$TILEMODE
 70
     1
  9
$MAXACTVP
 70
    64
  9
$PINSBASE
 10
0.0
 20
0.0
 30
0.0
  9
$PLIMCHECK
 70
     0
  9
$PEXTMIN
 10
1.000000000000000E+20
 20
1.000000000000000E+20
 30
1.000000000000000E+20
  9
$PEXTMAX
 10
-1.000000000000000E+20
 20
-1.000000000000000E+20
 30
-1.000000000000000E+20
  9
$PLIMMIN
 10
0.0
 20
0.0
  9
$PLIMMAX
 10
12.0
 20
9.0
  9
$UNITMODE
 70
     0
  9
$VISRETAIN
 70
     1
  9
$PLINEGEN
 70
     0
  9
$PSLTSCALE
 70
     1
  9
$TREEDEPTH
 70
  3020
  9
$CMLSTYLE
  2
Standard
  9
$CMLJUST
 70
     0
  9
$CMLSCALE
 40
1.0
  9
$PROXYGRAPHICS
 70
     1
  9
$MEASUREMENT
 70
     1
  9
$CELWEIGHT
370
    -1
  9
$ENDCAPS
280
     0
  9
$JOINSTYLE
280
     0
  9
$LWDISPLAY
290
     0
  9
$INSUNITS
 70
     4
  9
$HYPERLINKBASE
  1

  9
$STYLESHEET
  1

  9
$XEDIT
290
     1
  9
$CEPSNTYPE
380
     0
  9
$PSTYLEMODE
290
     1
  9
$FINGERPRINTGUID
  2
{12F50282-3ED8-11D3-A8B7-0060B0F84BC6}
  9
$VERSIONGUID
  2
{12F50293-3ED8-11D3-A8B7-0060B0F84BC6}
  9
$EXTNAMES
290
     1
  9
$PSVPSCALE
 40
0.0
  9
$OLESTARTUP
290
     0
  9
$SORTENTS
280
   127
  9
$INDEXCTL
280
     0
  9
$HIDETEXT
280
     0
  9
$XCLIPFRAME
280
     2
  9
$HALOGAP
280
     0
  9
$OBSCOLOR
 70
   257
  9
$OBSLTYPE
280
     0
  9
$INTERSECTIONDISPLAY
280
     0
  9
$INTERSECTIONCOLOR
 70
   257
  9
$DIMASSOC
280
     1
  9
$PROJECTNAME
  1

  9
$CAMERADISPLAY
290
     0
  9
$LENSLENGTH
 40
50.0
  9
$CAMERAHEIGHT
 40
0.0
  9
$STEPSPERSEC
 40
2.0
  9
$STEPSIZE
 40
6.0
  9
$3DDWFPREC
 40
2.0
  9
$PSOLWIDTH
 40
0.25
  9
$PSOLHEIGHT
 40
4.0
  9
$LOFTANG1
 40
1.570796326794896
  9
$LOFTANG2
 40
1.570796326794896
  9
$LOFTMAG1
 40
0.0
  9
$LOFTMAG2
 40
0.0
  9
$LOFTPARAM
 70
     7
  9
$LOFTNORMALS
280
     1
  9
$LATITUDE
 40
37.795
  9
$LONGITUDE
 40
-122.394
  9
$NORTHDIRECTION
 40
0.0
  9
$TIMEZONE
 70
 -8000
  9
$LIGHTGLYPHDISPLAY
280
     1
  9
$TILEMODELIGHTSYNCH
280
     1
  9
$CMATERIAL
347
AB
  9
$SOLIDHIST
280
     0
  9
$SHOWHIST
280
     1
  9
$DWFFRAME
280
     2
  9
$DGNFRAME
280
     0
  9
$REALWORLDSCALE
290
     1
  9
$INTERFERECOLOR
 62
     1
  9
$INTERFEREOBJVS
345
CD
  9
$INTERFEREVPVS
346
CA
  9
$CSHADOW
280
     0
  9
$SHADOWPLANELOCATION
 40
0.0
  0
ENDSEC
  0
SECTION
  2
CLASSES
  0
CLASS
  1
ACDBDICTIONARYWDFLT
  2
AcDbDictionaryWithDefault
  3
ObjectDBX Classes
 90
        0
 91
        1
280
     0
281
     0
  0
CLASS
  1
ACDBPLACEHOLDER
  2
AcDbPlaceHolder
  3
ObjectDBX Classes
 90
        0
 91
        2
280
     0
281
     0
  0
CLASS
  1
LAYOUT
  2
AcDbLayout
  3
ObjectDBX Classes
 90
        0
 91
        3
280
     0
281
     0
  0
CLASS
  1
MATERIAL
  2
AcDbMaterial
  3
ObjectDBX Classes
 90
     1153
 91
        3
280
     0
281
     0
  0
CLASS
  1
VISUALSTYLE
  2
AcDbVisualStyle
  3
ObjectDBX Classes
 90
     4095
 91
       24
280
     0
281
     0
  0
CLASS
  1
TABLESTYLE
  2
AcDbTableStyle
  3
ObjectDBX Classes
 90
     4095
 91
        1
280
     0
281
     0
  0
CLASS
  1
SCALE
  2
AcDbScale
  3
ObjectDBX Classes
 90
     1153
 91
       17
280
     0
281
     0
  0
CLASS
  1
MLEADERSTYLE
  2
AcDbMLeaderStyle
  3
ACDB_MLEADERSTYLE_CLASS
 90
     4095
 91
        1
280
     0
281
     0
  0
CLASS
  1
ACDBSECTIONVIEWSTYLE
  2
AcDbSectionViewStyle
  3
ObjectDBX Classes
 90
     1025
 91
        1
280
     0
281
     0
  0
CLASS
  1
ACDBDETAILVIEWSTYLE
  2
AcDbDetailViewStyle
  3
ObjectDBX Classes
 90
     1025
 91
        1
280
     0
281
     0
  0
CLASS
  1
MESH
  2
AcDbSubDMesh
  3
ObjectDBX Classes
 90
        0
 91
        1
280
     0
281
     1
  0
CLASS
  1
DICTIONARYVAR
  2
AcDbDictionaryVar
  3
ObjectDBX Classes
 90
        0
 91
        9
280
     0
281
     0
  0
CLASS
  1
CELLSTYLEMAP
  2
AcDbCellStyleMap
  3
ObjectDBX Classes
 90
     1152
 91
        1
280
     0
281
     0
  0
ENDSEC
  0
SECTION
  2
TABLES
  0
TABLE
  2
VPORT
  5
8
330
0
100
AcDbSymbolTable
 70
     1
  0
VPORT
  5
A8
330
8
100
AcDbSymbolTableRecord
100
AcDbViewportTableRecord
  2
*Active
 70
     0
 10
0.0
 20
0.0
 11
1.0
 21
1.0
 12
40.70854187011718
 22
-33.64182662963867
 13
0.0
 23
0.0
 14
0.5
 24
0.5
 15
0.5
 25
0.5
 16
-1.0
 26
-1.0
 36
1.0
 17
0.0
 27
0.0
 37
0.0
 40
1220.024346833992
 41
1.533260334613286
 42
50.0
 43
0.0
 44
0.0
 50
0.0
 51
0.0
 71
     0
 72
   100
 73
     1
 74
     3
 75
     0
 76
     0
 77
     0
 78
     0
281
     0
 65
     1
110
0.0
120
0.0
130
0.0
111
1.0
121
0.0
131
0.0
112
0.0
122
1.0
132
0.0
 79
     0
146
0.0
348
C9
 60
     3
 61
     5
292
     1
282
     1
141
0.0
142
0.0
 63
   250
421
  3355443
  0
ENDTAB
  0
TABLE
  2
LTYPE
  5
5
330
0
100
AcDbSymbolTable
 70
     1
  0
LTYPE
  5
14
330
5
100
AcDbSymbolTableRecord
100
AcDbLinetypeTableRecord
  2
ByBlock
 70
     0
  3

 72
    65
 73
     0
 40
0.0
  0
LTYPE
  5
15
330
5
100
AcDbSymbolTableRecord
100
AcDbLinetypeTableRecord
  2
ByLayer
 70
     0
  3

 72
    65
 73
     0
 40
0.0
  0
LTYPE
  5
16
330
5
100
AcDbSymbolTableRecord
100
AcDbLinetypeTableRecord
  2
Continuous
 70
     0
  3
Solid line
 72
    65
 73
     0
 40
0.0
  0
ENDTAB
  0
TABLE
  2
LAYER
  5
2
330
0
100
AcDbSymbolTable
 70
     3
  0
LAYER
  5
10
330
2
100
AcDbSymbolTableRecord
100
AcDbLayerTableRecord
  2
0
 70
     0
 62
     7
  6
Continuous
370
    -3
390
F
347
BB
  0
LAYER
  5
2B
330
2
100
AcDbSymbolTableRecord
100
AcDbLayerTableRecord
  2
ASHADE
 70
     4
 62
     7
  6
Continuous
370
    -3
390
2D
347
BB
  0
LAYER
  5
F8
330
2
100
AcDbSymbolTableRecord
100
AcDbLayerTableRecord
  2
OracDecor_indirect_lighting
 70
     0
 62
    53
420
 13033815
  6
Continuous
370
    -3
390
F
347
BB
  0
ENDTAB
  0
TABLE
  2
STYLE
  5
3
330
0
100
AcDbSymbolTable
 70
     2
  0
STYLE
  5
11
330
3
100
AcDbSymbolTableRecord
100
AcDbTextStyleTableRecord
  2
Standard
 70
     0
 40
0.0
 41
1.0
 50
0.0
 71
     0
 42
0.2
  3
txt
  4

  0
STYLE
  5
2C
330
3
100
AcDbSymbolTableRecord
100
AcDbTextStyleTableRecord
  2
ASHADE
 70
     0
 40
0.2
 41
1.0
 50
0.0
 71
     0
 42
0.2
  3
simplex
  4

  0
ENDTAB
  0
TABLE
  2
VIEW
  5
6
330
0
100
AcDbSymbolTable
 70
     0
  0
ENDTAB
  0
TABLE
  2
UCS
  5
7
330
0
100
AcDbSymbolTable
 70
     0
  0
ENDTAB
  0
TABLE
  2
APPID
  5
9
330
0
100
AcDbSymbolTable
 70
     6
  0
APPID
  5
12
330
9
100
AcDbSymbolTableRecord
100
AcDbRegAppTableRecord
  2
ACAD
 70
     0
  0
APPID
  5
8F
330
9
100
AcDbSymbolTableRecord
100
AcDbRegAppTableRecord
  2
AVE_RENDER
 70
     0
  0
APPID
  5
90
330
9
100
AcDbSymbolTableRecord
100
AcDbRegAppTableRecord
  2
AVE_ENTITY_MATERIAL
 70
     0
  0
APPID
  5
9C
330
9
100
AcDbSymbolTableRecord
100
AcDbRegAppTableRecord
  2
AVE_FINISH
 70
     0
  0
APPID
  5
9D
330
9
100
AcDbSymbolTableRecord
100
AcDbRegAppTableRecord
  2
AVE_MATERIAL
 70
     0
  0
APPID
  5
9E
330
9
100
AcDbSymbolTableRecord
100
AcDbRegAppTableRecord
  2
AVE_GLOBAL
 70
     0
  0
ENDTAB
  0
TABLE
  2
DIMSTYLE
  5
A
330
0
100
AcDbSymbolTable
 70
     1
100
AcDbDimStyleTable
 71
     0
  0
DIMSTYLE
105
27
330
A
100
AcDbSymbolTableRecord
100
AcDbDimStyleTableRecord
  2
Standard
 70
     0
340
11
  0
ENDTAB
  0
TABLE
  2
BLOCK_RECORD
  5
1
330
0
100
AcDbSymbolTable
 70
     6
  0
BLOCK_RECORD
  5
1F
330
1
100
AcDbSymbolTableRecord
100
AcDbBlockTableRecord
  2
*Model_Space
340
22
 70
     0
280
     1
281
     0
  0
BLOCK_RECORD
  5
1B
330
1
100
AcDbSymbolTableRecord
100
AcDbBlockTableRecord
  2
*Paper_Space
340
1E
 70
     0
280
     1
281
     0
  0
BLOCK_RECORD
  5
23
330
1
100
AcDbSymbolTableRecord
100
AcDbBlockTableRecord
  2
*Paper_Space0
340
26
 70
     0
280
     1
281
     0
  0
BLOCK_RECORD
  5
2E
330
1
100
AcDbSymbolTableRecord
100
AcDbBlockTableRecord
  2
direct
340
0
 70
     0
280
     1
281
     0
  0
BLOCK_RECORD
  5
42
330
1
100
AcDbSymbolTableRecord
100
AcDbBlockTableRecord
  2
overhead
340
0
 70
     0
280
     1
281
     0
  0
BLOCK_RECORD
  5
5F
330
1
100
AcDbSymbolTableRecord
100
AcDbBlockTableRecord
  2
sh_spot
340
0
 70
     0
280
     1
281
     0
  0
BLOCK_RECORD
  5
91
330
1
100
AcDbSymbolTableRecord
100
AcDbBlockTableRecord
  2
AVE_RENDER
340
0
102
{BLKREFS
331
94
331
95
331
96
331
97
331
98
331
99
331
9A
331
9B
102
}
 70
     0
280
     1
281
     0
  0
BLOCK_RECORD
  5
9F
330
1
100
AcDbSymbolTableRecord
100
AcDbBlockTableRecord
  2
AVE_GLOBAL
340
0
102
{BLKREFS
331
A2
102
}
 70
     0
280
     1
281
     0
  0
ENDTAB
  0
ENDSEC
  0
SECTION
  2
BLOCKS
  0
BLOCK
  5
20
330
1F
100
AcDbEntity
  8
0
100
AcDbBlockBegin
  2
*Model_Space
 70
     0
 10
0.0
 20
0.0
 30
0.0
  3
*Model_Space
  1

  0
ENDBLK
  5
21
330
1F
100
AcDbEntity
  8
0
100
AcDbBlockEnd
  0
BLOCK
  5
1C
330
1B
100
AcDbEntity
 67
     1
  8
0
100
AcDbBlockBegin
  2
*Paper_Space
 70
     0
 10
0.0
 20
0.0
 30
0.0
  3
*Paper_Space
  1

  0
ENDBLK
  5
1D
330
1B
100
AcDbEntity
 67
     1
  8
0
100
AcDbBlockEnd
  0
BLOCK
  5
24
330
23
100
AcDbEntity
 67
     1
  8
0
100
AcDbBlockBegin
  2
*Paper_Space0
 70
     0
 10
0.0
 20
0.0
 30
0.0
  3
*Paper_Space0
  1

  0
ENDBLK
  5
25
330
23
100
AcDbEntity
 67
     1
  8
0
100
AcDbBlockEnd
  0
BLOCK
  5
40
330
2E
100
AcDbEntity
  8
0
100
AcDbBlockBegin
  2
direct
 70
     2
 10
0.0
 20
0.0
 30
0.0
  3
direct
  1

  0
ATTDEF
  5
2F
330
2E
100
AcDbEntity
  8
ASHADE
  6
Continuous
 62
     1
100
AcDbText
 10
0.0
 20
-0.1
 30
0.0
 40
0.2
  1

  7
ASHADE
 72
     1
 11
0.0
 21
-0.1
 31
0.0
100
AcDbAttributeDefinition
280
     0
  3
Light Name
  2
SNAME
 70
     0
280
     0
  0
ARC
  5
30
330
2E
100
AcDbEntity
  8
ASHADE
  6
Continuous
 62
     7
100
AcDbCircle
 10
0.0
 20
0.0
 30
0.0
 40
0.3
100
AcDbArc
 50
205.6792886194569
 51
334.3207113805431
  0
ARC
  5
31
330
2E
100
AcDbEntity
  8
ASHADE
  6
Continuous
 62
     7
100
AcDbCircle
 10
0.0
 20
0.0
 30
0.0
 40
0.3
100
AcDbArc
 50
25.67928861945685
 51
154.3207113805431
  0
LINE
  5
32
330
2E
100
AcDbEntity
  8
ASHADE
  6
Continuous
 62
     7
100
AcDbLine
 10
-0.21
 20
0.2142428528562855
 30
0.0
 11
-0.21
 21
0.5
 31
0.0
  0
LINE
  5
33
330
2E
100
AcDbEntity
  8
ASHADE
  6
Continuous
 62
     7
100
AcDbLine
 10
-0.11
 20
0.2791057147390572
 30
0.0
 11
-0.11
 21
0.5
 31
0.0
  0
LINE
  5
34
330
2E
100
AcDbEntity
  8
ASHADE
  6
Continuous
 62
     7
100
AcDbLine
 10
0.21
 20
0.2142428528562855
 30
0.0
 11
0.21
 21
0.5
 31
0.0
  0
ATTDEF
  5
35
330
2E
100
AcDbEntity
  8
ASHADE
  6
Continuous
 62
     7
100
AcDbText
 10
0.0
 20
0.25
 30
0.0
 40
0.01
  1

100
AcDbAttributeDefinition
280
     0
  3
Look-at Y
  2
LAY
 70
     1
280
     0
  0
ATTDEF
  5
36
330
2E
100
AcDbEntity
  8
ASHADE
  6
Continuous
 62
     7
100
AcDbText
 10
0.0
 20
0.22
 30
0.0
 40
0.01
  1
1
100
AcDbAttributeDefinition
280
     0
  3
Light Intensity
  2
INTENSITY
 70
     1
280
     0
  0
ATTDEF
  5
37
330
2E
100
AcDbEntity
  8
ASHADE
  6
Continuous
 62
     7
100
AcDbText
 10
0.0
 20
0.16
 30
0.0
 40
0.01
  1
-1
100
AcDbAttributeDefinition
280
     0
  3
*not used*
  2
BEAMD
 70
     1
280
     0
  0
ATTDEF
  5
38
330
2E
100
AcDbEntity
  8
ASHADE
  6
Continuous
 62
     7
100
AcDbText
 10
0.0
 20
0.175
 30
0.0
 40
0.01
  1
-1
100
AcDbAttributeDefinition
280
     0
  3
*not used*
  2
CONED
 70
     1
280
     0
  0
ATTDEF
  5
39
330
2E
100
AcDbEntity
  8
ASHADE
  6
Continuous
 62
     7
100
AcDbText
 10
0.0
 20
0.19
 30
0.0
 40
0.01
  1
0
100
AcDbAttributeDefinition
280
     0
  3
Depth Map Size
  2
CONEA
 70
     1
280
     0
  0
ATTDEF
  5
3A
330
2E
100
AcDbEntity
  8
ASHADE
  6
Continuous
 62
     7
100
AcDbText
 10
0.0
 20
0.2050000000000001
 30
0.0
 40
0.01
  1
1,1,1
100
AcDbAttributeDefinition
280
     0
  3
Light Color (RGB)
  2
COLOR
 70
     1
280
     0
  0
ATTDEF
  5
3B
330
2E
100
AcDbEntity
  8
ASHADE
  6
Continuous
 62
     7
100
AcDbText
 10
0.0
 20
0.235
 30
0.0
 40
0.01
  1

100
AcDbAttributeDefinition
280
     0
  3
Look-at Z
  2
LAZ
 70
     1
280
     0
  0
LINE
  5
3C
330
2E
100
AcDbEntity
  8
ASHADE
  6
Continuous
 62
     7
100
AcDbLine
 10
0.0
 20
0.3
 30
0.0
 11
0.0
 21
0.5
 31
0.0
  0
LINE
  5
3D
330
2E
100
AcDbEntity
  8
ASHADE
  6
Continuous
 62
     7
100
AcDbLine
 10
0.11
 20
0.2791057147390572
 30
0.0
 11
0.11
 21
0.5
 31
0.0
  0
ATTDEF
  5
3E
330
2E
100
AcDbEntity
  8
ASHADE
  6
Continuous
 62
     7
100
AcDbText
 10
0.0
 20
0.265
 30
0.0
 40
0.01
  1

100
AcDbAttributeDefinition
280
     0
  3
Look-at X
  2
LAX
 70
     1
280
     0
  0
ATTDEF
  5
3F
330
2E
100
AcDbEntity
  8
ASHADE
  6
Continuous
 62
     7
100
AcDbText
 10
0.0
 20
0.28
 30
0.0
 40
0.01
  1

100
AcDbAttributeDefinition
280
     0
  3

  2
GNAME
 70
     1
280
     0
  0
ENDBLK
  5
41
330
2E
100
AcDbEntity
  8
0
100
AcDbBlockEnd
  0
BLOCK
  5
5D
330
42
100
AcDbEntity
  8
0
100
AcDbBlockBegin
  2
overhead
 70
     2
 10
0.0
 20
0.0
 30
0.0
  3
overhead
  1

  0
ATTDEF
  5
43
330
42
100
AcDbEntity
  8
ASHADE
  6
Continuous
 62
     1
100
AcDbText
 10
0.0
 20
-0.1
 30
0.0
 40
0.2
  1

  7
ASHADE
 72
     1
 11
0.0
 21
-0.1
 31
0.0
100
AcDbAttributeDefinition
280
     0
  3
Light Name
  2
SNAME
 70
     0
280
     0
  0
ARC
  5
44
330
42
100
AcDbEntity
  8
ASHADE
  6
Continuous
 62
     7
100
AcDbCircle
 10
0.0
 20
0.0
 30
0.0
 40
0.3
100
AcDbArc
 50
205.6792886194569
 51
334.3207113805431
  0
LINE
  5
45
330
42
100
AcDbEntity
  8
ASHADE
  6
Continuous
 62
     7
100
AcDbLine
 10
-0.2041413561583015
 20
-0.2198324514393848
 30
0.0
 11
-0.2721884748777353
 21
-0.2931099352525131
 31
0.0
  0
LINE
  5
46
330
42
100
AcDbEntity
  8
ASHADE
  6
Continuous
 62
     7
100
AcDbLine
 10
-0.1096591641591904
 20
-0.2792398032442862
 30
0.0
 11
-0.1279356915190555
 21
-0.3257797704516673
 31
0.0
  0
LINE
  5
47
330
42
100
AcDbEntity
  8
ASHADE
  6
Continuous
 62
     7
100
AcDbLine
 10
0.0
 20
-0.2999999999999999
 30
0.0
 11
0.0
 21
-0.4
 31
0.0
  0
LINE
  5
48
330
42
100
AcDbEntity
  8
ASHADE
  6
Continuous
 62
     7
100
AcDbLine
 10
0.1096591641591904
 20
-0.2792398032442862
 30
0.0
 11
0.1279356915190555
 21
-0.3257797704516673
 31
0.0
  0
LINE
  5
49
330
42
100
AcDbEntity
  8
ASHADE
  6
Continuous
 62
     7
100
AcDbLine
 10
0.2041413561583015
 20
-0.2198324514393848
 30
0.0
 11
0.2721884748777353
 21
-0.2931099352525131
 31
0.0
  0
ARC
  5
4A
330
42
100
AcDbEntity
  8
ASHADE
  6
Continuous
 62
     7
100
AcDbCircle
 10
0.0
 20
0.0
 30
0.0
 40
0.3
100
AcDbArc
 50
25.67928861945685
 51
154.3207113805431
  0
LINE
  5
4B
330
42
100
AcDbEntity
  8
ASHADE
  6
Continuous
 62
     7
100
AcDbLine
 10
-0.2703701166919155
 20
0.13
 30
0.0
 11
-0.3154318028072347
 21
0.1516666666666666
 31
0.0
  0
LINE
  5
4C
330
42
100
AcDbEntity
  8
ASHADE
  6
Continuous
 62
     7
100
AcDbLine
 10
-0.2703701166919155
 20
-0.13
 30
0.0
 11
-0.3154318028072347
 21
-0.1516666666666666
 31
0.0
  0
LINE
  5
4D
330
42
100
AcDbEntity
  8
ASHADE
  6
Continuous
 62
     7
100
AcDbLine
 10
-0.2041413561583015
 20
0.2198324514393849
 30
0.0
 11
-0.2721884748777353
 21
0.2931099352525131
 31
0.0
  0
LINE
  5
4E
330
42
100
AcDbEntity
  8
ASHADE
  6
Continuous
 62
     7
100
AcDbLine
 10
-0.1096591641591904
 20
0.2792398032442862
 30
0.0
 11
-0.1279356915190555
 21
0.3257797704516674
 31
0.0
  0
LINE
  5
4F
330
42
100
AcDbEntity
  8
ASHADE
  6
Continuous
 62
     7
100
AcDbLine
 10
0.2703701166919155
 20
-0.13
 30
0.0
 11
0.3154318028072347
 21
-0.1516666666666666
 31
0.0
  0
LINE
  5
50
330
42
100
AcDbEntity
  8
ASHADE
  6
Continuous
 62
     7
100
AcDbLine
 10
0.2703701166919155
 20
0.13
 30
0.0
 11
0.3154318028072347
 21
0.1516666666666666
 31
0.0
  0
LINE
  5
51
330
42
100
AcDbEntity
  8
ASHADE
  6
Continuous
 62
     7
100
AcDbLine
 10
0.0
 20
0.3
 30
0.0
 11
0.0
 21
0.4
 31
0.0
  0
ATTDEF
  5
52
330
42
100
AcDbEntity
  8
ASHADE
  6
Continuous
 62
     7
100
AcDbText
 10
0.0
 20
0.22
 30
0.0
 40
0.01
  1
1
100
AcDbAttributeDefinition
280
     0
  3
Light Intensity
  2
INTENSITY
 70
     1
280
     0
  0
ATTDEF
  5
53
330
42
100
AcDbEntity
  8
ASHADE
  6
Continuous
 62
     7
100
AcDbText
 10
0.0
 20
0.16
 30
0.0
 40
0.01
  1
-1
100
AcDbAttributeDefinition
280
     0
  3
*not used*
  2
BEAMD
 70
     1
280
     0
  0
ATTDEF
  5
54
330
42
100
AcDbEntity
  8
ASHADE
  6
Continuous
 62
     7
100
AcDbText
 10
0.0
 20
0.175
 30
0.0
 40
0.01
  1
-1
100
AcDbAttributeDefinition
280
     0
  3
*not used*
  2
CONED
 70
     1
280
     0
  0
ATTDEF
  5
55
330
42
100
AcDbEntity
  8
ASHADE
  6
Continuous
 62
     7
100
AcDbText
 10
0.0
 20
0.19
 30
0.0
 40
0.01
  1
0
100
AcDbAttributeDefinition
280
     0
  3
Depth Map Size
  2
CONEA
 70
     1
280
     0
  0
ATTDEF
  5
56
330
42
100
AcDbEntity
  8
ASHADE
  6
Continuous
 62
     7
100
AcDbText
 10
0.0
 20
0.2050000000000001
 30
0.0
 40
0.01
  1
1,1,1
100
AcDbAttributeDefinition
280
     0
  3
Light Color (RGB)
  2
COLOR
 70
     1
280
     0
  0
ATTDEF
  5
57
330
42
100
AcDbEntity
  8
ASHADE
  6
Continuous
 62
     7
100
AcDbText
 10
0.0
 20
0.235
 30
0.0
 40
0.01
  1

100
AcDbAttributeDefinition
280
     0
  3
Look-at Z
  2
LAZ
 70
     1
280
     0
  0
ATTDEF
  5
58
330
42
100
AcDbEntity
  8
ASHADE
  6
Continuous
 62
     7
100
AcDbText
 10
0.0
 20
0.25
 30
0.0
 40
0.01
  1

100
AcDbAttributeDefinition
280
     0
  3
Look-at Y
  2
LAY
 70
     1
280
     0
  0
ATTDEF
  5
59
330
42
100
AcDbEntity
  8
ASHADE
  6
Continuous
 62
     7
100
AcDbText
 10
0.0
 20
0.265
 30
0.0
 40
0.01
  1

100
AcDbAttributeDefinition
280
     0
  3
Look-at X
  2
LAX
 70
     1
280
     0
  0
ATTDEF
  5
5A
330
42
100
AcDbEntity
  8
ASHADE
  6
Continuous
 62
     7
100
AcDbText
 10
0.0
 20
0.28
 30
0.0
 40
0.01
  1

100
AcDbAttributeDefinition
280
     0
  3

  2
GNAME
 70
     1
280
     0
  0
LINE
  5
5B
330
42
100
AcDbEntity
  8
ASHADE
  6
Continuous
 62
     7
100
AcDbLine
 10
0.1096591641591904
 20
0.2792398032442862
 30
0.0
 11
0.1279356915190555
 21
0.3257797704516674
 31
0.0
  0
LINE
  5
5C
330
42
100
AcDbEntity
  8
ASHADE
  6
Continuous
 62
     7
100
AcDbLine
 10
0.2041413561583015
 20
0.2198324514393849
 30
0.0
 11
0.2721884748777353
 21
0.2931099352525131
 31
0.0
  0
ENDBLK
  5
5E
330
42
100
AcDbEntity
  8
0
100
AcDbBlockEnd
  0
BLOCK
  5
85
330
5F
100
AcDbEntity
  8
0
100
AcDbBlockBegin
  2
sh_spot
 70
     2
 10
0.0
 20
0.0
 30
0.0
  3
sh_spot
  1

  0
LINE
  5
60
330
5F
100
AcDbEntity
  8
ASHADE
  6
Continuous
 62
     7
100
AcDbLine
 10
0.25
 20
0.26
 30
0.0
 11
-0.25
 21
0.26
 31
0.0
  0
LINE
  5
61
330
5F
100
AcDbEntity
  8
ASHADE
  6
Continuous
 62
     7
100
AcDbLine
 10
-0.25
 20
-0.3399999999999999
 30
0.0
 11
0.25
 21
-0.3399999999999999
 31
0.0
  0
ATTDEF
  5
62
330
5F
100
AcDbEntity
  8
ASHADE
  6
Continuous
 62
     1
100
AcDbText
 10
0.0
 20
-0.1
 30
0.0
 40
0.2
  1

  7
ASHADE
 72
     1
 11
0.0
 21
-0.1
 31
0.0
100
AcDbAttributeDefinition
280
     0
  3
Light Name
  2
SNAME
 70
     0
280
     0
  0
LINE
  5
63
330
5F
100
AcDbEntity
  8
ASHADE
  6
Continuous
 62
     7
100
AcDbLine
 10
-0.25
 20
-0.13
 30
0.0
 11
-0.25
 21
-0.3399999999999999
 31
0.0
  0
LINE
  5
64
330
5F
100
AcDbEntity
  8
ASHADE
  6
Continuous
 62
     7
100
AcDbLine
 10
-0.25
 20
-0.18
 30
0.0
 11
-0.29
 21
-0.18
 31
0.0
  0
LINE
  5
65
330
5F
100
AcDbEntity
  8
ASHADE
  6
Continuous
 62
     7
100
AcDbLine
 10
-0.29
 20
-0.22
 30
0.0
 11
-0.25
 21
-0.22
 31
0.0
  0
LINE
  5
66
330
5F
100
AcDbEntity
  8
ASHADE
  6
Continuous
 62
     7
100
AcDbLine
 10
-0.29
 20
-0.18
 30
0.0
 11
-0.29
 21
-0.22
 31
0.0
  0
LINE
  5
67
330
5F
100
AcDbEntity
  8
ASHADE
  6
Continuous
 62
     7
100
AcDbLine
 10
-0.1045454545454545
 20
0.26
 30
0.0
 11
-0.15
 21
0.46
 31
0.0
  0
LINE
  5
68
330
5F
100
AcDbEntity
  8
ASHADE
  6
Continuous
 62
     7
100
AcDbLine
 10
-0.21
 20
0.26
 30
0.0
 11
-0.301304347826087
 21
0.46
 31
0.0
  0
LINE
  5
69
330
5F
100
AcDbEntity
  8
ASHADE
  6
Continuous
 62
     7
100
AcDbLine
 10
-0.25
 20
0.26
 30
0.0
 11
-0.25
 21
0.13
 31
0.0
  0
LINE
  5
6A
330
5F
100
AcDbEntity
  8
ASHADE
  6
Continuous
 62
     7
100
AcDbLine
 10
-0.25
 20
0.22
 30
0.0
 11
-0.29
 21
0.22
 31
0.0
  0
LINE
  5
6B
330
5F
100
AcDbEntity
  8
ASHADE
  6
Continuous
 62
     7
100
AcDbLine
 10
-0.29
 20
0.1799999999999999
 30
0.0
 11
-0.25
 21
0.1799999999999999
 31
0.0
  0
LINE
  5
6C
330
5F
100
AcDbEntity
  8
ASHADE
  6
Continuous
 62
     7
100
AcDbLine
 10
-0.29
 20
0.22
 30
0.0
 11
-0.29
 21
0.1799999999999999
 31
0.0
  0
ATTDEF
  5
6D
330
5F
100
AcDbEntity
  8
ASHADE
  6
Continuous
 62
     7
100
AcDbText
 10
0.0
 20
-0.24
 30
0.0
 40
0.01
  1
0
100
AcDbAttributeDefinition
280
     0
  3
Depth Map Size
  2
ZSIZE
 70
     1
280
     0
  0
ATTDEF
  5
6E
330
5F
100
AcDbEntity
  8
ASHADE
  6
Continuous
 62
     7
100
AcDbText
 10
0.0
 20
-0.3300000000000001
 30
0.0
 40
0.01
  1
0,0,0
100
AcDbAttributeDefinition
280
     0
  3
Look-from XYZ
  2
LFXYZ
 70
     1
280
     0
  0
ATTDEF
  5
6F
330
5F
100
AcDbEntity
  8
ASHADE
  6
Continuous
 62
     7
100
AcDbText
 10
0.0
 20
-0.315
 30
0.0
 40
0.01
  1
0.0
100
AcDbAttributeDefinition
280
     0
  3
Beam Distribution
  2
BEAMDI
 70
     1
280
     0
  0
ATTDEF
  5
70
330
5F
100
AcDbEntity
  8
ASHADE
  6
Continuous
 62
     7
100
AcDbText
 10
0.0
 20
-0.3
 30
0.0
 40
0.01
  1
0.0
100
AcDbAttributeDefinition
280
     0
  3
Cone Delta
  2
CONEDE
 70
     1
280
     0
  0
ATTDEF
  5
71
330
5F
100
AcDbEntity
  8
ASHADE
  6
Continuous
 62
     7
100
AcDbText
 10
0.0
 20
-0.2850000000000001
 30
0.0
 40
0.01
  1
10.0
100
AcDbAttributeDefinition
280
     0
  3
Cone Angle
  2
CONEAN
 70
     1
280
     0
  0
ATTDEF
  5
72
330
5F
100
AcDbEntity
  8
ASHADE
  6
Continuous
 62
     7
100
AcDbText
 10
0.0
 20
-0.27
 30
0.0
 40
0.01
  1
-1
100
AcDbAttributeDefinition
280
     0
  3
*not used*
  2
BIASMAX
 70
     1
280
     0
  0
ATTDEF
  5
73
330
5F
100
AcDbEntity
  8
ASHADE
  6
Continuous
 62
     7
100
AcDbText
 10
0.0
 20
-0.255
 30
0.0
 40
0.01
  1
-1
100
AcDbAttributeDefinition
280
     0
  3
*not used*
  2
BIASMIN
 70
     1
280
     0
  0
ATTDEF
  5
74
330
5F
100
AcDbEntity
  8
ASHADE
  6
Continuous
 62
     7
100
AcDbText
 10
0.0
 20
-0.225
 30
0.0
 40
0.01
  1
1,1,1
100
AcDbAttributeDefinition
280
     0
  3
Light Color (RGB)
  2
COLOR
 70
     1
280
     0
  0
ATTDEF
  5
75
330
5F
100
AcDbEntity
  8
ASHADE
  6
Continuous
 62
     7
100
AcDbText
 10
0.0
 20
-0.21
 30
0.0
 40
0.01
  1
1
100
AcDbAttributeDefinition
280
     0
  3
Light Intensity
  2
INTENSITY
 70
     1
280
     0
  0
ATTDEF
  5
76
330
5F
100
AcDbEntity
  8
ASHADE
  6
Continuous
 62
     7
100
AcDbText
 10
0.0
 20
-0.15
 30
0.0
 40
0.01
  1

100
AcDbAttributeDefinition
280
     0
  3

  2
GNAME
 70
     1
280
     0
  0
ATTDEF
  5
77
330
5F
100
AcDbEntity
  8
ASHADE
  6
Continuous
 62
     7
100
AcDbText
 10
0.0
 20
-0.195
 30
0.0
 40
0.01
  1

100
AcDbAttributeDefinition
280
     0
  3
Look-at Z
  2
LAZ
 70
     1
280
     0
  0
ATTDEF
  5
78
330
5F
100
AcDbEntity
  8
ASHADE
  6
Continuous
 62
     7
100
AcDbText
 10
0.0
 20
-0.18
 30
0.0
 40
0.01
  1

100
AcDbAttributeDefinition
280
     0
  3
Look-at Y
  2
LAY
 70
     1
280
     0
  0
ATTDEF
  5
79
330
5F
100
AcDbEntity
  8
ASHADE
  6
Continuous
 62
     7
100
AcDbText
 10
0.0
 20
-0.165
 30
0.0
 40
0.01
  1

100
AcDbAttributeDefinition
280
     0
  3
Look-at X
  2
LAX
 70
     1
280
     0
  0
LINE
  5
7A
330
5F
100
AcDbEntity
  8
ASHADE
  6
Continuous
 62
     7
100
AcDbLine
 10
0.25
 20
-0.3399999999999999
 30
0.0
 11
0.25
 21
-0.13
 31
0.0
  0
LINE
  5
7B
330
5F
100
AcDbEntity
  8
ASHADE
  6
Continuous
 62
     7
100
AcDbLine
 10
0.25
 20
-0.18
 30
0.0
 11
0.29
 21
-0.18
 31
0.0
  0
LINE
  5
7C
330
5F
100
AcDbEntity
  8
ASHADE
  6
Continuous
 62
     7
100
AcDbLine
 10
0.29
 20
-0.22
 30
0.0
 11
0.25
 21
-0.22
 31
0.0
  0
LINE
  5
7D
330
5F
100
AcDbEntity
  8
ASHADE
  6
Continuous
 62
     7
100
AcDbLine
 10
0.29
 20
-0.18
 30
0.0
 11
0.29
 21
-0.22
 31
0.0
  0
LINE
  5
7E
330
5F
100
AcDbEntity
  8
ASHADE
  6
Continuous
 62
     7
100
AcDbLine
 10
0.21
 20
0.26
 30
0.0
 11
0.301304347826087
 21
0.46
 31
0.0
  0
LINE
  5
7F
330
5F
100
AcDbEntity
  8
ASHADE
  6
Continuous
 62
     7
100
AcDbLine
 10
0.1045454545454545
 20
0.26
 30
0.0
 11
0.15
 21
0.46
 31
0.0
  0
LINE
  5
80
330
5F
100
AcDbEntity
  8
ASHADE
  6
Continuous
 62
     7
100
AcDbLine
 10
0.0
 20
0.26
 30
0.0
 11
0.0
 21
0.46
 31
0.0
  0
LINE
  5
81
330
5F
100
AcDbEntity
  8
ASHADE
  6
Continuous
 62
     7
100
AcDbLine
 10
0.25
 20
0.13
 30
0.0
 11
0.25
 21
0.26
 31
0.0
  0
LINE
  5
82
330
5F
100
AcDbEntity
  8
ASHADE
  6
Continuous
 62
     7
100
AcDbLine
 10
0.25
 20
0.22
 30
0.0
 11
0.29
 21
0.22
 31
0.0
  0
LINE
  5
83
330
5F
100
AcDbEntity
  8
ASHADE
  6
Continuous
 62
     7
100
AcDbLine
 10
0.29
 20
0.1799999999999999
 30
0.0
 11
0.25
 21
0.1799999999999999
 31
0.0
  0
LINE
  5
84
330
5F
100
AcDbEntity
  8
ASHADE
  6
Continuous
 62
     7
100
AcDbLine
 10
0.29
 20
0.22
 30
0.0
 11
0.29
 21
0.1799999999999999
 31
0.0
  0
ENDBLK
  5
86
330
5F
100
AcDbEntity
  8
0
100
AcDbBlockEnd
  0
BLOCK
  5
92
330
91
100
AcDbEntity
  8
ASHADE
100
AcDbBlockBegin
  2
AVE_RENDER
 70
     0
 10
0.0
 20
0.0
 30
0.0
  3
AVE_RENDER
  1
AVE_RENDER
  0
ENDBLK
  5
93
330
91
100
AcDbEntity
  8
0
100
AcDbBlockEnd
  0
BLOCK
  5
A0
330
9F
100
AcDbEntity
  8
ASHADE
100
AcDbBlockBegin
  2
AVE_GLOBAL
 70
     0
 10
0.0
 20
0.0
 30
0.0
  3
AVE_GLOBAL
  1
AVE_GLOBAL
  0
ENDBLK
  5
A1
330
9F
100
AcDbEntity
  8
0
100
AcDbBlockEnd
  0
ENDSEC
  0
SECTION
  2
ENTITIES
  0
INSERT
  5
94
330
1F
100
AcDbEntity
  8
ASHADE
 62
     1
100
AcDbBlockReference
  2
AVE_RENDER
 10
0.0
 20
0.0
 30
0.0
1001
AVE_RENDER
1002
{
1070
     7
1000
Pref
1070
    30
1070
    20
1070
     1
1070
     0
1000

1070
    10
1070
     1
1070
    10
1040
1.0
1070
     1
1040
0.3
1040
0.7
1040
0.0
1040
10.0
1010
-1.0
1020
-1.0
1030
-1.0
1040
0.3
1070
    49
1070
     0
1070
     0
1010
1.0
1020
1.0
1030
1.0
1040
45.0
1070
     1
1070
     0
1000
WCS
1040
0.0
1070
     0
1040
10.0
1002
}
  0
INSERT
  5
95
330
1F
100
AcDbEntity
  8
ASHADE
 62
     3
100
AcDbBlockReference
  2
AVE_RENDER
 10
0.0
 20
0.0
 30
0.0
1001
AVE_RENDER
1002
{
1070
     0
1000
Full Opt
1070
     0
1070
     1
1070
     1
1070
     1
1070
     0
1070
     0
1070
     0
1070
     1
1070
     1
1040
0.0001
1040
0.0001
1002
}
  0
INSERT
  5
96
330
1F
100
AcDbEntity
  8
ASHADE
 62
     4
100
AcDbBlockReference
  2
AVE_RENDER
 10
0.0
 20
0.0
 30
0.0
1001
AVE_RENDER
1002
{
1070
     0
1000
Quick Opt
1070
     0
1070
     1
1070
     1
1070
     1
1070
     0
1070
     0
1070
     1
1002
}
  0
INSERT
  5
97
330
1F
100
AcDbEntity
  8
ASHADE
 62
     5
100
AcDbBlockReference
  2
AVE_RENDER
 10
0.0
 20
0.0
 30
0.0
1001
AVE_RENDER
1002
{
1070
     1
1000
Scanl Opt
1070
     2
1070
     0
1070
     2
1040
2.0
1040
4.0
1070
     0
1070
     1
1070
     0
1040
0.03
1002
}
  0
INSERT
  5
98
330
1F
100
AcDbEntity
  8
ASHADE
 62
     6
100
AcDbBlockReference
  2
AVE_RENDER
 10
0.0
 20
0.0
 30
0.0
1001
AVE_RENDER
1002
{
1070
     2
1000
Raytr Opt
1070
     2
1070
     0
1070
     2
1040
2.0
1040
4.0
1070
     0
1070
     1
1070
     1
1040
0.03
1070
     3
1040
0.03
1002
}
  0
INSERT
  5
99
330
1F
100
AcDbEntity
  8
ASHADE
 62
     7
100
AcDbBlockReference
  2
AVE_RENDER
 10
0.0
 20
0.0
 30
0.0
1001
AVE_RENDER
1002
{
1070
     0
1000
RFile Opt
1070
     1
1070
   640
1070
   480
1070
 10000
1070
     1
1070
     8
1070
     8
1070
     0
1070
     0
1070
     0
1070
     0
1070
     0
1070
     0
1070
     0
1002
}
  0
INSERT
  5
9A
330
1F
100
AcDbEntity
  8
ASHADE
 62
     8
100
AcDbBlockReference
  2
AVE_RENDER
 10
0.0
 20
0.0
 30
0.0
1001
AVE_RENDER
1002
{
1070
     0
1000
Fog Opt
1070
     0
1070
     0
1040
0.0
1040
1.0
1040
0.0
1040
1.0
1010
0.5
1020
0.5
1030
0.5
1002
}
  0
INSERT
  5
9B
330
1F
100
AcDbEntity
  8
ASHADE
 62
     9
100
AcDbBlockReference
  2
AVE_RENDER
 10
0.0
 20
0.0
 30
0.0
1001
AVE_RENDER
1002
{
1070
     0
1000
BG Opt
1070
     0
1070
     1
1010
0.0
1020
0.0
1030
0.0
1010
1.0
1020
0.0
1030
0.0
1010
0.0
1020
1.0
1030
0.0
1010
0.0
1020
0.0
1030
1.0
1040
0.5
1040
0.33
1040
0.0
1000

1070
     1
1000

1070
     1
1070
     1
1040
1.0
1040
1.0
1040
0.0
1040
0.0
1070
     0
1002
}
  0
INSERT
  5
A2
330
1F
100
AcDbEntity
  8
ASHADE
 62
     1
100
AcDbBlockReference
  2
AVE_GLOBAL
 10
0.0
 20
0.0
 30
0.0
1001
AVE_MATERIAL
1002
{
1000
*GLOBAL*
1000
2
1000
Global finish.
1002
{
1002
}
1002
{
1070
    63
1002
{
1002
{
1010
-1.0
1020
-1.0
1030
-1.0
1002
}
1040
0.1000000014901161
1000

1040
0.0
1002
{
1002
}
1040
0.0
1002
{
1002
}
1040
0.0
1002
}
1002
{
1002
{
1010
-1.0
1020
-1.0
1030
-1.0
1002
}
1040
0.6999999880790711
1000

1040
0.0
1002
{
1002
}
1040
0.0
1002
{
1002
}
1040
0.0
1002
}
1002
{
1002
{
1010
-1.0
1020
-1.0
1030
-1.0
1002
}
1040
0.2000000029802322
1000

1040
0.0
1002
{
1002
}
1040
0.0
1002
{
1002
}
1040
0.0
1002
}
1002
{
1070
     0
1002
{
1070
     1
1002
{
1040
1.0
1040
1.0
1000

1040
0.0
1002
{
1002
}
1040
0.0
1002
{
1002
}
1040
0.0
1002
}
1002
}
1040
1.0
1040
0.0
1040
0.0
1002
}
1002
{
1040
1.0
1040
1.0
1000

1040
0.0
1002
{
1002
}
1040
0.0
1002
{
1002
}
1040
0.0
1002
}
1002
{
1040
0.5
1040
1.0
1000

1040
0.0
1002
{
1002
}
1040
0.0
1002
{
1002
}
1040
0.0
1002
}
1002
{
1070
     0
1040
0.0
1002
{
1002
}
1040
1.0
1002
{
1002
}
1040
0.0
1002
}
1002
{
1040
0.0
1002
{
1002
{
1010
0.0
1020
0.0
1030
0.0
1002
}
1040
1.0
1000

1040
0.0
1002
{
1002
}
1040
0.0
1002
{
1002
}
1040
0.0
1002
}
1002
}
1002
{
1002
{
1070
     1
1002
{
1040
0.0
1040
1.0
1000

1040
0.0
1002
{
1002
}
1040
0.0
1002
{
1002
}
1040
0.0
1002
}
1002
}
1040
0.0
1002
{
1002
}
1010
1.0
1020
0.0
1030
0.0
1010
0.0
1020
1.0
1030
0.0
1010
0.0
1020
0.0
1030
1.0
1070
     0
1002
}
1002
{
1002
{
1040
1.0
1040
1.0
1002
{
1070
     1
1002
{
1040
1.0
1040
1.0
1000

1040
0.0
1002
{
1002
}
1040
0.0
1002
{
1002
}
1040
0.0
1002
}
1002
}
1002
}
1070
     0
1040
0.0
1002
{
1002
}
1002
}
1002
{
1002
}
1002
}
1002
{
1071
        3
1070
     3
1070
     0
1002
{
1070
     2
1070
     0
1070
     0
1040
0.0
1002
}
1070
     0
1070
     2
1002
{
1002
}
1002
}
1002
{
1040
8030.0
1040
190.3000030517578
1040
0.3050000071525574
1040
228.0
1040
545.0
1040
14.0
1040
17.39999961853027
1040
0.4560000002384186
1002
}
1002
}
  0
MESH
  5
F9
330
1F
100
AcDbEntity
  8
OracDecor_indirect_lighting
 62
     7
420
 16777215
160
             20312
310
584F0000340200000C00000013000000020000003C0000000600000002000000000000204886904000000040050039C0000000000000F4BE0000002048869040000000807E4641C00000000028BDEABF0C000000130000000A0000003C0000000600000002000000000000204886904000000040050039C0000000000000F4
310
BE000000006F738DC0000000400B0039C00000000000001CBF0C00000013000000120000003C0000000600000002000000000000006F738DC0000000400B0039C00000000000001CBF000000006F738DC000000060814641C000000000E0BDEABF0C000000130000001A0000003C0000000600000002000000000000006F73
310
8DC000000060814641C000000000E0BDEABF0000002048869040000000807E4641C00000000028BDEABF0C00000013000000220000003C0000000600000002000000000000204886904000000040050039C000000000F5D01BC0000000006F738DC0000000000B0039C000000000FCD01BC00C000000130000002A0000003C
310
0000000600000002000000000000006F738DC0000000400B0039C00000000000001CBF000000006F738DC0000000000B0039C000000000FCD01BC00C00000013000000320000003C0000000600000002000000000000204886904000000040050039C0000000000000F4BE000000204886904000000040050039C000000000
310
F5D01BC00C000000130000003A0000003C00000006000000020000000000002048869040000000807E4641C00000000028BDEABF000000204886904000000040050039C000000000F5D01BC00C00000013000000420000003C0000000600000002000000000000204886904000000020D5E745C0000000002C890AC0000000
310
2048869040000000807E4641C00000000028BDEABF0C000000130000004A0000003C0000000600000002000000000000006F738DC000000060814641C000000000E0BDEABF000000006F738DC000000000D8E745C0000000003A890AC00C00000013000000520000003C0000000600000002000000000000006F738DC00000
310
0000D8E745C0000000003A890AC0000000204886904000000020D5E745C0000000002C890AC00C000000130000005A0000003C00000006000000020000000000002048869040000000C002404AC00000000087791DC0000000204886904000000020D5E745C0000000002C890AC00C00000013000000620000003C00000006
310
00000002000000000000006F738DC000000000D8E745C0000000003A890AC0000000006F738DC0000000A005404AC0000000009D791DC00C000000130000006A0000003C0000000600000002000000000000006F738DC0000000A005404AC0000000009D791DC00000002048869040000000C002404AC00000000087791DC0
310
0C00000013000000720000003C00000006000000020000000000002048869040000000403C2D4EC00000008033BC29C00000002048869040000000C002404AC00000000087791DC00C000000130000007A0000003C0000000600000002000000000000006F738DC0000000A005404AC0000000009D791DC0000000006F738D
310
C0000000003F2D4EC0000000803EBC29C00C00000013000000820000003C0000000600000002000000000000006F738DC0000000003F2D4EC0000000803EBC29C00000002048869040000000403C2D4EC00000008033BC29C00C000000130000008A0000003C00000006000000020000000000002048869040000000407BC8
310
50C0000000C091A533C00000002048869040000000403C2D4EC00000008033BC29C00C00000013000000920000003C0000000600000002000000000000006F738DC0000000003F2D4EC0000000803EBC29C0000000006F738DC0000000C07CC850C00000004097A533C00C000000130000009A0000003C0000000600000002
310
000000000000006F738DC0000000C07CC850C00000004097A533C00000002048869040000000407BC850C0000000C091A533C00C00000013000000A20000003C00000006000000020000000000002048869040000000206A2852C00000004001803BC00000002048869040000000407BC850C0000000C091A533C00C000000
310
13000000AA0000003C0000000600000002000000000000006F738DC0000000C07CC850C00000004097A533C0000000006F738DC0000000806B2852C00000004007803BC00C00000013000000B20000003C0000000600000002000000000000006F738DC0000000806B2852C00000004007803BC00000002048869040000000
310
206A2852C00000004001803BC00C00000013000000BA0000003C0000000600000002000000000000204886904000000020B92B53C0000000A02E1842C00000002048869040000000206A2852C00000004001803BC00C00000013000000C20000003C0000000600000002000000000000006F738DC0000000806B2852C00000
310
004007803BC0000000006F738DC000000080BA2B53C0000000A0311842C00C00000013000000CA0000003C0000000600000002000000000000006F738DC000000080BA2B53C0000000A0311842C0000000204886904000000020B92B53C0000000A02E1842C00C00000013000000D20000003C000000060000000200000000
310
000020488690400000006087CA53C0000000A086B946C0000000204886904000000020B92B53C0000000A02E1842C00C00000013000000DA0000003C0000000600000002000000000000006F738DC000000080BA2B53C0000000A0311842C0000000006F738DC0000000C088CA53C00000008089B946C00C00000013000000
310
E20000003C0000000600000002000000000000006F738DC0000000C088CA53C00000008089B946C000000020488690400000006087CA53C0000000A086B946C00C00000013000000EA0000003C0000000600000002000000000000204886904000000060010054C0000000A000804BC000000020488690400000006087CA53
310
C0000000A086B946C00C00000013000000F20000003C0000000600000002000000000000006F738DC0000000C088CA53C00000008089B946C0000000006F738DC0000000C0020054C00000008003804BC00C00000013000000FA0000003C0000000600000002000000000000006F738DC0000000C0020054C0000000800380
310
4BC0000000204886904000000060010054C0000000A000804BC00C00000013000000020100003C0000000600000002000000000000204886904000000060010054C0000000A000804BC000000020488690400000008087CC53C0000000A0A6524FC00C000000130000000A0100003C0000000600000002000000000000006F
310
738DC0000000C0020054C00000008003804BC0000000006F738DC0000000E088CC53C000000080A9524FC00C00000013000000120100003C0000000600000002000000000000006F738DC0000000E088CC53C000000080A9524FC000000020488690400000008087CC53C0000000A0A6524FC00C000000130000001A010000
310
3C0000000600000002000000000000204886904000000080DBDC50C0000000A0281348C0000000204886904000000040010051C0000000A000804BC00C00000013000000220100003C000000060000000200000000000020488690400000006087CA53C0000000A086B946C0000000204886904000000080DBDC50C0000000
310
A0281348C00C000000130000002A0100003C0000000600000002000000000000204886904000000060010054C0000000A000804BC0000000204886904000000040010051C0000000A000804BC00C00000013000000320100003C0000000600000002000000000000204886904000000040010051C0000000A000804BC00000
310
0020488690400000004057DD50C0000000A006134EC00C000000130000003A0100003C000000060000000200000000000020488690400000008087CC53C0000000A0A6524FC000000020488690400000004057DD50C0000000A006134EC00C00000013000000420100003C0000000600000002000000000000204886904000
310
000020B92B53C0000000A02E1842C0000000204886904000000000527450C0000000A0C0BC44C00C000000130000004A0100003C0000000600000002000000000000204886904000000000527450C0000000A0C0BC44C0000000204886904000000080DBDC50C0000000A0281348C00C00000013000000520100003C000000
310
06000000020000000000002048869040000000206A2852C00000004001803BC00000002048869040000000001C924FC0000000A0869241C00C000000130000005A0100003C00000006000000020000000000002048869040000000001C924FC0000000A0869241C0000000204886904000000000527450C0000000A0C0BC44
310
C00C00000013000000620100003C0000000600000002000000000000204886904000000000B887E7BF00000040CD9035C0000000204886904000000000008020BF00000040312435C00C000000130000006A0100003C0000000600000002000000000000204886904000000000008020BF00000040312435C0000000204886
310
904000000000008020BF0000004081DF30C00C00000013000000720100003C0000000600000002000000000000204886904000000000B887E7BF00000040CD9035C0000000204886904000000000008020BF0000004081DF30C00C000000130000007A0100003C0000000600000002000000000000204886904000000020D5
310
E745C0000000002C890AC000000020488690400000008046EE42C00000008022D027C00C00000013000000820100003C00000006000000020000000000002048869040000000C002404AC00000000087791DC0000000204886904000000020492E45C000000080D2F72AC00C000000130000008A0100003C00000006000000
310
0200000000000020488690400000008046EE42C00000008022D027C0000000204886904000000020492E45C000000080D2F72AC00C00000013000000920100003C0000000600000002000000000000204886904000000080067F3AC00000008072C721C0000000204886904000000000CAB839C0000000800AFC20C00C0000
310
00130000009A0100003C00000006000000020000000000002048869040000000807E4641C00000000028BDEABF000000204886904000000000CAB839C0000000800AFC20C00C00000013000000A20100003C00000006000000020000000000002048869040000000807E4641C00000000028BDEABF00000020488690400000
310
0080067F3AC00000008072C721C00C00000013000000AA0100003C0000000600000002000000000000204886904000000040593453C0000000403E7D51C000000020488690400000008087CC53C0000000A0A6524FC00C00000013000000B20100003C0000000600000002000000000000006F738DC0000000E088CC53C000
310
000080A9524FC0000000006F738DC0000000A05A3453C0000000C03F7D51C00C00000013000000BA0100003C0000000600000002000000000000006F738DC0000000A05A3453C0000000C03F7D51C0000000204886904000000040593453C0000000403E7D51C00C00000013000000C20100003C0000000600000002000000
310
000000204886904000000080233E52C0000000403B2753C0000000204886904000000040593453C0000000403E7D51C00C00000013000000CA0100003C0000000600000002000000000000006F738DC0000000A05A3453C0000000C03F7D51C0000000006F738DC0000000E0243E52C0000000C03C2753C00C000000130000
310
00D20100003C0000000600000002000000000000006F738DC0000000E0243E52C0000000C03C2753C0000000204886904000000080233E52C0000000403B2753C00C00000013000000DA0100003C0000000600000002000000000000204886904000000040ACF450C000000040A99454C0000000204886904000000080233E
310
52C0000000403B2753C00C00000013000000E20100003C0000000600000002000000000000006F738DC0000000E0243E52C0000000C03C2753C0000000006F738DC0000000C0ADF450C0000000C0A99454C00C00000013000000EA0100003C0000000600000002000000000000006F738DC0000000C0ADF450C0000000C0A9
310
9454C0000000204886904000000040ACF450C000000040A99454C00C00000013000000F20100003C00000006000000020000000000002048869040000000A0B7CC4EC00000004089B555C0000000204886904000000040ACF450C000000040A99454C00C00000013000000FA0100003C000000060000000200000000000000
310
6F738DC0000000C0ADF450C0000000C0A99454C0000000E06E738DC0000000A0BACC4EC0000000C08AB555C00C00000013000000020200003C0000000600000002000000000000E06E738DC0000000A0BACC4EC0000000C08AB555C00000002048869040000000A0B7CC4EC00000004089B555C00C000000130000000A0200
310
003C00000006000000020000000000002048869040000000A056494BC000000080337D56C00000002048869040000000A0B7CC4EC00000004089B555C00C00000013000000120200003C0000000600000002000000000000E06E738DC0000000A0BACC4EC0000000C08AB555C0000000006F738DC0000000A059494BC00000
310
00C0337D56C00C000000130000001A0200003C0000000600000002000000000000006F738DC0000000A059494BC0000000C0337D56C00000002048869040000000A056494BC000000080337D56C00C00000013000000220200003C00000006000000020000000000002048869040000000A056494BC000000080337D56C000
310
000020488690400000006054A845C00000004085A757C00C000000130000002A0200003C0000000600000002000000000000006F738DC0000000A059494BC0000000C0337D56C0000000006F738DC00000004057A845C0000000C085A757C00C00000013000000320200003C00000006000000020000000000002048869040
310
0000006054A845C00000004085A757C0000000006F738DC00000004057A845C0000000C085A757C00C000000130000003A0200003C000000060000000200000000000020488690400000004057DD50C0000000A006134EC00000002048869040000000C0DD7650C000000040994450C00C00000013000000420200003C0000
310
000600000002000000000000204886904000000040593453C0000000403E7D51C00000002048869040000000C0DD7650C000000040994450C00C000000130000004A0200003C0000000600000002000000000000E06E738DC000000000081C23C0000000605B1660C0000000006F738DC0000000002C0014C0000000E00080
310
61C00C00000013000000520200003C0000000600000002000000000000204886904000000000150014C0000000A0008061C0000000006F738DC0000000002C0014C0000000E0008061C00C000000130000005A0200003C0000000600000002000000000000204886904000000000150014C0000000A0008061C00000002048
310
86904000000080FC1B23C0000000A05A1660C00C00000013000000620200003C0000000600000002000000000000204886904000000080FC1B23C0000000A05A1660C0000000E06E738DC000000000081C23C0000000605B1660C00C000000130000006A0200003C0000000600000002000000000000006F738DC000000000
310
000026BF000000E0008061C0000000204886904000000000000016BF000000A0008061C00C00000013000000720200003C0000000600000002000000000000204886904000000000150014C0000000A0008061C0000000204886904000000000000016BF000000A0008061C00C000000130000007A0200003C000000060000
310
0002000000000000006F738DC0000000002C0014C0000000E0008061C0000000006F738DC000000000000026BF000000E0008061C00C00000013000000820200003C0000000600000002000000000000006F738DC000000080E0AE2FC0000000C0B5905DC0000000E06E738DC000000000081C23C0000000605B1660C00C00
310
0000130000008A0200003C0000000600000002000000000000204886904000000080FC1B23C0000000A05A1660C0000000204886904000000080D4AE2FC000000040B5905DC00C00000013000000920200003C0000000600000002000000000000204886904000000080D4AE2FC000000040B5905DC0000000006F738DC000
310
000080E0AE2FC0000000C0B5905DC00C000000130000009A0200003C0000000600000002000000000000204886904000000000000016BF0000004061435EC00000002048869040000000006D3A1DC00000004007675BC00C00000013000000A20200003C0000000600000002000000000000204886904000000080D4AE2FC0
310
00000040B5905DC00000002048869040000000006D3A1DC00000004007675BC00C00000013000000AA0200003C0000000600000002000000000000204886904000000080FC1B23C0000000A05A1660C0000000204886904000000000000016BF0000004061435EC00C00000013000000B20200003C00000006000000020000
310
00000000204886904000000080FC1B23C0000000A05A1660C00000002048869040000000002C72F2BF000000A02F6960C00C00000013000000BA0200003C0000000600000002000000000000204886904000000000B887E7BF000000A01A5660C00000002048869040000000002C72F2BF000000A02F6960C00C0000001300
310
0000C20200003C0000000600000002000000000000204886904000000000B887E7BF000000A01A5660C0000000204886904000000000000016BF0000004061435EC00C00000013000000CA0200003C0000000600000002000000000000006F738DC000000080B1B337C0000000C0D93C5BC0000000006F738DC000000080E0
310
AE2FC0000000C0B5905DC00C00000013000000D20200003C0000000600000002000000000000204886904000000080D4AE2FC000000040B5905DC00000002048869040000000C0ABB337C000000040D93C5BC00C00000013000000DA0200003C00000006000000020000000000002048869040000000C0ABB337C000000040
310
D93C5BC0000000006F738DC000000080B1B337C0000000C0D93C5BC00C00000013000000E20200003C0000000600000002000000000000206F738DC0000000A0FF7740C0000000C02C4059C0000000006F738DC000000080B1B337C0000000C0D93C5BC00C00000013000000EA0200003C0000000600000002000000000000
310
2048869040000000C0ABB337C000000040D93C5BC00000002048869040000000C0FC7740C0000000402B4059C00C00000013000000F20200003C00000006000000020000000000002048869040000000C0FC7740C0000000402B4059C0000000206F738DC0000000A0FF7740C0000000C02C4059C00C00000013000000FA02
310
00003C0000000600000002000000000000006F738DC00000004057A845C0000000C085A757C0000000206F738DC0000000A0FF7740C0000000C02C4059C00C00000013000000020300003C00000006000000020000000000002048869040000000C0FC7740C0000000402B4059C000000020488690400000006054A845C000
310
00004085A757C00C000000130000000A0300003C00000006000000020000000000002048869040000000007AB13AC00000004077AD56C00000002048869040000000C05A4630C000000040A1DA58C00C00000013000000120300003C00000006000000020000000000002048869040000000C0FC7740C0000000402B4059C0
310
0000002048869040000000007AB13AC00000004077AD56C00C000000130000001A0300003C00000006000000020000000000002048869040000000C0ABB337C000000040D93C5BC00000002048869040000000C05A4630C000000040A1DA58C00C00000013000000220300003C000000060000000200000000000020488690
310
4000000000000016BF000000A079B760C0000000006F738DC000000000000026BF000000607AB760C00C000000130000002A0300003C0000000600000002000000000000204886904000000000000016BF000000A0008061C0000000204886904000000000000016BF000000A079B760C00C00000013000000320300003C00
310
00000600000002000000000000006F738DC000000000000026BF000000E0008061C0000000006F738DC000000000000026BF000000607AB760C00C000000130000003A0300003C0000000600000002000000000000006F738DC0000000000B0039C000000000FCD01BC0000000006F738DC000000040863039C000000080DB
310
361FC00C00000013000000420300003C0000000600000002000000000000204886904000000040050039C000000000F5D01BC0000000204886904000000080803039C000000080D5361FC00C000000130000004A0300003C0000000600000002000000000000204886904000000080803039C000000080D5361FC000000000
310
6F738DC000000040863039C000000080DB361FC00C00000013000000520300003C0000000600000002000000000000204886904000000000000016BF000000A079B760C0000000204886904000000000B887E7BF000000A0E5A960C00C000000130000005A0300003C0000000600000002000000000000006F738DC0000000
310
00000026BF000000607AB760C0000000206F738DC0000000006888E7BF000000E0E6A960C00C00000013000000620300003C0000000600000002000000000000204886904000000000B887E7BF000000A0E5A960C0000000206F738DC0000000006888E7BF000000E0E6A960C00C000000130000006A0300003C0000000600
310
000002000000000000204886904000000000000016BF0000004061435EC0000000006F738DC000000000000026BF000000C061435EC00C00000013000000720300003C0000000600000002000000000000204886904000000000000016BF000000A0874860C0000000204886904000000000000016BF0000004061435EC00C
310
000000130000007A0300003C0000000600000002000000000000204886904000000000000016BF000000A0874860C0000000006F738DC000000000000026BF000000E0874860C00C00000013000000820300003C0000000600000002000000000000006F738DC000000000000026BF000000E0874860C0000000006F738DC0
310
00000000000026BF000000C061435EC00C000000130000008A0300003C0000000600000002000000000000006F738DC000000000000026BF000000E0874860C0000000E06E738DC0000000006888E7BF000000601B5660C00C00000013000000920300003C0000000600000002000000000000204886904000000000000016
310
BF000000A0874860C0000000204886904000000000B887E7BF000000A01A5660C00C000000130000009A0300003C0000000600000002000000000000204886904000000000B887E7BF000000A01A5660C0000000E06E738DC0000000006888E7BF000000601B5660C00C00000013000000A20300003C000000060000000200
310
0000000000206F738DC0000000008472F2BF000000E0306960C0000000E06E738DC0000000006888E7BF000000601B5660C00C00000013000000AA0300003C00000006000000020000000000002048869040000000002C72F2BF000000A02F6960C0000000206F738DC0000000008472F2BF000000E0306960C00C00000013
310
000000B20300003C0000000600000002000000000000006F738DC0000000007CCDF4BF000000E0008060C0000000206F738DC0000000008472F2BF000000E0306960C00C00000013000000BA0300003C00000006000000020000000000002048869040000000002C72F2BF000000A02F6960C0000000204886904000000000
310
24CDF4BF000000A0008060C00C00000013000000C20300003C000000060000000200000000000020488690400000000024CDF4BF000000A0008060C0000000006F738DC0000000007CCDF4BF000000E0008060C00C00000013000000CA0300003C0000000600000002000000000000E06E738DC0000000008472F2BF000000
310
60D19660C0000000006F738DC0000000007CCDF4BF000000E0008060C00C00000013000000D20300003C000000060000000200000000000020488690400000000024CDF4BF000000A0008060C00000002048869040000000002C72F2BF000000A0D09660C00C00000013000000DA0300003C00000006000000020000000000
310
002048869040000000002C72F2BF000000A0D09660C0000000E06E738DC0000000008472F2BF00000060D19660C00C00000013000000E20300003C0000000600000002000000000000206F738DC0000000006888E7BF000000E0E6A960C0000000E06E738DC0000000008472F2BF00000060D19660C00C00000013000000EA
310
0300003C00000006000000020000000000002048869040000000002C72F2BF000000A0D09660C0000000204886904000000000B887E7BF000000A0E5A960C00C00000013000000F20300003C0000000600000002000000000000006F738DC0000000006888E7BF00000000CF9035C0000000006F738DC000000000008020BF
310
00000000372435C00C00000013000000FA0300003C0000000600000002000000000000204886904000000000008020BF00000040312435C0000000006F738DC000000000008020BF00000000372435C00C00000013000000020400003C0000000600000002000000000000204886904000000000B887E7BF00000040CD9035
310
C0000000006F738DC0000000006888E7BF00000000CF9035C00C000000130000000A0400003C0000000600000002000000000000006F738DC0000000008472F2BF000000007F2936C0000000006F738DC0000000006888E7BF00000000CF9035C00C00000013000000120400003C0000000600000002000000000000204886
310
904000000000B887E7BF00000040CD9035C00000002048869040000000002C72F2BF00000040752936C00C000000130000001A0400003C00000006000000020000000000002048869040000000002C72F2BF00000040752936C0000000006F738DC0000000008472F2BF000000007F2936C00C00000013000000220400003C
310
0000000600000002000000000000006F738DC0000000007CCDF4BF00000000FFDF36C0000000006F738DC0000000008472F2BF000000007F2936C00C000000130000002A0400003C00000006000000020000000000002048869040000000002C72F2BF00000040752936C000000020488690400000000024CDF4BF00000040
310
F9DF36C00C00000013000000320400003C000000060000000200000000000020488690400000000024CDF4BF00000040F9DF36C0000000006F738DC0000000007CCDF4BF00000000FFDF36C00C000000130000003A0400003C0000000600000002000000000000006F738DC0000000008472F2BF000000007F9637C0000000
310
006F738DC0000000007CCDF4BF00000000FFDF36C00C00000013000000420400003C000000060000000200000000000020488690400000000024CDF4BF00000040F9DF36C00000002048869040000000002C72F2BF000000407D9637C00C000000130000004A0400003C000000060000000200000000000020488690400000
310
00002C72F2BF000000407D9637C0000000006F738DC0000000008472F2BF000000007F9637C00C00000013000000520400003C0000000600000002000000000000006F738DC0000000006888E7BF000000002F2F38C0000000006F738DC0000000008472F2BF000000007F9637C00C000000130000005A0400003C00000006
310
000000020000000000002048869040000000002C72F2BF000000407D9637C0000000204886904000000000B887E7BF00000040252F38C00C00000013000000620400003C0000000600000002000000000000204886904000000000B887E7BF00000040252F38C0000000006F738DC0000000006888E7BF000000002F2F38C0
310
0C000000130000006A0400003C0000000600000002000000000000006F738DC000000000008020BF00000000C79B38C0000000006F738DC0000000006888E7BF000000002F2F38C00C00000013000000720400003C0000000600000002000000000000204886904000000000B887E7BF00000040252F38C000000020488690
310
4000000000008020BF00000040C19B38C00C000000130000007A0400003C0000000600000002000000000000006F738DC000000000008020BF00000000C79B38C0000000204886904000000000008020BF00000040C19B38C00C00000013000000820400003C0000000600000002000000000000006F738DC0000000000080
310
20BF0000002077E03CC0000000204886904000000000008020BF0000006071E03CC00C000000130000008A0400003C0000000600000002000000000000006F738DC000000000008020BF00000000C79B38C0000000006F738DC000000000008020BF0000002077E03CC00C00000013000000920400003C0000000600000002
310
000000000000204886904000000000008020BF00000040C19B38C0000000204886904000000000008020BF0000006071E03CC00C000000130000009A0400003C0000000600000002000000000000204886904000000000008020BF0000004081DF30C0000000006F738DC000000000008020BF0000000087DF30C00C000000
310
13000000A20400003C0000000600000002000000000000006F738DC000000000008020BF00000000372435C0000000006F738DC000000000008020BF0000000087DF30C00C00000013000000AA0400003C0000000600000002000000000000006F738DC000000080537450C0000000A0C3BC44C0000000006F738DC0000000
310
C01E924FC000000080899241C00C00000013000000B20400003C00000006000000020000000000002048869040000000001C924FC0000000A0869241C0000000006F738DC0000000C01E924FC000000080899241C00C00000013000000BA0400003C0000000600000002000000000000204886904000000000527450C00000
310
00A0C0BC44C0000000006F738DC000000080537450C0000000A0C3BC44C00C00000013000000C20400003C00000006000000020000000000002048869040000000001C924FC0000000A0869241C000000020488690400000008045F74EC0000000A0E8B540C00C00000013000000CA0400003C000000060000000200000000
310
0000006F738DC0000000C01E924FC000000080899241C0000000006F738DC00000004048F74EC000000080EBB540C00C00000013000000D20400003C000000060000000200000000000020488690400000008045F74EC0000000A0E8B540C0000000006F738DC00000004048F74EC000000080EBB540C00C00000013000000
310
DA0400003C0000000600000002000000000000006F738DC0000000E0DCDC50C0000000802B1348C0000000006F738DC000000080537450C0000000A0C3BC44C00C00000013000000E20400003C0000000600000002000000000000204886904000000080DBDC50C0000000A0281348C0000000006F738DC0000000E0DCDC50
310
C0000000802B1348C00C00000013000000EA0400003C0000000600000002000000000000006F738DC0000000C0020051C00000008003804BC0000000006F738DC0000000E0DCDC50C0000000802B1348C00C00000013000000F20400003C0000000600000002000000000000204886904000000040010051C0000000A00080
310
4BC0000000006F738DC0000000C0020051C00000008003804BC00C00000013000000FA0400003C0000000600000002000000000000006F738DC0000000C0020051C00000008003804BC0000000006F738DC0000000C058DD50C00000008009134EC00C00000013000000020500003C00000006000000020000000000002048
310
8690400000004057DD50C0000000A006134EC0000000006F738DC0000000C058DD50C00000008009134EC00C000000130000000A0500003C0000000600000002000000000000006F738DC000000020DF7650C0000000C09A4450C0000000006F738DC0000000C058DD50C00000008009134EC00C0000001300000012050000
310
3C00000006000000020000000000002048869040000000C0DD7650C000000040994450C0000000006F738DC000000020DF7650C0000000C09A4450C00C000000130000001A0500003C0000000600000002000000000000006F738DC00000000025A24FC0000000C0776351C0000000006F738DC000000020DF7650C0000000
310
C09A4450C00C00000013000000220500003C00000006000000020000000000002048869040000000C0DD7650C000000040994450C000000020488690400000002022A24FC000000040766351C00C000000130000002A0500003C000000060000000200000000000020488690400000002022A24FC000000040766351C00000
310
00006F738DC00000000025A24FC0000000C0776351C00C00000013000000320500003C0000000600000002000000000000006F738DC0000000A06AE64DC0000000C08C5952C0000000006F738DC00000000025A24FC0000000C0776351C00C000000130000003A0500003C0000000600000002000000000000204886904000
310
00002022A24FC000000040766351C00000002048869040000000C067E64DC0000000408B5952C00C00000013000000420500003C00000006000000020000000000002048869040000000C067E64DC0000000408B5952C0000000006F738DC0000000A06AE64DC0000000C08C5952C00C000000130000004A0500003C000000
310
0600000002000000000000006F738DC000000040FCCD4BC0000000C0121C53C0000000006F738DC0000000A06AE64DC0000000C08C5952C00C00000013000000520500003C00000006000000020000000000002048869040000000C067E64DC0000000408B5952C0000000204886904000000060F9CD4BC000000040111C53
310
C00C000000130000005A0500003C0000000600000002000000000000204886904000000060F9CD4BC000000040111C53C0000000006F738DC000000040FCCD4BC0000000C0121C53C00C00000013000000620500003C0000000600000002000000000000006F738DC0000000A0567049C0000000C086A253C0000000006F73
310
8DC000000040FCCD4BC0000000C0121C53C00C000000130000006A0500003C0000000600000002000000000000204886904000000060F9CD4BC000000040111C53C00000002048869040000000E0537049C00000004085A253C00C00000013000000720500003C00000006000000020000000000002048869040000000E053
310
7049C00000004085A253C0000000006F738DC0000000A0567049C0000000C086A253C00C000000130000007A0500003C0000000600000002000000000000006F738DC0000000A0567049C0000000C086A253C0000000E06E738DC000000000C12843C0000000C098EC54C00C00000013000000820500003C00000006000000
310
020000000000002048869040000000E0537049C00000004085A253C0000000204886904000000040BE2843C00000004097EC54C00C000000130000008A0500003C0000000600000002000000000000E06E738DC000000000C12843C0000000C098EC54C0000000204886904000000040BE2843C00000004097EC54C00C0000
310
0013000000920500003C0000000600000002000000000000006F738DC000000000000026BF000000C061435EC0000000E06E738DC000000000843A1DC0000000C008675BC00C000000130000009A0500003C0000000600000002000000000000E06E738DC000000000843A1DC0000000C008675BC000000020488690400000
310
00006D3A1DC00000004007675BC00C00000013000000A20500003C00000006000000020000000000002048869040000000C05A4630C000000040A1DA58C00000002048869040000000006D3A1DC00000004007675BC00C00000013000000AA0500003C0000000600000002000000000000E06E738DC000000000843A1DC000
310
0000C008675BC0000000E06E738DC000000080604630C0000000C0A2DA58C00C00000013000000B20500003C0000000600000002000000000000E06E738DC000000080604630C0000000C0A2DA58C00000002048869040000000C05A4630C000000040A1DA58C00C00000013000000BA0500003C0000000600000002000000
310
000000E06E738DC000000080604630C0000000C0A2DA58C0000000E06E738DC0000000C07FB13AC0000000C078AD56C00C00000013000000C20500003C0000000600000002000000000000E06E738DC0000000C07FB13AC0000000C078AD56C00000002048869040000000007AB13AC00000004077AD56C00C000000130000
310
00CA0500003C0000000600000002000000000000204886904000000040BE2843C00000004097EC54C00000002048869040000000007AB13AC00000004077AD56C00C00000013000000D20500003C0000000600000002000000000000E06E738DC0000000C07FB13AC0000000C078AD56C0000000E06E738DC000000000C128
310
43C0000000C098EC54C00C00000013000000DA0500003C00000006000000020000000000002048869040000000808C294CC000000040F5D73EC0000000204886904000000000008020BF0000006071E03CC00C00000013000000E20500003C00000006000000020000000000002048869040000000808C294CC000000040F5
310
D73EC0000000006F738DC0000000808F294CC000000040FFD73EC00C00000013000000EA0500003C0000000600000002000000000000006F738DC0000000808F294CC000000040FFD73EC0000000006F738DC000000000008020BF0000002077E03CC00C00000013000000F20500003C000000060000000200000000000000
310
6F738DC0000000808F294CC000000040FFD73EC0000000006F738DC0000000C058334DC00000004087313FC00C00000013000000FA0500003C00000006000000020000000000002048869040000000808C294CC000000040F5D73EC00000002048869040000000C055334DC00000004085313FC00C00000013000000020600
310
003C00000006000000020000000000002048869040000000C055334DC00000004085313FC0000000006F738DC0000000C058334DC00000004087313FC00C000000130000000A0600003C0000000600000002000000000000006F738DC000000020610145C000000000EECF2EC00000002048869040000000405E0145C00000
310
0080E2CF2EC00C00000013000000120600003C0000000600000002000000000000204886904000000000008020BF0000004081DF30C00000002048869040000000405E0145C000000080E2CF2EC00C000000130000001A0600003C0000000600000002000000000000006F738DC000000000008020BF0000000087DF30C000
310
0000006F738DC000000020610145C000000000EECF2EC00C00000013000000220600003C00000006000000020000000000002048869040000000405E0145C000000080E2CF2EC0000000204886904000000020754E45C000000080CA492EC00C000000130000002A0600003C0000000600000002000000000000006F738DC0
310
00000020610145C000000000EECF2EC0000000006F738DC000000000784E45C000000000CE492EC00C00000013000000320600003C0000000600000002000000000000006F738DC000000000784E45C000000000CE492EC0000000204886904000000020754E45C000000080CA492EC00C000000130000003A0600003C0000
310
000600000002000000000000006F738DC0000000403E284EC000000080570940C0000000006F738DC0000000C058334DC00000004087313FC00C00000013000000420600003C00000006000000020000000000002048869040000000C055334DC00000004085313FC00000002048869040000000403B284EC0000000A05409
310
40C00C000000130000004A0600003C00000006000000020000000000002048869040000000403B284EC0000000A0540940C0000000006F738DC0000000403E284EC000000080570940C00C00000013000000520600003C0000000600000002000000000000006F738DC00000004048F74EC000000080EBB540C0000000006F
310
738DC0000000403E284EC000000080570940C00C000000130000005A0600003C00000006000000020000000000002048869040000000403B284EC0000000A0540940C000000020488690400000008045F74EC0000000A0E8B540C00C00000013000000620600003C0000000600000002000000000000204886904000000080
310
067F3AC00000008072C721C0000000006F738DC0000000400C7F3AC0000000007EC721C00C000000130000006A0600003C000000060000000200000000000020488690400000008046EE42C00000008022D027C0000000204886904000000080067F3AC00000008072C721C00C00000013000000720600003C000000060000
310
000200000000000020488690400000008046EE42C00000008022D027C0000000006F738DC00000006049EE42C0000000002ED027C00C000000130000007A0600003C0000000600000002000000000000006F738DC00000006049EE42C0000000002ED027C0000000006F738DC0000000400C7F3AC0000000007EC721C00C00
310
000013000000820600003C0000000600000002000000000000006F738DC0000000004C2E45C000000000DEF72AC0000000006F738DC00000006049EE42C0000000002ED027C00C000000130000008A0600003C0000000600000002000000000000204886904000000020492E45C000000080D2F72AC0000000006F738DC000
310
0000004C2E45C000000000DEF72AC00C00000013000000920600003C0000000600000002000000000000006F738DC0000000004C2E45C000000000DEF72AC0000000006F738DC000000080906A45C0000000004EE22BC00C000000130000009A0600003C0000000600000002000000000000204886904000000020492E45C0
310
00000080D2F72AC00000002048869040000000A08D6A45C00000008042E22BC00C00000013000000A20600003C0000000600000002000000000000006F738DC000000080906A45C0000000004EE22BC00000002048869040000000A08D6A45C00000008042E22BC00C00000013000000AA0600003C00000006000000020000
310
00000000006F738DC0000000400C7F3AC0000000007EC721C0000000006F738DC0000000C0CFB839C0000000000EFC20C00C00000013000000B20600003C0000000600000002000000000000204886904000000000CAB839C0000000800AFC20C0000000006F738DC0000000C0CFB839C0000000000EFC20C00C0000001300
310
0000BA0600003C00000006000000020000000000002048869040000000C0D17A45C0000000802A2C2DC0000000204886904000000020754E45C000000080CA492EC00C00000013000000C20600003C0000000600000002000000000000006F738DC000000000784E45C000000000CE492EC0000000006F738DC0000000A0D4
310
7A45C0000000002E2C2DC00C00000013000000CA0600003C0000000600000002000000000000006F738DC0000000A0D47A45C0000000002E2C2DC00000002048869040000000C0D17A45C0000000802A2C2DC00C00000013000000D20600003C00000006000000020000000000002048869040000000A08D6A45C000000080
310
42E22BC00000002048869040000000C0D17A45C0000000802A2C2DC00C00000013000000DA0600003C0000000600000002000000000000006F738DC0000000A0D47A45C0000000002E2C2DC0000000006F738DC000000080906A45C0000000004EE22BC00C00000013000000E20600003C0000000600000002000000000000
310
006F738DC0000000C0CFB839C0000000000EFC20C0000000006F738DC000000040863039C000000080DB361FC00C00000013000000EA0600003C0000000600000002000000000000204886904000000080803039C000000080D5361FC0000000204886904000000000CAB839C0000000800AFC20C00C00000013000000F206
310
00003C00000006000000020000000000002048869040000000807E4641C00000000028BDEABF000000204886904000000080803039C000000080D5361FC00C00000013000000FA0600003C00000006000000020000000000002048869040000000403C2D4EC00000008033BC29C00000002048869040000000A08D6A45C000
310
00008042E22BC00C00000013000000020700003C00000006000000020000000000002048869040000000808C294CC000000040F5D73EC00000002048869040000000405E0145C000000080E2CF2EC00C000000130000000A0700003C00000006000000020000000000002048869040000000C055334DC00000004085313FC0
310
000000204886904000000020754E45C000000080CA492EC00C00000013000000120700003C00000006000000020000000000002048869040000000403C2D4EC00000008033BC29C00000002048869040000000C0D17A45C0000000802A2C2DC00C000000130000001A0700003C000000060000000200000000000020488690
310
40000000407BC850C0000000C091A533C00000002048869040000000403B284EC0000000A0540940C00C00000013000000220700003C00000006000000020000000000002048869040000000407BC850C0000000C091A533C000000020488690400000008045F74EC0000000A0E8B540C00C000000130000002A0700003C00
310
000006000000020000000000002048869040000000403B284EC0000000A0540940C00000002048869040000000C0D17A45C0000000802A2C2DC00C00000013000000320700003C00000006000000020000000000002048869040000000002C72F2BF00000040752936C00000002048869040000000405E0145C000000080E2
310
CF2EC00C000000130000003A0700003C0000000600000002000000000000204886904000000000B887E7BF00000040252F38C0000000204886904000000000008020BF0000006071E03CC00C00000013000000420700003C000000060000000200000000000020488690400000000024CDF4BF00000040F9DF36C000000020
310
48869040000000405E0145C000000080E2CF2EC00C000000130000004A0700003C00000006000000020000000000002048869040000000002C72F2BF000000407D9637C00000002048869040000000808C294CC000000040F5D73EC00C00000013000000520700003C00000006000000020000000000002048869040000000
310
0024CDF4BF00000040F9DF36C00000002048869040000000808C294CC000000040F5D73EC00C000000130000005A0700003C0000000600000002000000000000204886904000000080233E52C0000000403B2753C000000020488690400000002022A24FC000000040766351C00C00000013000000620700003C0000000600
310
000002000000000000204886904000000040ACF450C000000040A99454C00000002048869040000000C067E64DC0000000408B5952C00C000000130000006A0700003C00000006000000020000000000002048869040000000A0B7CC4EC00000004089B555C0000000204886904000000060F9CD4BC000000040111C53C00C
310
00000013000000720700003C00000006000000020000000000002048869040000000A056494BC000000080337D56C00000002048869040000000E0537049C00000004085A253C00C000000130000007A0700003C000000060000000200000000000020488690400000006054A845C00000004085A757C00000002048869040
310
00000040BE2843C00000004097EC54C00C00000013000000820700003C0000000600000002000000000000204886904000000000000016BF000000A0008061C0000000204886904000000000B887E7BF000000A0E5A960C00C000000130000008A0700003C0000000600000002000000000000204886904000000000150014
310
C0000000A0008061C000000020488690400000000024CDF4BF000000A0008060C00C00000013000000920700003C0000000600000002000000000000204886904000000000150014C0000000A0008061C00000002048869040000000002C72F2BF000000A0D09660C00C000000130000009A0700003C000000060000000200
310
0000000000006F738DC000000060814641C000000000E0BDEABF000000006F738DC0000000000B0039C000000000FCD01BC00C00000013000000A20700003C0000000600000002000000000000006F738DC0000000C0020054C00000008003804BC0000000006F738DC0000000C0020051C00000008003804BC00C00000013
310
000000AA0700003C0000000600000002000000000000006F738DC0000000C088CA53C00000008089B946C0000000006F738DC0000000E0DCDC50C0000000802B1348C00C00000013000000B20700003C0000000600000002000000000000006F738DC0000000E088CC53C000000080A9524FC0000000006F738DC0000000C0
310
58DD50C00000008009134EC00C00000013000000BA0700003C0000000600000002000000000000006F738DC000000080BA2B53C0000000A0311842C0000000006F738DC000000080537450C0000000A0C3BC44C00C00000013000000C20700003C0000000600000002000000000000006F738DC0000000806B2852C0000000
310
4007803BC0000000006F738DC0000000C01E924FC000000080899241C00C00000013000000CA0700003C0000000600000002000000000000006F738DC0000000006888E7BF00000000CF9035C0000000006F738DC000000000008020BF0000000087DF30C00C00000013000000D20700003C00000006000000020000000000
310
00006F738DC0000000A005404AC0000000009D791DC0000000006F738DC0000000004C2E45C000000000DEF72AC00C00000013000000DA0700003C0000000600000002000000000000006F738DC000000000D8E745C0000000003A890AC0000000006F738DC00000006049EE42C0000000002ED027C00C00000013000000E2
310
0700003C0000000600000002000000000000006F738DC000000060814641C000000000E0BDEABF000000006F738DC0000000400C7F3AC0000000007EC721C00C00000013000000EA0700003C0000000600000002000000000000006F738DC000000060814641C000000000E0BDEABF000000006F738DC0000000C0CFB839C0
310
000000000EFC20C00C00000013000000F20700003C0000000600000002000000000000006F738DC0000000A05A3453C0000000C03F7D51C0000000006F738DC000000020DF7650C0000000C09A4450C00C00000013000000FA0700003C0000000600000002000000000000E06E738DC000000000081C23C0000000605B1660
310
C0000000006F738DC000000000000026BF000000C061435EC00C00000013000000020800003C0000000600000002000000000000006F738DC000000080E0AE2FC0000000C0B5905DC0000000E06E738DC000000000843A1DC0000000C008675BC00C000000130000000A0800003C0000000600000002000000000000E06E73
310
8DC0000000006888E7BF000000601B5660C0000000006F738DC000000000000026BF000000C061435EC00C00000013000000120800003C0000000600000002000000000000E06E738DC000000000081C23C0000000605B1660C0000000206F738DC0000000008472F2BF000000E0306960C00C000000130000001A0800003C
310
0000000600000002000000000000006F738DC000000080B1B337C0000000C0D93C5BC0000000E06E738DC000000080604630C0000000C0A2DA58C00C00000013000000220800003C0000000600000002000000000000206F738DC0000000A0FF7740C0000000C02C4059C0000000E06E738DC0000000C07FB13AC0000000C0
310
78AD56C00C000000130000002A0800003C0000000600000002000000000000006F738DC000000060814641C000000000E0BDEABF000000006F738DC000000040863039C000000080DB361FC00C00000013000000320800003C0000000600000002000000000000006F738DC0000000003F2D4EC0000000803EBC29C0000000
310
006F738DC000000080906A45C0000000004EE22BC00C000000130000003A0800003C0000000600000002000000000000006F738DC0000000C058334DC00000004087313FC0000000006F738DC000000000784E45C000000000CE492EC00C00000013000000420800003C0000000600000002000000000000006F738DC00000
310
00808F294CC000000040FFD73EC0000000006F738DC000000020610145C000000000EECF2EC00C000000130000004A0800003C0000000600000002000000000000006F738DC0000000003F2D4EC0000000803EBC29C0000000006F738DC0000000A0D47A45C0000000002E2C2DC00C00000013000000520800003C00000006
310
00000002000000000000006F738DC0000000C07CC850C00000004097A533C0000000006F738DC00000004048F74EC000000080EBB540C00C000000130000005A0800003C0000000600000002000000000000006F738DC0000000C07CC850C00000004097A533C0000000006F738DC0000000403E284EC000000080570940C0
310
0C00000013000000620800003C0000000600000002000000000000006F738DC0000000403E284EC000000080570940C0000000006F738DC0000000A0D47A45C0000000002E2C2DC00C000000130000006A0800003C0000000600000002000000000000006F738DC0000000008472F2BF000000007F2936C0000000006F738D
310
C000000020610145C000000000EECF2EC00C00000013000000720800003C0000000600000002000000000000006F738DC0000000006888E7BF000000002F2F38C0000000006F738DC000000000008020BF0000002077E03CC00C000000130000007A0800003C0000000600000002000000000000006F738DC0000000007CCD
310
F4BF00000000FFDF36C0000000006F738DC000000020610145C000000000EECF2EC00C00000013000000820800003C0000000600000002000000000000006F738DC0000000008472F2BF000000007F9637C0000000006F738DC0000000808F294CC000000040FFD73EC00C000000130000008A0800003C0000000600000002
310
000000000000006F738DC0000000007CCDF4BF00000000FFDF36C0000000006F738DC0000000808F294CC000000040FFD73EC00C00000013000000920800003C0000000600000002000000000000006F738DC0000000E0243E52C0000000C03C2753C0000000006F738DC00000000025A24FC0000000C0776351C00C000000
310
130000009A0800003C0000000600000002000000000000006F738DC0000000C0ADF450C0000000C0A99454C0000000006F738DC0000000A06AE64DC0000000C08C5952C00C00000013000000A20800003C0000000600000002000000000000E06E738DC0000000A0BACC4EC0000000C08AB555C0000000006F738DC0000000
310
40FCCD4BC0000000C0121C53C00C00000013000000AA0800003C0000000600000002000000000000006F738DC0000000A059494BC0000000C0337D56C0000000006F738DC0000000A0567049C0000000C086A253C00C00000013000000B20800003C0000000600000002000000000000006F738DC00000004057A845C00000
310
00C085A757C0000000E06E738DC000000000C12843C0000000C098EC54C00C00000013000000BA0800003C0000000600000002000000000000006F738DC000000000000026BF000000E0008061C0000000206F738DC0000000006888E7BF000000E0E6A960C00C00000013000000C20800003C000000060000000200000000
310
0000006F738DC0000000002C0014C0000000E0008061C0000000E06E738DC0000000008472F2BF00000060D19660C00C00000013000000CA0800003C0000000600000002000000000000006F738DC0000000002C0014C0000000E0008061C0000000006F738DC0000000007CCDF4BF000000E0008060C0
100
AcDbSubDMesh
 71
     2
 72
     0
 91
        0
 92
      136
 10
1057.570434570312
 20
-25.00008010864258
 30
-0.0000190734863281
 10
-942.42919921875
 20
-25.00017166137695
 30
-0.0001068115234375
 10
-942.42919921875
 20
-34.55082321166992
 30
-0.8356781005859375
 10
-942.42919921875
 20
-43.811279296875
 30
-3.317005157470703
 10
-942.42919921875
 20
-52.50017166137695
 30
-7.368762969970703
 10
-942.42919921875
 20
-60.35348510742188
 30
-12.8676643371582
 10
-942.42919921875
 20
-67.13261413574219
 30
-19.6468391418457
 10
-942.42919921875
 20
-72.63156127929687
 30
-27.5001106262207
 10
-942.42919921875
 20
-76.68325805664062
 30
-36.18901443481445
 10
-942.42919921875
 20
-79.16459655761719
 30
-45.44950866699219
 10
-942.42919921875
 20
-80.00016784667968
 30
-55.00010681152343
 10
1057.570434570312
 20
-80.00008392333985
 30
-55.00001907348632
 10
1057.570434570312
 20
-79.16451263427735
 30
-45.44942092895507
 10
1057.570434570312
 20
-76.68317413330078
 30
-36.18892288208008
 10
1057.570434570312
 20
-72.63147735595703
 30
-27.50001907348633
 10
1057.570434570312
 20
-67.13252258300781
 30
-19.64675521850586
 10
1057.570434570312
 20
-60.35340118408203
 30
-12.86758041381836
 10
1057.570434570312
 20
-52.50008392333985
 30
-7.368679046630859
 10
1057.570434570312
 20
-43.81119155883789
 30
-3.316978454589843
 10
1057.570434570312
 20
-34.55073547363281
 30
-0.8355903625488281
 10
-942.42919921875
 20
-79.19585418701172
 30
-62.64579772949218
 10
-942.42919921875
 20
-76.81803131103515
 30
-69.95701599121094
 10
-942.42919921875
 20
-72.97100067138671
 30
-76.61308288574218
 10
-942.42919921875
 20
-67.82310485839843
 30
-82.32286071777343
 10
-942.4291381835937
 20
-61.59944534301757
 30
-86.83659362792969
 10
-942.42919921875
 20
-54.57304763793946
 30
-89.95628356933593
 10
1057.570434570312
 20
-54.57295608520507
 30
-89.95626831054687
 10
1057.570434570312
 20
-61.5993537902832
 30
-86.83650207519532
 10
1057.570434570312
 20
-67.82301330566406
 30
-82.32283020019531
 10
1057.570434570312
 20
-72.97091674804687
 30
-76.61299133300781
 10
1057.570434570312
 20
-76.81794738769531
 30
-69.95692443847656
 10
1057.570434570312
 20
-79.19577026367187
 30
-62.64570999145508
 10
1057.570434570312
 20
-5.000080108642578
 30
-140.0000762939453
 10
1057.570434570312
 20
-9.55466079711914
 30
-128.6985626220703
 10
1057.570434570312
 20
-15.84146499633789
 30
-118.2610626220703
 10
1057.570434570312
 20
-23.70183944702148
 30
-108.9507598876953
 10
1057.570434570312
 20
-32.9374008178711
 30
-101.0026397705078
 10
1057.570434570312
 20
-43.31507492065429
 30
-94.61750793457031
 10
-942.42919921875
 20
-43.3151626586914
 30
-94.61753845214843
 10
-942.4292602539063
 20
-32.9374885559082
 30
-101.0027313232422
 10
-942.42919921875
 20
-23.70192718505859
 30
-108.9507904052734
 10
-942.42919921875
 20
-15.84155654907226
 30
-118.2610931396484
 10
-942.4291381835937
 20
-9.55474853515625
 30
-128.6986541748047
 10
-942.42919921875
 20
-5.000167846679687
 30
-140.0001068115234
 10
-942.42919921875
 20
-0.0001678466796875
 30
-140.0001068115234
 10
1057.570434570312
 20
-0.0000839233398438
 30
-140.0000762939453
 10
1057.570434570312
 20
-25.00008010864258
 30
-6.954059600830078
 10
-942.42919921875
 20
-25.00016784667969
 30
-6.954086303710937
 10
1057.570434570312
 20
-0.0000839233398438
 30
-133.7335968017578
 10
-942.42919921875
 20
-0.0001678466796875
 30
-133.7336883544922
 10
1057.570434570312
 20
-0.0000839233398438
 30
-130.2665557861328
 10
-942.42919921875
 20
-0.0001678466796875
 30
-130.2665863037109
 10
1057.570434570312
 20
-0.7353172302246094
 30
-130.6907501220703
 10
1057.570434570312
 20
-1.152873992919921
 30
-131.2870635986328
 10
1057.570434570312
 20
-1.30008316040039
 30
-132.0000762939453
 10
1057.570434570312
 20
-1.152873992919921
 30
-132.7129669189453
 10
1057.570434570312
 20
-0.7353172302246094
 30
-133.3092803955078
 10
-942.4292602539063
 20
-0.7354011535644532
 30
-133.3094329833984
 10
-942.4291381835937
 20
-1.152957916259765
 30
-132.7130584716797
 10
-942.42919921875
 20
-1.300167083740234
 30
-132.0001068115234
 10
-942.4292602539063
 20
-1.152957916259765
 30
-131.2872161865234
 10
-942.4291381835937
 20
-0.7354011535644532
 30
-130.6908416748047
 10
1057.570434570312
 20
-0.7353172302246094
 30
-21.56563186645508
 10
1057.570434570312
 20
-1.152873992919921
 30
-22.16194534301758
 10
1057.570434570312
 20
-1.30008316040039
 30
-22.87489700317383
 10
1057.570434570312
 20
-1.152873992919921
 30
-23.58784866333008
 10
1057.570434570312
 20
-0.7353172302246094
 30
-24.18416213989258
 10
-942.42919921875
 20
-0.0001258850097656
 30
-24.60850524902344
 10
-942.42919921875
 20
-0.7354011535644532
 30
-24.18431091308594
 10
-942.42919921875
 20
-1.152957916259765
 30
-23.58787536621094
 10
-942.42919921875
 20
-1.300167083740234
 30
-22.87498474121094
 10
-942.42919921875
 20
-1.152957916259765
 30
-22.16209411621094
 10
-942.42919921875
 20
-0.7354011535644532
 30
-21.56565856933594
 10
1057.570434570312
 20
-0.0001258850097656
 30
-24.60841751098633
 10
1057.570434570312
 20
-0.0001258850097656
 30
-21.14137649536133
 10
-942.42919921875
 20
-0.0001258850097656
 30
-21.14146423339844
 10
1057.570434570312
 20
-63.1414794921875
 30
-35.14473342895508
 10
1057.570434570312
 20
-65.8175048828125
 30
-41.47462844848632
 10
1057.570434570312
 20
-67.45089721679687
 30
-48.14967727661133
 10
1057.570434570312
 20
-68.00007629394531
 30
-55.00001907348632
 10
-942.42919921875
 20
-68.00016784667969
 30
-55.00010681152343
 10
-942.42919921875
 20
-67.45098114013671
 30
-48.14976501464844
 10
-942.42919921875
 20
-65.81759643554687
 30
-41.4747200012207
 10
-942.42919921875
 20
-63.14156341552735
 30
-35.14482116699219
 10
1057.570434570312
 20
-67.45845031738281
 30
-60.14863967895507
 10
1057.570434570312
 20
-65.85728454589844
 30
-65.07185363769531
 10
1057.570434570312
 20
-63.26666641235352
 30
-69.55409240722656
 10
1057.570434570312
 20
-59.80004119873047
 30
-73.39912414550781
 10
1057.570434570312
 20
-55.60917282104492
 30
-76.43855285644531
 10
1057.570434570312
 20
-50.87755966186524
 30
-78.53938293457031
 10
-942.42919921875
 20
-50.87764358520508
 30
-78.53947448730469
 10
-942.42919921875
 20
-55.60926055908203
 30
-76.43864440917969
 10
-942.42919921875
 20
-59.80012893676757
 30
-73.39921569824219
 10
-942.42919921875
 20
-63.26675415039062
 30
-69.55418395996094
 10
-942.42919921875
 20
-65.85736846923828
 30
-65.07194519042968
 10
-942.42919921875
 20
-67.45854187011719
 30
-60.14872741699218
 10
1057.570434570312
 20
-0.0000839233398438
 30
-121.0528106689453
 10
-942.42919921875
 20
-0.0001678466796875
 30
-121.0528411865234
 10
-942.4291381835937
 20
-7.307144165039062
 30
-109.6099090576172
 10
-942.4291381835937
 20
-16.27490997314453
 30
-99.41618347167969
 10
-942.4291381835937
 20
-26.69335556030274
 30
-90.71049499511719
 10
-942.4291381835937
 20
-38.31838989257813
 30
-83.69682312011718
 10
1057.570434570312
 20
-38.31830596923828
 30
-83.69673156738281
 10
1057.570434570312
 20
-26.69326782226562
 30
-90.71040344238282
 10
1057.570434570312
 20
-16.27482223510742
 30
-99.41609191894531
 10
1057.570434570312
 20
-7.307056427001953
 30
-109.6098175048828
 10
1057.570434570312
 20
-56.32460021972656
 30
-30.84358596801758
 10
-942.42919921875
 20
-56.32469177246093
 30
-30.84373855590821
 10
-942.42919921875
 20
-0.0001258850097656
 30
-28.87681770324707
 10
1057.570434570312
 20
-0.0001258850097656
 30
-28.87672996520996
 10
1057.570434570312
 20
-0.0001258850097656
 30
-16.87306594848633
 10
-942.42919921875
 20
-0.0001258850097656
 30
-16.87315368652344
 10
-942.42919921875
 20
-42.01077651977539
 30
-15.40611267089843
 10
1057.570434570312
 20
-42.01068878173828
 30
-15.40602493286133
 10
1057.570434570312
 20
-58.40105438232422
 30
-31.19343948364258
 10
1057.570434570312
 20
-60.31430816650391
 30
-32.07289505004883
 10
1057.570434570312
 20
-61.93180847167969
 30
-33.42116165161133
 10
-942.42919921875
 20
-61.93189239501953
 30
-33.42124938964844
 10
-942.42919921875
 20
-60.31439971923828
 30
-32.07298278808594
 10
-942.42919921875
 20
-58.40114593505859
 30
-31.19347000122071
 10
1057.570434570312
 20
-37.86152648925781
 30
-11.90651321411133
 10
1057.570434570312
 20
-42.36160659790039
 30
-13.48402786254883
 10
-942.42919921875
 20
-42.3616943359375
 30
-13.48411560058593
 10
-942.42919921875
 20
-37.86161422729492
 30
-11.90660095214844
 10
1057.570434570312
 20
-26.49619293212891
 30
-8.889545440673828
 10
-942.42919921875
 20
-26.49628067016602
 30
-8.889633178710937
 10
-942.42919921875
 20
-42.61303710937499
 30
-15.14414978027344
 10
-942.42919921875
 20
-42.95961380004882
 30
-14.58628845214844
 10
-942.42919921875
 20
-42.83253479003906
 30
-13.94200134277344
 10
1057.570434570312
 20
-42.83244705200195
 30
-13.94191360473633
 10
1057.570434570312
 20
-42.95952606201171
 30
-14.58626174926758
 10
1057.570434570312
 20
-42.61294937133789
 30
-15.14412307739258
 10
1057.570434570312
 20
-25.18946075439453
 30
-7.80354881286621
 10
1057.570434570312
 20
-25.72183227539063
 30
-8.492267608642578
 10
-942.42919921875
 20
-25.72192001342774
 30
-8.492294311523437
 10
-942.42919921875
 20
-25.18954849243164
 30
-7.803571701049804
 93
      712
 90
        4
 90
       19
 90
        0
 90
        1
 90
        2
 90
        4
 90
       46
 90
       47
 90
        1
 90
        0
 90
        3
 90
       46
 90
        0
 90
       19
 90
        4
 90
       18
 90
       19
 90
        2
 90
        3
 90
        4
 90
       17
 90
       18
 90
        3
 90
        4
 90
        4
 90
       16
 90
       17
 90
        4
 90
        5
 90
        4
 90
       15
 90
       16
 90
        5
 90
        6
 90
        4
 90
       14
 90
       15
 90
        6
 90
        7
 90
        4
 90
       13
 90
       14
 90
        7
 90
        8
 90
        4
 90
       12
 90
       13
 90
        8
 90
        9
 90
        4
 90
       11
 90
       12
 90
        9
 90
       10
 90
        4
 90
       31
 90
       11
 90
       10
 90
       20
 90
        4
 90
       79
 90
       78
 90
       12
 90
       11
 90
        4
 90
       84
 90
       79
 90
       11
 90
       31
 90
        4
 90
       77
 90
       13
 90
       12
 90
       78
 90
        4
 90
       76
 90
       14
 90
       13
 90
       77
 90
        3
 90
       62
 90
       74
 90
      110
 90
        4
 90
      120
 90
       18
 90
       17
 90
      121
 90
        3
 90
      124
 90
      133
 90
       19
 90
        4
 90
       30
 90
       31
 90
       20
 90
       21
 90
        4
 90
       29
 90
       30
 90
       21
 90
       22
 90
        4
 90
       28
 90
       29
 90
       22
 90
       23
 90
        4
 90
       27
 90
       28
 90
       23
 90
       24
 90
        4
 90
       26
 90
       27
 90
       24
 90
       25
 90
        4
 90
       37
 90
       26
 90
       25
 90
       38
 90
        4
 90
       85
 90
       84
 90
       31
 90
       30
 90
        4
 90
       42
 90
       43
 90
       32
 90
       33
 90
        4
 90
       44
 90
       45
 90
       32
 90
       43
 90
        4
 90
       41
 90
       42
 90
       33
 90
       34
 90
        4
 90
       96
 90
      105
 90
       34
 90
       33
 90
        4
 90
       96
 90
       33
 90
       53
 90
       52
 90
        4
 90
       40
 90
       41
 90
       34
 90
       35
 90
        4
 90
       39
 90
       40
 90
       35
 90
       36
 90
        4
 90
       38
 90
       39
 90
       36
 90
       37
 90
        4
 90
      104
 90
      103
 90
       36
 90
       35
 90
        4
 90
       49
 90
       48
 90
       45
 90
       44
 90
        4
 90
      135
 90
       47
 90
       46
 90
      132
 90
        4
 90
       56
 90
       48
 90
       49
 90
       57
 90
        4
 90
       97
 90
       96
 90
       50
 90
       51
 90
        4
 90
       61
 90
       51
 90
       50
 90
       52
 90
        4
 90
       60
 90
       61
 90
       52
 90
       53
 90
        4
 90
       59
 90
       60
 90
       53
 90
       54
 90
        4
 90
       58
 90
       59
 90
       54
 90
       55
 90
        4
 90
       57
 90
       58
 90
       55
 90
       56
 90
        4
 90
       72
 90
       75
 90
       74
 90
       62
 90
        4
 90
       71
 90
       72
 90
       62
 90
       63
 90
        4
 90
       70
 90
       71
 90
       63
 90
       64
 90
        4
 90
       69
 90
       70
 90
       64
 90
       65
 90
        4
 90
       68
 90
       69
 90
       65
 90
       66
 90
        4
 90
       67
 90
       68
 90
       66
 90
       73
 90
        4
 90
      109
 90
      108
 90
       67
 90
       73
 90
        4
 90
      111
 90
      110
 90
       74
 90
       75
 90
        4
 90
       82
 90
       83
 90
       76
 90
       77
 90
        4
 90
      116
 90
       76
 90
       83
 90
      117
 90
        4
 90
       81
 90
       82
 90
       77
 90
       78
 90
        4
 90
       80
 90
       81
 90
       78
 90
       79
 90
        4
 90
       95
 90
       80
 90
       79
 90
       84
 90
        4
 90
       94
 90
       95
 90
       84
 90
       85
 90
        4
 90
       93
 90
       94
 90
       85
 90
       86
 90
        4
 90
       92
 90
       93
 90
       86
 90
       87
 90
        4
 90
       91
 90
       92
 90
       87
 90
       88
 90
        4
 90
       90
 90
       91
 90
       88
 90
       89
 90
        4
 90
      101
 90
       90
 90
       89
 90
      102
 90
        4
 90
      105
 90
       96
 90
       97
 90
       98
 90
        4
 90
      104
 90
      105
 90
       98
 90
       99
 90
        4
 90
      103
 90
      104
 90
       99
 90
      100
 90
        4
 90
      102
 90
      103
 90
      100
 90
      101
 90
        4
 90
      108
 90
      109
 90
      106
 90
      107
 90
        4
 90
      119
 90
      107
 90
      106
 90
      114
 90
        4
 90
      112
 90
      113
 90
      110
 90
      111
 90
        4
 90
      131
 90
      113
 90
      112
 90
      126
 90
        4
 90
      118
 90
      119
 90
      114
 90
      115
 90
        4
 90
      117
 90
      118
 90
      115
 90
      116
 90
        4
 90
      125
 90
      124
 90
      120
 90
      123
 90
        4
 90
      122
 90
      123
 90
      120
 90
      121
 90
        4
 90
      128
 90
      122
 90
      121
 90
      129
 90
        4
 90
      133
 90
      124
 90
      125
 90
      134
 90
        4
 90
      130
 90
      131
 90
      126
 90
      127
 90
        4
 90
      129
 90
      130
 90
      127
 90
      128
 90
        4
 90
      134
 90
      135
 90
      132
 90
      133
 90
        3
 90
       19
 90
      132
 90
       46
 90
        4
 90
      121
 90
       17
 90
       16
 90
      129
 90
        3
 90
       19
 90
      133
 90
      132
 90
        4
 90
      124
 90
       19
 90
       18
 90
      120
 90
        4
 90
      106
 90
      113
 90
      131
 90
      114
 90
        3
 90
       16
 90
      130
 90
      129
 90
        3
 90
      115
 90
       15
 90
      116
 90
        4
 90
      114
 90
      131
 90
      130
 90
      115
 90
        4
 90
       62
 90
      110
 90
      113
 90
       63
 90
        3
 90
       66
 90
      109
 90
       73
 90
        3
 90
       63
 90
      113
 90
       64
 90
        4
 90
       65
 90
      106
 90
      109
 90
       66
 90
        3
 90
       64
 90
      106
 90
       65
 90
        3
 90
       64
 90
      113
 90
      106
 90
        4
 90
      115
 90
      130
 90
       16
 90
       15
 90
        4
 90
      116
 90
       15
 90
       14
 90
       76
 90
        4
 90
       85
 90
       30
 90
       29
 90
       86
 90
        4
 90
       86
 90
       29
 90
       28
 90
       87
 90
        4
 90
       87
 90
       28
 90
       27
 90
       88
 90
        4
 90
       26
 90
       89
 90
       88
 90
       27
 90
        4
 90
       37
 90
      102
 90
       89
 90
       26
 90
        4
 90
       36
 90
      103
 90
      102
 90
       37
 90
        4
 90
      104
 90
       35
 90
       34
 90
      105
 90
        3
 90
       96
 90
       52
 90
       50
 90
        3
 90
       56
 90
       45
 90
       48
 90
        3
 90
       54
 90
       32
 90
       55
 90
        4
 90
       55
 90
       32
 90
       45
 90
       56
 90
        4
 90
       53
 90
       33
 90
       32
 90
       54
 90
        3
 90
       47
 90
        2
 90
        1
 90
        4
 90
       80
 90
       10
 90
        9
 90
       81
 90
        4
 90
       95
 90
       20
 90
       10
 90
       80
 90
        4
 90
       82
 90
       81
 90
        9
 90
        8
 90
        4
 90
       83
 90
       82
 90
        8
 90
        7
 90
        3
 90
       72
 90
      111
 90
       75
 90
        4
 90
      123
 90
      122
 90
        4
 90
        3
 90
        3
 90
      125
 90
        2
 90
      134
 90
        4
 90
       94
 90
       21
 90
       20
 90
       95
 90
        4
 90
       97
 90
       42
 90
       41
 90
       98
 90
        4
 90
       97
 90
       61
 90
       60
 90
       42
 90
        4
 90
       99
 90
       40
 90
       39
 90
      100
 90
        3
 90
        2
 90
       47
 90
      135
 90
        4
 90
      122
 90
      128
 90
        5
 90
        4
 90
        3
 90
        2
 90
      135
 90
      134
 90
        4
 90
      125
 90
      123
 90
        3
 90
        2
 90
        4
 90
      107
 90
      119
 90
      126
 90
      112
 90
        3
 90
        5
 90
      128
 90
      127
 90
        3
 90
      118
 90
      117
 90
        6
 90
        4
 90
      119
 90
      118
 90
      127
 90
      126
 90
        4
 90
       72
 90
       71
 90
      112
 90
      111
 90
        3
 90
       68
 90
       67
 90
      108
 90
        3
 90
       71
 90
       70
 90
      112
 90
        4
 90
       69
 90
       68
 90
      108
 90
      107
 90
        3
 90
       70
 90
       69
 90
      107
 90
        3
 90
       70
 90
      107
 90
      112
 90
        4
 90
      118
 90
        6
 90
        5
 90
      127
 90
        4
 90
      117
 90
       83
 90
        7
 90
        6
 90
        4
 90
       94
 90
       93
 90
       22
 90
       21
 90
        4
 90
       93
 90
       92
 90
       23
 90
       22
 90
        4
 90
       92
 90
       91
 90
       24
 90
       23
 90
        4
 90
       25
 90
       24
 90
       91
 90
       90
 90
        4
 90
       38
 90
       25
 90
       90
 90
      101
 90
        4
 90
       39
 90
       38
 90
      101
 90
      100
 90
        4
 90
       99
 90
       98
 90
       41
 90
       40
 90
        3
 90
       97
 90
       51
 90
       61
 90
        3
 90
       57
 90
       49
 90
       44
 90
        3
 90
       59
 90
       58
 90
       43
 90
        4
 90
       58
 90
       57
 90
       44
 90
       43
 90
        4
 90
       60
 90
       59
 90
       43
 90
       42
 94
      282
 90
        0
 90
       19
 90
        0
 90
        1
 90
        1
 90
        2
 90
        2
 90
       19
 90
       46
 90
       47
 90
        1
 90
       47
 90
        0
 90
       46
 90
       19
 90
       46
 90
       18
 90
       19
 90
        2
 90
        3
 90
        3
 90
       18
 90
       17
 90
       18
 90
        3
 90
        4
 90
        4
 90
       17
 90
       16
 90
       17
 90
        4
 90
        5
 90
        5
 90
       16
 90
       15
 90
       16
 90
        5
 90
        6
 90
        6
 90
       15
 90
       14
 90
       15
 90
        6
 90
        7
 90
        7
 90
       14
 90
       13
 90
       14
 90
        7
 90
        8
 90
        8
 90
       13
 90
       12
 90
       13
 90
        8
 90
        9
 90
        9
 90
       12
 90
       11
 90
       12
 90
        9
 90
       10
 90
       10
 90
       11
 90
       11
 90
       31
 90
       10
 90
       20
 90
       20
 90
       31
 90
       78
 90
       79
 90
       12
 90
       78
 90
       11
 90
       79
 90
       79
 90
       84
 90
       31
 90
       84
 90
       13
 90
       77
 90
       77
 90
       78
 90
       14
 90
       76
 90
       76
 90
       77
 90
       62
 90
       74
 90
       74
 90
      110
 90
       62
 90
      110
 90
       18
 90
      120
 90
       17
 90
      121
 90
      120
 90
      121
 90
      124
 90
      133
 90
       19
 90
      133
 90
       19
 90
      124
 90
       30
 90
       31
 90
       20
 90
       21
 90
       21
 90
       30
 90
       29
 90
       30
 90
       21
 90
       22
 90
       22
 90
       29
 90
       28
 90
       29
 90
       22
 90
       23
 90
       23
 90
       28
 90
       27
 90
       28
 90
       23
 90
       24
 90
       24
 90
       27
 90
       26
 90
       27
 90
       24
 90
       25
 90
       25
 90
       26
 90
       26
 90
       37
 90
       25
 90
       38
 90
       37
 90
       38
 90
       84
 90
       85
 90
       30
 90
       85
 90
       42
 90
       43
 90
       32
 90
       43
 90
       32
 90
       33
 90
       33
 90
       42
 90
       44
 90
       45
 90
       32
 90
       45
 90
       43
 90
       44
 90
       41
 90
       42
 90
       33
 90
       34
 90
       34
 90
       41
 90
       96
 90
      105
 90
       34
 90
      105
 90
       33
 90
       96
 90
       33
 90
       53
 90
       52
 90
       53
 90
       52
 90
       96
 90
       40
 90
       41
 90
       34
 90
       35
 90
       35
 90
       40
 90
       39
 90
       40
 90
       35
 90
       36
 90
       36
 90
       39
 90
       38
 90
       39
 90
       36
 90
       37
 90
      103
 90
      104
 90
       36
 90
      103
 90
       35
 90
      104
 90
       48
 90
       49
 90
       45
 90
       48
 90
       44
 90
       49
 90
       47
 90
      135
 90
       46
 90
      132
 90
      132
 90
      135
 90
       48
 90
       56
 90
       49
 90
       57
 90
       56
 90
       57
 90
       96
 90
       97
 90
       50
 90
       96
 90
       50
 90
       51
 90
       51
 90
       97
 90
       51
 90
       61
 90
       50
 90
       52
 90
       52
 90
       61
 90
       60
 90
       61
 90
       53
 90
       60
 90
       59
 90
       60
 90
       53
 90
       54
 90
       54
 90
       59
 90
       58
 90
       59
 90
       54
 90
       55
 90
       55
 90
       58
 90
       57
 90
       58
 90
       55
 90
       56
 90
       72
 90
       75
 90
       74
 90
       75
 90
       62
 90
       72
 90
       71
 90
       72
 90
       62
 90
       63
 90
       63
 90
       71
 90
       70
 90
       71
 90
       63
 90
       64
 90
       64
 90
       70
 90
       69
 90
       70
 90
       64
 90
       65
 90
       65
 90
       69
 90
       68
 90
       69
 90
       65
 90
       66
 90
       66
 90
       68
 90
       67
 90
       68
 90
       66
 90
       73
 90
       67
 90
       73
 90
      108
 90
      109
 90
       67
 90
      108
 90
       73
 90
      109
 90
      110
 90
      111
 90
       75
 90
      111
 90
       82
 90
       83
 90
       76
 90
       83
 90
       77
 90
       82
 90
       76
 90
      116
 90
       83
 90
      117
 90
      116
 90
      117
 90
       81
 90
       82
 90
       78
 90
       81
 90
       80
 90
       81
 90
       79
 90
       80
 90
       80
 90
       95
 90
       84
 90
       95
 90
       94
 90
       95
 90
       85
 90
       94
 90
       93
 90
       94
 90
       85
 90
       86
 90
       86
 90
       93
 90
       92
 90
       93
 90
       86
 90
       87
 90
       87
 90
       92
 90
       91
 90
       92
 90
       87
 90
       88
 90
       88
 90
       91
 90
       90
 90
       91
 90
       88
 90
       89
 90
       89
 90
       90
 90
       90
 90
      101
 90
       89
 90
      102
 90
      101
 90
      102
 90
       97
 90
       98
 90
       98
 90
      105
 90
      104
 90
      105
 90
       98
 90
       99
 90
       99
 90
      104
 90
       99
 90
      100
 90
      100
 90
      103
 90
      102
 90
      103
 90
      100
 90
      101
 90
      106
 90
      109
 90
      106
 90
      107
 90
      107
 90
      108
 90
      107
 90
      119
 90
      106
 90
      114
 90
      114
 90
      119
 90
      112
 90
      113
 90
      110
 90
      113
 90
      111
 90
      112
 90
      113
 90
      131
 90
      112
 90
      126
 90
      126
 90
      131
 90
      118
 90
      119
 90
      114
 90
      115
 90
      115
 90
      118
 90
      117
 90
      118
 90
      115
 90
      116
 90
      124
 90
      125
 90
      120
 90
      124
 90
      120
 90
      123
 90
      123
 90
      125
 90
      122
 90
      123
 90
      121
 90
      122
 90
      122
 90
      128
 90
      121
 90
      129
 90
      128
 90
      129
 90
      125
 90
      134
 90
      133
 90
      134
 90
      130
 90
      131
 90
      126
 90
      127
 90
      127
 90
      130
 90
      129
 90
      130
 90
      127
 90
      128
 90
      134
 90
      135
 90
      132
 90
      133
 90
       19
 90
      132
 90
       16
 90
      129
 90
      106
 90
      113
 90
      114
 90
      131
 90
       16
 90
      130
 90
       15
 90
      115
 90
       15
 90
      116
 90
      115
 90
      130
 90
       63
 90
      113
 90
       66
 90
      109
 90
       64
 90
      113
 90
       65
 90
      106
 90
       64
 90
      106
 90
       29
 90
       86
 90
       28
 90
       87
 90
       27
 90
       88
 90
       26
 90
       89
 90
       37
 90
      102
 90
       45
 90
       56
 90
       32
 90
       54
 90
       32
 90
       55
 90
        2
 90
       47
 90
       10
 90
       80
 90
        9
 90
       81
 90
       20
 90
       95
 90
        8
 90
       82
 90
        7
 90
       83
 90
       72
 90
      111
 90
        4
 90
      122
 90
        3
 90
      123
 90
        2
 90
      125
 90
        2
 90
      134
 90
       21
 90
       94
 90
       42
 90
       97
 90
       41
 90
       98
 90
       61
 90
       97
 90
       42
 90
       60
 90
       40
 90
       99
 90
       39
 90
      100
 90
        2
 90
      135
 90
        5
 90
      128
 90
      119
 90
      126
 90
      107
 90
      112
 90
        5
 90
      127
 90
        6
 90
      117
 90
        6
 90
      118
 90
      118
 90
      127
 90
       71
 90
      112
 90
       68
 90
      108
 90
       70
 90
      112
 90
       69
 90
      107
 90
       70
 90
      107
 90
       22
 90
       93
 90
       23
 90
       92
 90
       24
 90
       91
 90
       25
 90
       90
 90
       38
 90
      101
 90
       44
 90
       57
 90
       43
 90
       58
 90
       43
 90
       59
 95
      282
140
0.0
140
0.0
140
0.0
140
0.0
140
0.0
140
0.0
140
0.0
140
0.0
140
0.0
140
0.0
140
0.0
140
0.0
140
0.0
140
0.0
140
0.0
140
0.0
140
0.0
140
0.0
140
0.0
140
0.0
140
0.0
140
0.0
140
0.0
140
0.0
140
0.0
140
0.0
140
0.0
140
0.0
140
0.0
140
0.0
140
0.0
140
0.0
140
0.0
140
0.0
140
0.0
140
0.0
140
0.0
140
0.0
140
0.0
140
0.0
140
0.0
140
0.0
140
0.0
140
0.0
140
0.0
140
0.0
140
0.0
140
0.0
140
0.0
140
0.0
140
0.0
140
0.0
140
0.0
140
0.0
140
0.0
140
0.0
140
0.0
140
0.0
140
0.0
140
0.0
140
0.0
140
0.0
140
0.0
140
0.0
140
0.0
140
0.0
140
0.0
140
0.0
140
0.0
140
0.0
140
0.0
140
0.0
140
0.0
140
0.0
140
0.0
140
0.0
140
0.0
140
0.0
140
0.0
140
0.0
140
0.0
140
0.0
140
0.0
140
0.0
140
0.0
140
0.0
140
0.0
140
0.0
140
0.0
140
0.0
140
0.0
140
0.0
140
0.0
140
0.0
140
0.0
140
0.0
140
0.0
140
0.0
140
0.0
140
0.0
140
0.0
140
0.0
140
0.0
140
0.0
140
0.0
140
0.0
140
0.0
140
0.0
140
0.0
140
0.0
140
0.0
140
0.0
140
0.0
140
0.0
140
0.0
140
0.0
140
0.0
140
0.0
140
0.0
140
0.0
140
0.0
140
0.0
140
0.0
140
0.0
140
0.0
140
0.0
140
0.0
140
0.0
140
0.0
140
0.0
140
0.0
140
0.0
140
0.0
140
0.0
140
0.0
140
0.0
140
0.0
140
0.0
140
0.0
140
0.0
140
0.0
140
0.0
140
0.0
140
0.0
140
0.0
140
0.0
140
0.0
140
0.0
140
0.0
140
0.0
140
0.0
140
0.0
140
0.0
140
0.0
140
0.0
140
0.0
140
0.0
140
0.0
140
0.0
140
0.0
140
0.0
140
0.0
140
0.0
140
0.0
140
0.0
140
0.0
140
0.0
140
0.0
140
0.0
140
0.0
140
0.0
140
0.0
140
0.0
140
0.0
140
0.0
140
0.0
140
0.0
140
0.0
140
0.0
140
0.0
140
0.0
140
0.0
140
0.0
140
0.0
140
0.0
140
0.0
140
0.0
140
0.0
140
0.0
140
0.0
140
0.0
140
0.0
140
0.0
140
0.0
140
0.0
140
0.0
140
0.0
140
0.0
140
0.0
140
0.0
140
0.0
140
0.0
140
0.0
140
0.0
140
0.0
140
0.0
140
0.0
140
0.0
140
0.0
140
0.0
140
0.0
140
0.0
140
0.0
140
0.0
140
0.0
140
0.0
140
0.0
140
0.0
140
0.0
140
0.0
140
0.0
140
0.0
140
0.0
140
0.0
140
0.0
140
0.0
140
0.0
140
0.0
140
0.0
140
0.0
140
0.0
140
0.0
140
0.0
140
0.0
140
0.0
140
0.0
140
0.0
140
0.0
140
0.0
140
0.0
140
0.0
140
0.0
140
0.0
140
0.0
140
0.0
140
0.0
140
0.0
140
0.0
140
0.0
140
0.0
140
0.0
140
0.0
140
0.0
140
0.0
140
0.0
140
0.0
140
0.0
140
0.0
140
0.0
140
0.0
140
0.0
140
0.0
140
0.0
140
0.0
140
0.0
140
0.0
140
0.0
140
0.0
140
0.0
140
0.0
140
0.0
140
0.0
140
0.0
140
0.0
140
0.0
140
0.0
140
0.0
140
0.0
140
0.0
140
0.0
140
0.0
140
0.0
 90
        0
  0
POLYLINE
  5
FA
330
1F
100
AcDbEntity
  8
OracDecor_indirect_lighting
 62
    54
420
  9744667
100
AcDb2dPolyline
 66
     1
 10
0.0
 20
0.0
 30
0.0000017422520386
 70
     1
210
-0.9999999999999769
220
0.0000001788139343
230
-0.0000001192092896
  0
VERTEX
  5
FB
330
FA
100
AcDbEntity
  8
OracDecor_indirect_lighting
 62
    54
420
  9744667
100
AcDbVertex
100
AcDb2dVertex
 10
-0.0001685549941612
 20
-16.87315368652344
 30
0.0000017422520386
  0
VERTEX
  5
FC
330
FA
100
AcDbEntity
  8
OracDecor_indirect_lighting
 62
    54
420
  9744667
100
AcDbVertex
100
AcDb2dVertex
 10
-42.01081848144531
 20
-15.40611171722412
 30
0.0000017422520386
  0
VERTEX
  5
FD
330
FA
100
AcDbEntity
  8
OracDecor_indirect_lighting
 62
    54
420
  9744667
100
AcDbVertex
100
AcDb2dVertex
 10
-42.16098403930664
 20
-15.36038970947265
 30
0.0000017422520386
  0
VERTEX
  5
FE
330
FA
100
AcDbEntity
  8
OracDecor_indirect_lighting
 62
    54
420
  9744667
100
AcDbVertex
100
AcDb2dVertex
 10
-42.29612731933594
 20
-15.30979633331299
 30
0.0000017422520386
  0
VERTEX
  5
FF
330
FA
100
AcDbEntity
  8
OracDecor_indirect_lighting
 62
    54
420
  9744667
100
AcDbVertex
100
AcDb2dVertex
 10
-42.35824966430664
 20
-15.28279972076416
 30
0.0000017422520386
  0
VERTEX
  5
100
330
FA
100
AcDbEntity
  8
OracDecor_indirect_lighting
 62
    54
420
  9744667
100
AcDbVertex
100
AcDb2dVertex
 10
-42.41685104370117
 20
-15.25473022460937
 30
0.0000017422520386
  0
VERTEX
  5
101
330
FA
100
AcDbEntity
  8
OracDecor_indirect_lighting
 62
    54
420
  9744667
100
AcDbVertex
100
AcDb2dVertex
 10
-42.47198867797851
 20
-15.22564125061035
 30
0.0000017422520386
  0
VERTEX
  5
102
330
FA
100
AcDbEntity
  8
OracDecor_indirect_lighting
 62
    54
420
  9744667
100
AcDbVertex
100
AcDb2dVertex
 10
-42.52375793457031
 20
-15.19557952880859
 30
0.0000017422520386
  0
VERTEX
  5
103
330
FA
100
AcDbEntity
  8
OracDecor_indirect_lighting
 62
    54
420
  9744667
100
AcDbVertex
100
AcDb2dVertex
 10
-42.57221603393555
 20
-15.16459941864013
 30
0.0000017422520386
  0
VERTEX
  5
104
330
FA
100
AcDbEntity
  8
OracDecor_indirect_lighting
 62
    54
420
  9744667
100
AcDbVertex
100
AcDb2dVertex
 10
-42.61745452880859
 20
-15.13274574279785
 30
0.0000017422520386
  0
VERTEX
  5
105
330
FA
100
AcDbEntity
  8
OracDecor_indirect_lighting
 62
    54
420
  9744667
100
AcDbVertex
100
AcDb2dVertex
 10
-42.6595344543457
 20
-15.1000690460205
 30
0.0000017422520386
  0
VERTEX
  5
106
330
FA
100
AcDbEntity
  8
OracDecor_indirect_lighting
 62
    54
420
  9744667
100
AcDbVertex
100
AcDb2dVertex
 10
-42.69853973388672
 20
-15.06661891937256
 30
0.0000017422520386
  0
VERTEX
  5
107
330
FA
100
AcDbEntity
  8
OracDecor_indirect_lighting
 62
    54
420
  9744667
100
AcDbVertex
100
AcDb2dVertex
 10
-42.73454666137695
 20
-15.03244304656982
 30
0.0000017422520386
  0
VERTEX
  5
108
330
FA
100
AcDbEntity
  8
OracDecor_indirect_lighting
 62
    54
420
  9744667
100
AcDbVertex
100
AcDb2dVertex
 10
-42.76762771606445
 20
-14.99759292602539
 30
0.0000017422520386
  0
VERTEX
  5
109
330
FA
100
AcDbEntity
  8
OracDecor_indirect_lighting
 62
    54
420
  9744667
100
AcDbVertex
100
AcDb2dVertex
 10
-42.79785919189452
 20
-14.96211719512939
 30
0.0000017422520386
  0
VERTEX
  5
10A
330
FA
100
AcDbEntity
  8
OracDecor_indirect_lighting
 62
    54
420
  9744667
100
AcDbVertex
100
AcDb2dVertex
 10
-42.82531356811523
 20
-14.92606449127197
 30
0.0000017422520386
  0
VERTEX
  5
10B
330
FA
100
AcDbEntity
  8
OracDecor_indirect_lighting
 62
    54
420
  9744667
100
AcDbVertex
100
AcDb2dVertex
 10
-42.85007095336914
 20
-14.88948440551758
 30
0.0000017422520386
  0
VERTEX
  5
10C
330
FA
100
AcDbEntity
  8
OracDecor_indirect_lighting
 62
    54
420
  9744667
100
AcDbVertex
100
AcDb2dVertex
 10
-42.87221527099609
 20
-14.85242652893066
 30
0.0000017422520386
  0
VERTEX
  5
10D
330
FA
100
AcDbEntity
  8
OracDecor_indirect_lighting
 62
    54
420
  9744667
100
AcDbVertex
100
AcDb2dVertex
 10
-42.89179992675781
 20
-14.81494140625
 30
0.0000017422520386
  0
VERTEX
  5
10E
330
FA
100
AcDbEntity
  8
OracDecor_indirect_lighting
 62
    54
420
  9744667
100
AcDbVertex
100
AcDb2dVertex
 10
-42.90891265869141
 20
-14.77707576751709
 30
0.0000017422520386
  0
VERTEX
  5
10F
330
FA
100
AcDbEntity
  8
OracDecor_indirect_lighting
 62
    54
420
  9744667
100
AcDbVertex
100
AcDb2dVertex
 10
-42.92363357543945
 20
-14.73887920379638
 30
0.0000017422520386
  0
VERTEX
  5
110
330
FA
100
AcDbEntity
  8
OracDecor_indirect_lighting
 62
    54
420
  9744667
100
AcDbVertex
100
AcDb2dVertex
 10
-42.93603515625
 20
-14.70040321350097
 30
0.0000017422520386
  0
VERTEX
  5
111
330
FA
100
AcDbEntity
  8
OracDecor_indirect_lighting
 62
    54
420
  9744667
100
AcDbVertex
100
AcDb2dVertex
 10
-42.94618606567382
 20
-14.66169738769531
 30
0.0000017422520386
  0
VERTEX
  5
112
330
FA
100
AcDbEntity
  8
OracDecor_indirect_lighting
 62
    54
420
  9744667
100
AcDbVertex
100
AcDb2dVertex
 10
-42.95417785644531
 20
-14.6228084564209
 30
0.0000017422520386
  0
VERTEX
  5
113
330
FA
100
AcDbEntity
  8
OracDecor_indirect_lighting
 62
    54
420
  9744667
100
AcDbVertex
100
AcDb2dVertex
 10
-42.96006393432617
 20
-14.5837869644165
 30
0.0000017422520386
  0
VERTEX
  5
114
330
FA
100
AcDbEntity
  8
OracDecor_indirect_lighting
 62
    54
420
  9744667
100
AcDbVertex
100
AcDb2dVertex
 10
-42.96393966674805
 20
-14.54468059539795
 30
0.0000017422520386
  0
VERTEX
  5
115
330
FA
100
AcDbEntity
  8
OracDecor_indirect_lighting
 62
    54
420
  9744667
100
AcDbVertex
100
AcDb2dVertex
 10
-42.96586227416992
 20
-14.50554180145263
 30
0.0000017422520386
  0
VERTEX
  5
116
330
FA
100
AcDbEntity
  8
OracDecor_indirect_lighting
 62
    54
420
  9744667
100
AcDbVertex
100
AcDb2dVertex
 10
-42.96592712402343
 20
-14.4664192199707
 30
0.0000017422520386
  0
VERTEX
  5
117
330
FA
100
AcDbEntity
  8
OracDecor_indirect_lighting
 62
    54
420
  9744667
100
AcDbVertex
100
AcDb2dVertex
 10
-42.9641990661621
 20
-14.42735862731933
 30
0.0000017422520386
  0
VERTEX
  5
118
330
FA
100
AcDbEntity
  8
OracDecor_indirect_lighting
 62
    54
420
  9744667
100
AcDbVertex
100
AcDb2dVertex
 10
-42.96075057983398
 20
-14.38841342926025
 30
0.0000017422520386
  0
VERTEX
  5
119
330
FA
100
AcDbEntity
  8
OracDecor_indirect_lighting
 62
    54
420
  9744667
100
AcDbVertex
100
AcDb2dVertex
 10
-42.9556655883789
 20
-14.34963035583496
 30
0.0000017422520386
  0
VERTEX
  5
11A
330
FA
100
AcDbEntity
  8
OracDecor_indirect_lighting
 62
    54
420
  9744667
100
AcDbVertex
100
AcDb2dVertex
 10
-42.94900894165039
 20
-14.31106090545654
 30
0.0000017422520386
  0
VERTEX
  5
11B
330
FA
100
AcDbEntity
  8
OracDecor_indirect_lighting
 62
    54
420
  9744667
100
AcDbVertex
100
AcDb2dVertex
 10
-42.94086837768555
 20
-14.27275276184082
 30
0.0000017422520386
  0
VERTEX
  5
11C
330
FA
100
AcDbEntity
  8
OracDecor_indirect_lighting
 62
    54
420
  9744667
100
AcDbVertex
100
AcDb2dVertex
 10
-42.93131256103515
 20
-14.23475551605224
 30
0.0000017422520386
  0
VERTEX
  5
11D
330
FA
100
AcDbEntity
  8
OracDecor_indirect_lighting
 62
    54
420
  9744667
100
AcDbVertex
100
AcDb2dVertex
 10
-42.90826034545898
 20
-14.15989303588867
 30
0.0000017422520386
  0
VERTEX
  5
11E
330
FA
100
AcDbEntity
  8
OracDecor_indirect_lighting
 62
    54
420
  9744667
100
AcDbVertex
100
AcDb2dVertex
 10
-42.8804588317871
 20
-14.08686637878418
 30
0.0000017422520386
  0
VERTEX
  5
11F
330
FA
100
AcDbEntity
  8
OracDecor_indirect_lighting
 62
    54
420
  9744667
100
AcDbVertex
100
AcDb2dVertex
 10
-42.84850692749023
 20
-14.01607036590576
 30
0.0000017422520386
  0
VERTEX
  5
120
330
FA
100
AcDbEntity
  8
OracDecor_indirect_lighting
 62
    54
420
  9744667
100
AcDbVertex
100
AcDb2dVertex
 10
-42.81301879882812
 20
-13.94789981842041
 30
0.0000017422520386
  0
VERTEX
  5
121
330
FA
100
AcDbEntity
  8
OracDecor_indirect_lighting
 62
    54
420
  9744667
100
AcDbVertex
100
AcDb2dVertex
 10
-42.77458953857421
 20
-13.8827486038208
 30
0.0000017422520386
  0
VERTEX
  5
122
330
FA
100
AcDbEntity
  8
OracDecor_indirect_lighting
 62
    54
420
  9744667
100
AcDbVertex
100
AcDb2dVertex
 10
-42.73382949829101
 20
-13.82101249694824
 30
0.0000017422520386
  0
VERTEX
  5
123
330
FA
100
AcDbEntity
  8
OracDecor_indirect_lighting
 62
    54
420
  9744667
100
AcDbVertex
100
AcDb2dVertex
 10
-42.69134140014648
 20
-13.76308345794678
 30
0.0000017422520386
  0
VERTEX
  5
124
330
FA
100
AcDbEntity
  8
OracDecor_indirect_lighting
 62
    54
420
  9744667
100
AcDbVertex
100
AcDb2dVertex
 10
-42.64772796630859
 20
-13.70935916900634
 30
0.0000017422520386
  0
VERTEX
  5
125
330
FA
100
AcDbEntity
  8
OracDecor_indirect_lighting
 62
    54
420
  9744667
100
AcDbVertex
100
AcDb2dVertex
 10
-42.60359573364257
 20
-13.66023254394531
 30
0.0000017422520386
  0
VERTEX
  5
126
330
FA
100
AcDbEntity
  8
OracDecor_indirect_lighting
 62
    54
420
  9744667
100
AcDbVertex
100
AcDb2dVertex
 10
-42.5595474243164
 20
-13.61609745025635
 30
0.0000017422520386
  0
VERTEX
  5
127
330
FA
100
AcDbEntity
  8
OracDecor_indirect_lighting
 62
    54
420
  9744667
100
AcDbVertex
100
AcDb2dVertex
 10
-42.51618957519531
 20
-13.57734966278076
 30
0.0000017422520386
  0
VERTEX
  5
128
330
FA
100
AcDbEntity
  8
OracDecor_indirect_lighting
 62
    54
420
  9744667
100
AcDbVertex
100
AcDb2dVertex
 10
-42.49495697021484
 20
-13.56011867523193
 30
0.0000017422520386
  0
VERTEX
  5
129
330
FA
100
AcDbEntity
  8
OracDecor_indirect_lighting
 62
    54
420
  9744667
100
AcDbVertex
100
AcDb2dVertex
 10
-42.47412490844726
 20
-13.54438304901123
 30
0.0000017422520386
  0
VERTEX
  5
12A
330
FA
100
AcDbEntity
  8
OracDecor_indirect_lighting
 62
    54
420
  9744667
100
AcDbVertex
100
AcDb2dVertex
 10
-42.45376586914062
 20
-13.53019046783447
 30
0.0000017422520386
  0
VERTEX
  5
12B
330
FA
100
AcDbEntity
  8
OracDecor_indirect_lighting
 62
    54
420
  9744667
100
AcDbVertex
100
AcDb2dVertex
 10
-42.4339599609375
 20
-13.51759243011474
 30
0.0000017422520386
  0
VERTEX
  5
12C
330
FA
100
AcDbEntity
  8
OracDecor_indirect_lighting
 62
    54
420
  9744667
100
AcDbVertex
100
AcDb2dVertex
 10
-42.41477584838867
 20
-13.50663566589355
 30
0.0000017422520386
  0
VERTEX
  5
12D
330
FA
100
AcDbEntity
  8
OracDecor_indirect_lighting
 62
    54
420
  9744667
100
AcDbVertex
100
AcDb2dVertex
 10
-42.39629364013672
 20
-13.49737071990967
 30
0.0000017422520386
  0
VERTEX
  5
12E
330
FA
100
AcDbEntity
  8
OracDecor_indirect_lighting
 62
    54
420
  9744667
100
AcDbVertex
100
AcDb2dVertex
 10
-42.37858963012695
 20
-13.48984813690185
 30
0.0000017422520386
  0
VERTEX
  5
12F
330
FA
100
AcDbEntity
  8
OracDecor_indirect_lighting
 62
    54
420
  9744667
100
AcDbVertex
100
AcDb2dVertex
 10
-42.37005233764648
 20
-13.48675441741943
 30
0.0000017422520386
  0
VERTEX
  5
130
330
FA
100
AcDbEntity
  8
OracDecor_indirect_lighting
 62
    54
420
  9744667
100
AcDbVertex
100
AcDb2dVertex
 10
-42.36173629760742
 20
-13.48411464691162
 30
0.0000017422520386
  0
VERTEX
  5
131
330
FA
100
AcDbEntity
  8
OracDecor_indirect_lighting
 62
    54
420
  9744667
100
AcDbVertex
100
AcDb2dVertex
 10
-41.46615982055664
 20
-13.11666297912597
 30
0.0000017422520386
  0
VERTEX
  5
132
330
FA
100
AcDbEntity
  8
OracDecor_indirect_lighting
 62
    54
420
  9744667
100
AcDbVertex
100
AcDb2dVertex
 10
-40.49345397949219
 20
-12.76021480560302
 30
0.0000017422520386
  0
VERTEX
  5
133
330
FA
100
AcDbEntity
  8
OracDecor_indirect_lighting
 62
    54
420
  9744667
100
AcDbVertex
100
AcDb2dVertex
 10
-38.37176132202149
 20
-12.080078125
 30
0.0000017422520386
  0
VERTEX
  5
134
330
FA
100
AcDbEntity
  8
OracDecor_indirect_lighting
 62
    54
420
  9744667
100
AcDbVertex
100
AcDb2dVertex
 10
-33.80931091308594
 20
-10.84904861450195
 30
0.0000017422520386
  0
VERTEX
  5
135
330
FA
100
AcDbEntity
  8
OracDecor_indirect_lighting
 62
    54
420
  9744667
100
AcDbVertex
100
AcDb2dVertex
 10
-29.55672073364258
 20
-9.786931991577148
 30
0.0000017422520386
  0
VERTEX
  5
136
330
FA
100
AcDbEntity
  8
OracDecor_indirect_lighting
 62
    54
420
  9744667
100
AcDbVertex
100
AcDb2dVertex
 10
-27.82235145568848
 20
-9.317935943603515
 30
0.0000017422520386
  0
VERTEX
  5
137
330
FA
100
AcDbEntity
  8
OracDecor_indirect_lighting
 62
    54
420
  9744667
100
AcDbVertex
100
AcDb2dVertex
 10
-27.10140037536621
 20
-9.098730087280273
 30
0.0000017422520386
  0
VERTEX
  5
138
330
FA
100
AcDbEntity
  8
OracDecor_indirect_lighting
 62
    54
420
  9744667
100
AcDbVertex
100
AcDb2dVertex
 10
-26.49632263183594
 20
-8.889633178710937
 30
0.0000017422520386
  0
VERTEX
  5
139
330
FA
100
AcDbEntity
  8
OracDecor_indirect_lighting
 62
    54
420
  9744667
100
AcDbVertex
100
AcDb2dVertex
 10
-26.39088630676269
 20
-8.848222732543945
 30
0.0000017422520386
  0
VERTEX
  5
13A
330
FA
100
AcDbEntity
  8
OracDecor_indirect_lighting
 62
    54
420
  9744667
100
AcDbVertex
100
AcDb2dVertex
 10
-26.29017829895019
 20
-8.804439544677734
 30
0.0000017422520386
  0
VERTEX
  5
13B
330
FA
100
AcDbEntity
  8
OracDecor_indirect_lighting
 62
    54
420
  9744667
100
AcDbVertex
100
AcDb2dVertex
 10
-26.1941089630127
 20
-8.758400917053222
 30
0.0000017422520386
  0
VERTEX
  5
13C
330
FA
100
AcDbEntity
  8
OracDecor_indirect_lighting
 62
    54
420
  9744667
100
AcDbVertex
100
AcDb2dVertex
 10
-26.10257911682129
 20
-8.710223197937011
 30
0.0000017422520386
  0
VERTEX
  5
13D
330
FA
100
AcDbEntity
  8
OracDecor_indirect_lighting
 62
    54
420
  9744667
100
AcDbVertex
100
AcDb2dVertex
 10
-26.0154972076416
 20
-8.660016059875488
 30
0.0000017422520386
  0
VERTEX
  5
13E
330
FA
100
AcDbEntity
  8
OracDecor_indirect_lighting
 62
    54
420
  9744667
100
AcDbVertex
100
AcDb2dVertex
 10
-25.93277168273926
 20
-8.607894897460937
 30
0.0000017422520386
  0
VERTEX
  5
13F
330
FA
100
AcDbEntity
  8
OracDecor_indirect_lighting
 62
    54
420
  9744667
100
AcDbVertex
100
AcDb2dVertex
 10
-25.85429954528809
 20
-8.553974151611328
 30
0.0000017422520386
  0
VERTEX
  5
140
330
FA
100
AcDbEntity
  8
OracDecor_indirect_lighting
 62
    54
420
  9744667
100
AcDbVertex
100
AcDb2dVertex
 10
-25.77999305725098
 20
-8.498367309570312
 30
0.0000017422520386
  0
VERTEX
  5
141
330
FA
100
AcDbEntity
  8
OracDecor_indirect_lighting
 62
    54
420
  9744667
100
AcDbVertex
100
AcDb2dVertex
 10
-25.70975875854492
 20
-8.441186904907226
 30
0.0000017422520386
  0
VERTEX
  5
142
330
FA
100
AcDbEntity
  8
OracDecor_indirect_lighting
 62
    54
420
  9744667
100
AcDbVertex
100
AcDb2dVertex
 10
-25.64349555969239
 20
-8.382548332214355
 30
0.0000017422520386
  0
VERTEX
  5
143
330
FA
100
AcDbEntity
  8
OracDecor_indirect_lighting
 62
    54
420
  9744667
100
AcDbVertex
100
AcDb2dVertex
 10
-25.58111572265625
 20
-8.322565078735351
 30
0.0000017422520386
  0
VERTEX
  5
144
330
FA
100
AcDbEntity
  8
OracDecor_indirect_lighting
 62
    54
420
  9744667
100
AcDbVertex
100
AcDb2dVertex
 10
-25.52252197265625
 20
-8.2613525390625
 30
0.0000017422520386
  0
VERTEX
  5
145
330
FA
100
AcDbEntity
  8
OracDecor_indirect_lighting
 62
    54
420
  9744667
100
AcDbVertex
100
AcDb2dVertex
 10
-25.46762084960938
 20
-8.199023246765136
 30
0.0000017422520386
  0
VERTEX
  5
146
330
FA
100
AcDbEntity
  8
OracDecor_indirect_lighting
 62
    54
420
  9744667
100
AcDbVertex
100
AcDb2dVertex
 10
-25.41631317138672
 20
-8.135690689086914
 30
0.0000017422520386
  0
VERTEX
  5
147
330
FA
100
AcDbEntity
  8
OracDecor_indirect_lighting
 62
    54
420
  9744667
100
AcDbVertex
100
AcDb2dVertex
 10
-25.36850929260254
 20
-8.0714693069458
 30
0.0000017422520386
  0
VERTEX
  5
148
330
FA
100
AcDbEntity
  8
OracDecor_indirect_lighting
 62
    54
420
  9744667
100
AcDbVertex
100
AcDb2dVertex
 10
-25.32411575317383
 20
-8.006472587585449
 30
0.0000017422520386
  0
VERTEX
  5
149
330
FA
100
AcDbEntity
  8
OracDecor_indirect_lighting
 62
    54
420
  9744667
100
AcDbVertex
100
AcDb2dVertex
 10
-25.28303146362305
 20
-7.940815448760986
 30
0.0000017422520386
  0
VERTEX
  5
14A
330
FA
100
AcDbEntity
  8
OracDecor_indirect_lighting
 62
    54
420
  9744667
100
AcDbVertex
100
AcDb2dVertex
 10
-25.24517440795899
 20
-7.874610900878906
 30
0.0000017422520386
  0
VERTEX
  5
14B
330
FA
100
AcDbEntity
  8
OracDecor_indirect_lighting
 62
    54
420
  9744667
100
AcDbVertex
100
AcDb2dVertex
 10
-25.21043586730957
 20
-7.807972431182861
 30
0.0000017422520386
  0
VERTEX
  5
14C
330
FA
100
AcDbEntity
  8
OracDecor_indirect_lighting
 62
    54
420
  9744667
100
AcDbVertex
100
AcDb2dVertex
 10
-25.17872810363769
 20
-7.741015911102294
 30
0.0000017422520386
  0
VERTEX
  5
14D
330
FA
100
AcDbEntity
  8
OracDecor_indirect_lighting
 62
    54
420
  9744667
100
AcDbVertex
100
AcDb2dVertex
 10
-25.14995765686035
 20
-7.673852920532226
 30
0.0000017422520386
  0
VERTEX
  5
14E
330
FA
100
AcDbEntity
  8
OracDecor_indirect_lighting
 62
    54
420
  9744667
100
AcDbVertex
100
AcDb2dVertex
 10
-25.12402725219727
 20
-7.606599330902099
 30
0.0000017422520386
  0
VERTEX
  5
14F
330
FA
100
AcDbEntity
  8
OracDecor_indirect_lighting
 62
    54
420
  9744667
100
AcDbVertex
100
AcDb2dVertex
 10
-25.10084342956543
 20
-7.539368152618408
 30
0.0000017422520386
  0
VERTEX
  5
150
330
FA
100
AcDbEntity
  8
OracDecor_indirect_lighting
 62
    54
420
  9744667
100
AcDbVertex
100
AcDb2dVertex
 10
-25.0803108215332
 20
-7.472272396087646
 30
0.0000017422520386
  0
VERTEX
  5
151
330
FA
100
AcDbEntity
  8
OracDecor_indirect_lighting
 62
    54
420
  9744667
100
AcDbVertex
100
AcDb2dVertex
 10
-25.04682922363282
 20
-7.338946819305419
 30
0.0000017422520386
  0
VERTEX
  5
152
330
FA
100
AcDbEntity
  8
OracDecor_indirect_lighting
 62
    54
420
  9744667
100
AcDbVertex
100
AcDb2dVertex
 10
-25.02282333374024
 20
-7.207532405853271
 30
0.0000017422520386
  0
VERTEX
  5
153
330
FA
100
AcDbEntity
  8
OracDecor_indirect_lighting
 62
    54
420
  9744667
100
AcDbVertex
100
AcDb2dVertex
 10
-25.00753402709961
 20
-7.078941822052001
 30
0.0000017422520386
  0
VERTEX
  5
154
330
FA
100
AcDbEntity
  8
OracDecor_indirect_lighting
 62
    54
420
  9744667
100
AcDbVertex
100
AcDb2dVertex
 10
-25.00020980834961
 20
-6.954085350036621
 30
0.0000017422520386
  0
VERTEX
  5
155
330
FA
100
AcDbEntity
  8
OracDecor_indirect_lighting
 62
    54
420
  9744667
100
AcDbVertex
100
AcDb2dVertex
 10
-25.00021362304688
 20
-0.0001061160655809
 30
0.0000017422520386
  0
VERTEX
  5
156
330
FA
100
AcDbEntity
  8
OracDecor_indirect_lighting
 62
    54
420
  9744667
100
AcDbVertex
100
AcDb2dVertex
 10
-27.40024375915528
 20
0.0242019034922123
 30
0.0000017422520386
  0
VERTEX
  5
157
330
FA
100
AcDbEntity
  8
OracDecor_indirect_lighting
 62
    54
420
  9744667
100
AcDbVertex
100
AcDb2dVertex
 10
-29.82248497009278
 20
-0.0919354930520058
 30
0.0000017422520386
  0
VERTEX
  5
158
330
FA
100
AcDbEntity
  8
OracDecor_indirect_lighting
 62
    54
420
  9744667
100
AcDbVertex
100
AcDb2dVertex
 10
-32.26030731201172
 20
-0.3457193374633789
 30
0.0000017422520386
  0
VERTEX
  5
159
330
FA
100
AcDbEntity
  8
OracDecor_indirect_lighting
 62
    54
420
  9744667
100
AcDbVertex
100
AcDb2dVertex
 10
-34.70711517333985
 20
-0.7343505620956421
 30
0.0000017422520386
  0
VERTEX
  5
15A
330
FA
100
AcDbEntity
  8
OracDecor_indirect_lighting
 62
    54
420
  9744667
100
AcDbVertex
100
AcDb2dVertex
 10
-37.15626907348633
 20
-1.255030155181884
 30
0.0000017422520386
  0
VERTEX
  5
15B
330
FA
100
AcDbEntity
  8
OracDecor_indirect_lighting
 62
    54
420
  9744667
100
AcDbVertex
100
AcDb2dVertex
 10
-39.60116958618164
 20
-1.904959201812744
 30
0.0000017422520386
  0
VERTEX
  5
15C
330
FA
100
AcDbEntity
  8
OracDecor_indirect_lighting
 62
    54
420
  9744667
100
AcDbVertex
100
AcDb2dVertex
 10
-42.03520202636719
 20
-2.681338787078857
 30
0.0000017422520386
  0
VERTEX
  5
15D
330
FA
100
AcDbEntity
  8
OracDecor_indirect_lighting
 62
    54
420
  9744667
100
AcDbVertex
100
AcDb2dVertex
 10
-44.45174026489257
 20
-3.581369161605834
 30
0.0000017422520386
  0
VERTEX
  5
15E
330
FA
100
AcDbEntity
  8
OracDecor_indirect_lighting
 62
    54
420
  9744667
100
AcDbVertex
100
AcDb2dVertex
 10
-46.84416580200195
 20
-4.602252483367919
 30
0.0000017422520386
  0
VERTEX
  5
15F
330
FA
100
AcDbEntity
  8
OracDecor_indirect_lighting
 62
    54
420
  9744667
100
AcDbVertex
100
AcDb2dVertex
 10
-49.20587921142578
 20
-5.741189002990722
 30
0.0000017422520386
  0
VERTEX
  5
160
330
FA
100
AcDbEntity
  8
OracDecor_indirect_lighting
 62
    54
420
  9744667
100
AcDbVertex
100
AcDb2dVertex
 10
-51.53025817871093
 20
-6.995379447937011
 30
0.0000017422520386
  0
VERTEX
  5
161
330
FA
100
AcDbEntity
  8
OracDecor_indirect_lighting
 62
    54
420
  9744667
100
AcDbVertex
100
AcDb2dVertex
 10
-53.81067276000976
 20
-8.362025260925292
 30
0.0000017422520386
  0
VERTEX
  5
162
330
FA
100
AcDbEntity
  8
OracDecor_indirect_lighting
 62
    54
420
  9744667
100
AcDbVertex
100
AcDb2dVertex
 10
-56.04052352905274
 20
-9.838329315185546
 30
0.0000017422520386
  0
VERTEX
  5
163
330
FA
100
AcDbEntity
  8
OracDecor_indirect_lighting
 62
    54
420
  9744667
100
AcDbVertex
100
AcDb2dVertex
 10
-58.21319198608398
 20
-11.42148876190185
 30
0.0000017422520386
  0
VERTEX
  5
164
330
FA
100
AcDbEntity
  8
OracDecor_indirect_lighting
 62
    54
420
  9744667
100
AcDbVertex
100
AcDb2dVertex
 10
-60.32204818725586
 20
-13.10870742797851
 30
0.0000017422520386
  0
VERTEX
  5
165
330
FA
100
AcDbEntity
  8
OracDecor_indirect_lighting
 62
    54
420
  9744667
100
AcDbVertex
100
AcDb2dVertex
 10
-62.36049652099609
 20
-14.89718437194824
 30
0.0000017422520386
  0
VERTEX
  5
166
330
FA
100
AcDbEntity
  8
OracDecor_indirect_lighting
 62
    54
420
  9744667
100
AcDbVertex
100
AcDb2dVertex
 10
-64.32190704345703
 20
-16.78412246704101
 30
0.0000017422520386
  0
VERTEX
  5
167
330
FA
100
AcDbEntity
  8
OracDecor_indirect_lighting
 62
    54
420
  9744667
100
AcDbVertex
100
AcDb2dVertex
 10
-66.19966888427734
 20
-18.76672172546387
 30
0.0000017422520386
  0
VERTEX
  5
168
330
FA
100
AcDbEntity
  8
OracDecor_indirect_lighting
 62
    54
420
  9744667
100
AcDbVertex
100
AcDb2dVertex
 10
-67.9871597290039
 20
-20.84218215942383
 30
0.0000017422520386
  0
VERTEX
  5
169
330
FA
100
AcDbEntity
  8
OracDecor_indirect_lighting
 62
    54
420
  9744667
100
AcDbVertex
100
AcDb2dVertex
 10
-69.67778015136719
 20
-23.00770568847656
 30
0.0000017422520386
  0
VERTEX
  5
16A
330
FA
100
AcDbEntity
  8
OracDecor_indirect_lighting
 62
    54
420
  9744667
100
AcDbVertex
100
AcDb2dVertex
 10
-71.26490020751953
 20
-25.26049613952637
 30
0.0000017422520386
  0
VERTEX
  5
16B
330
FA
100
AcDbEntity
  8
OracDecor_indirect_lighting
 62
    54
420
  9744667
100
AcDbVertex
100
AcDb2dVertex
 10
-72.74189758300781
 20
-27.59775161743164
 30
0.0000017422520386
  0
VERTEX
  5
16C
330
FA
100
AcDbEntity
  8
OracDecor_indirect_lighting
 62
    54
420
  9744667
100
AcDbVertex
100
AcDb2dVertex
 10
-74.10218048095703
 20
-30.01667213439942
 30
0.0000017422520386
  0
VERTEX
  5
16D
330
FA
100
AcDbEntity
  8
OracDecor_indirect_lighting
 62
    54
420
  9744667
100
AcDbVertex
100
AcDb2dVertex
 10
-75.339111328125
 20
-32.51445770263672
 30
0.0000017422520386
  0
VERTEX
  5
16E
330
FA
100
AcDbEntity
  8
OracDecor_indirect_lighting
 62
    54
420
  9744667
100
AcDbVertex
100
AcDb2dVertex
 10
-76.44607543945312
 20
-35.08831405639649
 30
0.0000017422520386
  0
VERTEX
  5
16F
330
FA
100
AcDbEntity
  8
OracDecor_indirect_lighting
 62
    54
420
  9744667
100
AcDbVertex
100
AcDb2dVertex
 10
-77.41647338867188
 20
-37.73543930053711
 30
0.0000017422520386
  0
VERTEX
  5
170
330
FA
100
AcDbEntity
  8
OracDecor_indirect_lighting
 62
    54
420
  9744667
100
AcDbVertex
100
AcDb2dVertex
 10
-78.24366760253906
 20
-40.45303726196289
 30
0.0000017422520386
  0
VERTEX
  5
171
330
FA
100
AcDbEntity
  8
OracDecor_indirect_lighting
 62
    54
420
  9744667
100
AcDbVertex
100
AcDb2dVertex
 10
-78.92106628417969
 20
-43.23830032348633
 30
0.0000017422520386
  0
VERTEX
  5
172
330
FA
100
AcDbEntity
  8
OracDecor_indirect_lighting
 62
    54
420
  9744667
100
AcDbVertex
100
AcDb2dVertex
 10
-79.44203186035156
 20
-46.08843994140625
 30
0.0000017422520386
  0
VERTEX
  5
173
330
FA
100
AcDbEntity
  8
OracDecor_indirect_lighting
 62
    54
420
  9744667
100
AcDbVertex
100
AcDb2dVertex
 10
-79.79994964599609
 20
-49.00065231323242
 30
0.0000017422520386
  0
VERTEX
  5
174
330
FA
100
AcDbEntity
  8
OracDecor_indirect_lighting
 62
    54
420
  9744667
100
AcDbVertex
100
AcDb2dVertex
 10
-79.98821258544921
 20
-51.97214126586914
 30
0.0000017422520386
  0
VERTEX
  5
175
330
FA
100
AcDbEntity
  8
OracDecor_indirect_lighting
 62
    54
420
  9744667
100
AcDbVertex
100
AcDb2dVertex
 10
-80.00021362304687
 20
-55.00010299682617
 30
0.0000017422520386
  0
VERTEX
  5
176
330
FA
100
AcDbEntity
  8
OracDecor_indirect_lighting
 62
    54
420
  9744667
100
AcDbVertex
100
AcDb2dVertex
 10
-79.8475112915039
 20
-57.96067047119141
 30
0.0000017422520386
  0
VERTEX
  5
177
330
FA
100
AcDbEntity
  8
OracDecor_indirect_lighting
 62
    54
420
  9744667
100
AcDbVertex
100
AcDb2dVertex
 10
-79.55007934570312
 20
-60.73754501342773
 30
0.0000017422520386
  0
VERTEX
  5
178
330
FA
100
AcDbEntity
  8
OracDecor_indirect_lighting
 62
    54
420
  9744667
100
AcDbVertex
100
AcDb2dVertex
 10
-79.11387634277343
 20
-63.33926773071289
 30
0.0000017422520386
  0
VERTEX
  5
179
330
FA
100
AcDbEntity
  8
OracDecor_indirect_lighting
 62
    54
420
  9744667
100
AcDbVertex
100
AcDb2dVertex
 10
-78.54489898681641
 20
-65.77438354492187
 30
0.0000017422520386
  0
VERTEX
  5
17A
330
FA
100
AcDbEntity
  8
OracDecor_indirect_lighting
 62
    54
420
  9744667
100
AcDbVertex
100
AcDb2dVertex
 10
-77.84910583496094
 20
-68.05142211914063
 30
0.0000017422520386
  0
VERTEX
  5
17B
330
FA
100
AcDbEntity
  8
OracDecor_indirect_lighting
 62
    54
420
  9744667
100
AcDbVertex
100
AcDb2dVertex
 10
-77.45551300048828
 20
-69.13334655761719
 30
0.0000017422520386
  0
VERTEX
  5
17C
330
FA
100
AcDbEntity
  8
OracDecor_indirect_lighting
 62
    54
420
  9744667
100
AcDbVertex
100
AcDb2dVertex
 10
-77.03245544433594
 20
-70.17894744873046
 30
0.0000017422520386
  0
VERTEX
  5
17D
330
FA
100
AcDbEntity
  8
OracDecor_indirect_lighting
 62
    54
420
  9744667
100
AcDbVertex
100
AcDb2dVertex
 10
-76.58067321777344
 20
-71.18932342529297
 30
0.0000017422520386
  0
VERTEX
  5
17E
330
FA
100
AcDbEntity
  8
OracDecor_indirect_lighting
 62
    54
420
  9744667
100
AcDbVertex
100
AcDb2dVertex
 10
-76.10091400146484
 20
-72.16550445556641
 30
0.0000017422520386
  0
VERTEX
  5
17F
330
FA
100
AcDbEntity
  8
OracDecor_indirect_lighting
 62
    54
420
  9744667
100
AcDbVertex
100
AcDb2dVertex
 10
-75.59393310546875
 20
-73.10857391357422
 30
0.0000017422520386
  0
VERTEX
  5
180
330
FA
100
AcDbEntity
  8
OracDecor_indirect_lighting
 62
    54
420
  9744667
100
AcDbVertex
100
AcDb2dVertex
 10
-75.06047058105469
 20
-74.01962280273437
 30
0.0000017422520386
  0
VERTEX
  5
181
330
FA
100
AcDbEntity
  8
OracDecor_indirect_lighting
 62
    54
420
  9744667
100
AcDbVertex
100
AcDb2dVertex
 10
-74.50126647949218
 20
-74.8996810913086
 30
0.0000017422520386
  0
VERTEX
  5
182
330
FA
100
AcDbEntity
  8
OracDecor_indirect_lighting
 62
    54
420
  9744667
100
AcDbVertex
100
AcDb2dVertex
 10
-73.91708374023437
 20
-75.74984741210937
 30
0.0000017422520386
  0
VERTEX
  5
183
330
FA
100
AcDbEntity
  8
OracDecor_indirect_lighting
 62
    54
420
  9744667
100
AcDbVertex
100
AcDb2dVertex
 10
-73.30864715576172
 20
-76.5711669921875
 30
0.0000017422520386
  0
VERTEX
  5
184
330
FA
100
AcDbEntity
  8
OracDecor_indirect_lighting
 62
    54
420
  9744667
100
AcDbVertex
100
AcDb2dVertex
 10
-72.67671966552734
 20
-77.3647232055664
 30
0.0000017422520386
  0
VERTEX
  5
185
330
FA
100
AcDbEntity
  8
OracDecor_indirect_lighting
 62
    54
420
  9744667
100
AcDbVertex
100
AcDb2dVertex
 10
-71.34535980224609
 20
-78.872802734375
 30
0.0000017422520386
  0
VERTEX
  5
186
330
FA
100
AcDbEntity
  8
OracDecor_indirect_lighting
 62
    54
420
  9744667
100
AcDbVertex
100
AcDb2dVertex
 10
-69.92896270751953
 20
-80.28261566162109
 30
0.0000017422520386
  0
VERTEX
  5
187
330
FA
100
AcDbEntity
  8
OracDecor_indirect_lighting
 62
    54
420
  9744667
100
AcDbVertex
100
AcDb2dVertex
 10
-68.43350982666016
 20
-81.60272979736328
 30
0.0000017422520386
  0
VERTEX
  5
188
330
FA
100
AcDbEntity
  8
OracDecor_indirect_lighting
 62
    54
420
  9744667
100
AcDbVertex
100
AcDb2dVertex
 10
-66.86495208740234
 20
-82.84167480468751
 30
0.0000017422520386
  0
VERTEX
  5
189
330
FA
100
AcDbEntity
  8
OracDecor_indirect_lighting
 62
    54
420
  9744667
100
AcDbVertex
100
AcDb2dVertex
 10
-65.22928619384765
 20
-84.00798797607421
 30
0.0000017422520386
  0
VERTEX
  5
18A
330
FA
100
AcDbEntity
  8
OracDecor_indirect_lighting
 62
    54
420
  9744667
100
AcDbVertex
100
AcDb2dVertex
 10
-63.53245162963867
 20
-85.11021423339844
 30
0.0000017422520386
  0
VERTEX
  5
18B
330
FA
100
AcDbEntity
  8
OracDecor_indirect_lighting
 62
    54
420
  9744667
100
AcDbVertex
100
AcDb2dVertex
 10
-59.97921371459961
 20
-87.15661621093749
 30
0.0000017422520386
  0
VERTEX
  5
18C
330
FA
100
AcDbEntity
  8
OracDecor_indirect_lighting
 62
    54
420
  9744667
100
AcDbVertex
100
AcDb2dVertex
 10
-56.25299072265625
 20
-89.04920959472656
 30
0.0000017422520386
  0
VERTEX
  5
18D
330
FA
100
AcDbEntity
  8
OracDecor_indirect_lighting
 62
    54
420
  9744667
100
AcDbVertex
100
AcDb2dVertex
 10
-48.47264862060547
 20
-92.64642333984374
 30
0.0000017422520386
  0
VERTEX
  5
18E
330
FA
100
AcDbEntity
  8
OracDecor_indirect_lighting
 62
    54
420
  9744667
100
AcDbVertex
100
AcDb2dVertex
 10
-40.57347869873047
 20
-96.44865417480469
 30
0.0000017422520386
  0
VERTEX
  5
18F
330
FA
100
AcDbEntity
  8
OracDecor_indirect_lighting
 62
    54
420
  9744667
100
AcDbVertex
100
AcDb2dVertex
 10
-36.69872283935547
 20
-98.5975341796875
 30
0.0000017422520386
  0
VERTEX
  5
190
330
FA
100
AcDbEntity
  8
OracDecor_indirect_lighting
 62
    54
420
  9744667
100
AcDbVertex
100
AcDb2dVertex
 10
-34.80094909667969
 20
-99.76381683349609
 30
0.0000017422520386
  0
VERTEX
  5
191
330
FA
100
AcDbEntity
  8
OracDecor_indirect_lighting
 62
    54
420
  9744667
100
AcDbVertex
100
AcDb2dVertex
 10
-32.93753814697266
 20
-101.0027313232422
 30
0.0000017422520386
  0
VERTEX
  5
192
330
FA
100
AcDbEntity
  8
OracDecor_indirect_lighting
 62
    54
420
  9744667
100
AcDbVertex
100
AcDb2dVertex
 10
-29.429931640625
 20
-103.5785522460937
 30
0.0000017422520386
  0
VERTEX
  5
193
330
FA
100
AcDbEntity
  8
OracDecor_indirect_lighting
 62
    54
420
  9744667
100
AcDbVertex
100
AcDb2dVertex
 10
-26.26822090148926
 20
-106.1864929199219
 30
0.0000017422520386
  0
VERTEX
  5
194
330
FA
100
AcDbEntity
  8
OracDecor_indirect_lighting
 62
    54
420
  9744667
100
AcDbVertex
100
AcDb2dVertex
 10
-23.42861366271973
 20
-108.8157348632812
 30
0.0000017422520386
  0
VERTEX
  5
195
330
FA
100
AcDbEntity
  8
OracDecor_indirect_lighting
 62
    54
420
  9744667
100
AcDbVertex
100
AcDb2dVertex
 10
-20.88731956481934
 20
-111.4554290771484
 30
0.0000017422520386
  0
VERTEX
  5
196
330
FA
100
AcDbEntity
  8
OracDecor_indirect_lighting
 62
    54
420
  9744667
100
AcDbVertex
100
AcDb2dVertex
 10
-18.62055015563965
 20
-114.0947189331054
 30
0.0000017422520386
  0
VERTEX
  5
197
330
FA
100
AcDbEntity
  8
OracDecor_indirect_lighting
 62
    54
420
  9744667
100
AcDbVertex
100
AcDb2dVertex
 10
-16.60450744628906
 20
-116.7228012084961
 30
0.0000017422520386
  0
VERTEX
  5
198
330
FA
100
AcDbEntity
  8
OracDecor_indirect_lighting
 62
    54
420
  9744667
100
AcDbVertex
100
AcDb2dVertex
 10
-14.81540775299072
 20
-119.3287887573242
 30
0.0000017422520386
  0
VERTEX
  5
199
330
FA
100
AcDbEntity
  8
OracDecor_indirect_lighting
 62
    54
420
  9744667
100
AcDbVertex
100
AcDb2dVertex
 10
-13.22945499420166
 20
-121.90185546875
 30
0.0000017422520386
  0
VERTEX
  5
19A
330
FA
100
AcDbEntity
  8
OracDecor_indirect_lighting
 62
    54
420
  9744667
100
AcDbVertex
100
AcDb2dVertex
 10
-11.8228588104248
 20
-124.43115234375
 30
0.0000017422520386
  0
VERTEX
  5
19B
330
FA
100
AcDbEntity
  8
OracDecor_indirect_lighting
 62
    54
420
  9744667
100
AcDbVertex
100
AcDb2dVertex
 10
-10.5718297958374
 20
-126.9058532714844
 30
0.0000017422520386
  0
VERTEX
  5
19C
330
FA
100
AcDbEntity
  8
OracDecor_indirect_lighting
 62
    54
420
  9744667
100
AcDbVertex
100
AcDb2dVertex
 10
-8.441301345825195
 20
-131.6480560302734
 30
0.0000017422520386
  0
VERTEX
  5
19D
330
FA
100
AcDbEntity
  8
OracDecor_indirect_lighting
 62
    54
420
  9744667
100
AcDbVertex
100
AcDb2dVertex
 10
-5.000221252441406
 20
-140.0001068115234
 30
0.0000017422520386
  0
VERTEX
  5
19E
330
FA
100
AcDbEntity
  8
OracDecor_indirect_lighting
 62
    54
420
  9744667
100
AcDbVertex
100
AcDb2dVertex
 10
-0.0002212807594333
 20
-140.0001068115234
 30
0.0000017422520386
  0
VERTEX
  5
19F
330
FA
100
AcDbEntity
  8
OracDecor_indirect_lighting
 62
    54
420
  9744667
100
AcDbVertex
100
AcDb2dVertex
 10
-0.0002207329380326
 20
-133.7336883544922
 30
0.0000017422520386
  0
VERTEX
  5
1A0
330
FA
100
AcDbEntity
  8
OracDecor_indirect_lighting
 62
    54
420
  9744667
100
AcDbVertex
100
AcDb2dVertex
 10
-0.0536908060312271
 20
-133.7185516357422
 30
0.0000017422520386
  0
VERTEX
  5
1A1
330
FA
100
AcDbEntity
  8
OracDecor_indirect_lighting
 62
    54
420
  9744667
100
AcDbVertex
100
AcDb2dVertex
 10
-0.1069441810250282
 20
-133.7007141113281
 30
0.0000017422520386
  0
VERTEX
  5
1A2
330
FA
100
AcDbEntity
  8
OracDecor_indirect_lighting
 62
    54
420
  9744667
100
AcDbVertex
100
AcDb2dVertex
 10
-0.1599092036485672
 20
-133.6803131103515
 30
0.0000017422520386
  0
VERTEX
  5
1A3
330
FA
100
AcDbEntity
  8
OracDecor_indirect_lighting
 62
    54
420
  9744667
100
AcDbVertex
100
AcDb2dVertex
 10
-0.2125142365694046
 20
-133.6573333740234
 30
0.0000017422520386
  0
VERTEX
  5
1A4
330
FA
100
AcDbEntity
  8
OracDecor_indirect_lighting
 62
    54
420
  9744667
100
AcDbVertex
100
AcDb2dVertex
 10
-0.2646876573562622
 20
-133.6319274902344
 30
0.0000017422520386
  0
VERTEX
  5
1A5
330
FA
100
AcDbEntity
  8
OracDecor_indirect_lighting
 62
    54
420
  9744667
100
AcDbVertex
100
AcDb2dVertex
 10
-0.3163576722145081
 20
-133.6040954589843
 30
0.0000017422520386
  0
VERTEX
  5
1A6
330
FA
100
AcDbEntity
  8
OracDecor_indirect_lighting
 62
    54
420
  9744667
100
AcDbVertex
100
AcDb2dVertex
 10
-0.3674528300762176
 20
-133.5739440917969
 30
0.0000017422520386
  0
VERTEX
  5
1A7
330
FA
100
AcDbEntity
  8
OracDecor_indirect_lighting
 62
    54
420
  9744667
100
AcDbVertex
100
AcDb2dVertex
 10
-0.4179013371467591
 20
-133.5415496826172
 30
0.0000017422520386
  0
VERTEX
  5
1A8
330
FA
100
AcDbEntity
  8
OracDecor_indirect_lighting
 62
    54
420
  9744667
100
AcDbVertex
100
AcDb2dVertex
 10
-0.4676316380500794
 20
-133.5069580078125
 30
0.0000017422520386
  0
VERTEX
  5
1A9
330
FA
100
AcDbEntity
  8
OracDecor_indirect_lighting
 62
    54
420
  9744667
100
AcDbVertex
100
AcDb2dVertex
 10
-0.5165720582008362
 20
-133.4702453613281
 30
0.0000017422520386
  0
VERTEX
  5
1AA
330
FA
100
AcDbEntity
  8
OracDecor_indirect_lighting
 62
    54
420
  9744667
100
AcDbVertex
100
AcDb2dVertex
 10
-0.6117964982986451
 20
-133.3907318115234
 30
0.0000017422520386
  0
VERTEX
  5
1AB
330
FA
100
AcDbEntity
  8
OracDecor_indirect_lighting
 62
    54
420
  9744667
100
AcDbVertex
100
AcDb2dVertex
 10
-0.703001618385315
 20
-133.3035888671875
 30
0.0000017422520386
  0
VERTEX
  5
1AC
330
FA
100
AcDbEntity
  8
OracDecor_indirect_lighting
 62
    54
420
  9744667
100
AcDbVertex
100
AcDb2dVertex
 10
-0.7896141409873963
 20
-133.2093658447265
 30
0.0000017422520386
  0
VERTEX
  5
1AD
330
FA
100
AcDbEntity
  8
OracDecor_indirect_lighting
 62
    54
420
  9744667
100
AcDbVertex
100
AcDb2dVertex
 10
-0.8710607290267944
 20
-133.1085968017578
 30
0.0000017422520386
  0
VERTEX
  5
1AE
330
FA
100
AcDbEntity
  8
OracDecor_indirect_lighting
 62
    54
420
  9744667
100
AcDbVertex
100
AcDb2dVertex
 10
-0.946768581867218
 20
-133.0018463134765
 30
0.0000017422520386
  0
VERTEX
  5
1AF
330
FA
100
AcDbEntity
  8
OracDecor_indirect_lighting
 62
    54
420
  9744667
100
AcDbVertex
100
AcDb2dVertex
 10
-1.016164064407348
 20
-132.8897094726562
 30
0.0000017422520386
  0
VERTEX
  5
1B0
330
FA
100
AcDbEntity
  8
OracDecor_indirect_lighting
 62
    54
420
  9744667
100
AcDbVertex
100
AcDb2dVertex
 10
-1.07867431640625
 20
-132.7726898193359
 30
0.0000017422520386
  0
VERTEX
  5
1B1
330
FA
100
AcDbEntity
  8
OracDecor_indirect_lighting
 62
    54
420
  9744667
100
AcDbVertex
100
AcDb2dVertex
 10
-1.133725762367248
 20
-132.6513671875
 30
0.0000017422520386
  0
VERTEX
  5
1B2
330
FA
100
AcDbEntity
  8
OracDecor_indirect_lighting
 62
    54
420
  9744667
100
AcDbVertex
100
AcDb2dVertex
 10
-1.180745720863342
 20
-132.5262756347656
 30
0.0000017422520386
  0
VERTEX
  5
1B3
330
FA
100
AcDbEntity
  8
OracDecor_indirect_lighting
 62
    54
420
  9744667
100
AcDbVertex
100
AcDb2dVertex
 10
-1.219160318374633
 20
-132.3979949951172
 30
0.0000017422520386
  0
VERTEX
  5
1B4
330
FA
100
AcDbEntity
  8
OracDecor_indirect_lighting
 62
    54
420
  9744667
100
AcDbVertex
100
AcDb2dVertex
 10
-1.234961867332458
 20
-132.3328247070312
 30
0.0000017422520386
  0
VERTEX
  5
1B5
330
FA
100
AcDbEntity
  8
OracDecor_indirect_lighting
 62
    54
420
  9744667
100
AcDbVertex
100
AcDb2dVertex
 10
-1.24839699268341
 20
-132.2670745849609
 30
0.0000017422520386
  0
VERTEX
  5
1B6
330
FA
100
AcDbEntity
  8
OracDecor_indirect_lighting
 62
    54
420
  9744667
100
AcDbVertex
100
AcDb2dVertex
 10
-1.259394407272338
 20
-132.2008056640625
 30
0.0000017422520386
  0
VERTEX
  5
1B7
330
FA
100
AcDbEntity
  8
OracDecor_indirect_lighting
 62
    54
420
  9744667
100
AcDbVertex
100
AcDb2dVertex
 10
-1.267882227897644
 20
-132.1340789794922
 30
0.0000017422520386
  0
VERTEX
  5
1B8
330
FA
100
AcDbEntity
  8
OracDecor_indirect_lighting
 62
    54
420
  9744667
100
AcDbVertex
100
AcDb2dVertex
 10
-1.273789048194885
 20
-132.0669555664062
 30
0.0000017422520386
  0
VERTEX
  5
1B9
330
FA
100
AcDbEntity
  8
OracDecor_indirect_lighting
 62
    54
420
  9744667
100
AcDbVertex
100
AcDb2dVertex
 10
-1.277042984962463
 20
-131.9995422363281
 30
0.0000017422520386
  0
VERTEX
  5
1BA
330
FA
100
AcDbEntity
  8
OracDecor_indirect_lighting
 62
    54
420
  9744667
100
AcDbVertex
100
AcDb2dVertex
 10
-1.277572393417358
 20
-131.9318695068359
 30
0.0000017422520386
  0
VERTEX
  5
1BB
330
FA
100
AcDbEntity
  8
OracDecor_indirect_lighting
 62
    54
420
  9744667
100
AcDbVertex
100
AcDb2dVertex
 10
-1.275305867195129
 20
-131.864028930664
 30
0.0000017422520386
  0
VERTEX
  5
1BC
330
FA
100
AcDbEntity
  8
OracDecor_indirect_lighting
 62
    54
420
  9744667
100
AcDbVertex
100
AcDb2dVertex
 10
-1.270171523094177
 20
-131.7960815429687
 30
0.0000017422520386
  0
VERTEX
  5
1BD
330
FA
100
AcDbEntity
  8
OracDecor_indirect_lighting
 62
    54
420
  9744667
100
AcDbVertex
100
AcDb2dVertex
 10
-1.262097835540771
 20
-131.7281036376953
 30
0.0000017422520386
  0
VERTEX
  5
1BE
330
FA
100
AcDbEntity
  8
OracDecor_indirect_lighting
 62
    54
420
  9744667
100
AcDbVertex
100
AcDb2dVertex
 10
-1.251013040542602
 20
-131.66015625
 30
0.0000017422520386
  0
VERTEX
  5
1BF
330
FA
100
AcDbEntity
  8
OracDecor_indirect_lighting
 62
    54
420
  9744667
100
AcDbVertex
100
AcDb2dVertex
 10
-1.236845612525939
 20
-131.5923156738281
 30
0.0000017422520386
  0
VERTEX
  5
1C0
330
FA
100
AcDbEntity
  8
OracDecor_indirect_lighting
 62
    54
420
  9744667
100
AcDbVertex
100
AcDb2dVertex
 10
-1.219523787498474
 20
-131.5246429443359
 30
0.0000017422520386
  0
VERTEX
  5
1C1
330
FA
100
AcDbEntity
  8
OracDecor_indirect_lighting
 62
    54
420
  9744667
100
AcDbVertex
100
AcDb2dVertex
 10
-1.198976039886474
 20
-131.4572143554687
 30
0.0000017422520386
  0
VERTEX
  5
1C2
330
FA
100
AcDbEntity
  8
OracDecor_indirect_lighting
 62
    54
420
  9744667
100
AcDbVertex
100
AcDb2dVertex
 10
-1.175130486488342
 20
-131.3901062011719
 30
0.0000017422520386
  0
VERTEX
  5
1C3
330
FA
100
AcDbEntity
  8
OracDecor_indirect_lighting
 62
    54
420
  9744667
100
AcDbVertex
100
AcDb2dVertex
 10
-1.147915840148925
 20
-131.3233642578125
 30
0.0000017422520386
  0
VERTEX
  5
1C4
330
FA
100
AcDbEntity
  8
OracDecor_indirect_lighting
 62
    54
420
  9744667
100
AcDbVertex
100
AcDb2dVertex
 10
-1.117259979248046
 20
-131.257080078125
 30
0.0000017422520386
  0
VERTEX
  5
1C5
330
FA
100
AcDbEntity
  8
OracDecor_indirect_lighting
 62
    54
420
  9744667
100
AcDbVertex
100
AcDb2dVertex
 10
-1.083091735839843
 20
-131.1913146972656
 30
0.0000017422520386
  0
VERTEX
  5
1C6
330
FA
100
AcDbEntity
  8
OracDecor_indirect_lighting
 62
    54
420
  9744667
100
AcDbVertex
100
AcDb2dVertex
 10
-1.045339226722717
 20
-131.1261596679687
 30
0.0000017422520386
  0
VERTEX
  5
1C7
330
FA
100
AcDbEntity
  8
OracDecor_indirect_lighting
 62
    54
420
  9744667
100
AcDbVertex
100
AcDb2dVertex
 10
-1.003930926322937
 20
-131.0616455078125
 30
0.0000017422520386
  0
VERTEX
  5
1C8
330
FA
100
AcDbEntity
  8
OracDecor_indirect_lighting
 62
    54
420
  9744667
100
AcDbVertex
100
AcDb2dVertex
 10
-0.9587948322296142
 20
-130.9978637695312
 30
0.0000017422520386
  0
VERTEX
  5
1C9
330
FA
100
AcDbEntity
  8
OracDecor_indirect_lighting
 62
    54
420
  9744667
100
AcDbVertex
100
AcDb2dVertex
 10
-0.9098597168922424
 20
-130.9348754882812
 30
0.0000017422520386
  0
VERTEX
  5
1CA
330
FA
100
AcDbEntity
  8
OracDecor_indirect_lighting
 62
    54
420
  9744667
100
AcDbVertex
100
AcDb2dVertex
 10
-0.8570537567138671
 20
-130.8727416992187
 30
0.0000017422520386
  0
VERTEX
  5
1CB
330
FA
100
AcDbEntity
  8
OracDecor_indirect_lighting
 62
    54
420
  9744667
100
AcDbVertex
100
AcDb2dVertex
 10
-0.8003051877021789
 20
-130.8115692138672
 30
0.0000017422520386
  0
VERTEX
  5
1CC
330
FA
100
AcDbEntity
  8
OracDecor_indirect_lighting
 62
    54
420
  9744667
100
AcDbVertex
100
AcDb2dVertex
 10
-0.7395426630973816
 20
-130.7514038085937
 30
0.0000017422520386
  0
VERTEX
  5
1CD
330
FA
100
AcDbEntity
  8
OracDecor_indirect_lighting
 62
    54
420
  9744667
100
AcDbVertex
100
AcDb2dVertex
 10
-0.6746942400932312
 20
-130.6922912597656
 30
0.0000017422520386
  0
VERTEX
  5
1CE
330
FA
100
AcDbEntity
  8
OracDecor_indirect_lighting
 62
    54
420
  9744667
100
AcDbVertex
100
AcDb2dVertex
 10
-0.6056883931159974
 20
-130.6343383789062
 30
0.0000017422520386
  0
VERTEX
  5
1CF
330
FA
100
AcDbEntity
  8
OracDecor_indirect_lighting
 62
    54
420
  9744667
100
AcDbVertex
100
AcDb2dVertex
 10
-0.53245347738266
 20
-130.5776062011718
 30
0.0000017422520386
  0
VERTEX
  5
1D0
330
FA
100
AcDbEntity
  8
OracDecor_indirect_lighting
 62
    54
420
  9744667
100
AcDbVertex
100
AcDb2dVertex
 10
-0.4549177289009095
 20
-130.5221557617187
 30
0.0000017422520386
  0
VERTEX
  5
1D1
330
FA
100
AcDbEntity
  8
OracDecor_indirect_lighting
 62
    54
420
  9744667
100
AcDbVertex
100
AcDb2dVertex
 10
-0.3730096220970154
 20
-130.4680480957031
 30
0.0000017422520386
  0
VERTEX
  5
1D2
330
FA
100
AcDbEntity
  8
OracDecor_indirect_lighting
 62
    54
420
  9744667
100
AcDbVertex
100
AcDb2dVertex
 10
-0.1957897245883942
 20
-130.3641967773437
 30
0.0000017422520386
  0
VERTEX
  5
1D3
330
FA
100
AcDbEntity
  8
OracDecor_indirect_lighting
 62
    54
420
  9744667
100
AcDbVertex
100
AcDb2dVertex
 10
-0.0002204298361903
 20
-130.2665863037109
 30
0.0000017422520386
  0
VERTEX
  5
1D4
330
FA
100
AcDbEntity
  8
OracDecor_indirect_lighting
 62
    54
420
  9744667
100
AcDbVertex
100
AcDb2dVertex
 10
-0.0002196243440267
 20
-121.0528411865234
 30
0.0000017422520386
  0
VERTEX
  5
1D5
330
FA
100
AcDbEntity
  8
OracDecor_indirect_lighting
 62
    54
420
  9744667
100
AcDbVertex
100
AcDb2dVertex
 10
-3.232347011566162
 20
-115.2408447265625
 30
0.0000017422520386
  0
VERTEX
  5
1D6
330
FA
100
AcDbEntity
  8
OracDecor_indirect_lighting
 62
    54
420
  9744667
100
AcDbVertex
100
AcDb2dVertex
 10
-4.806947708129882
 20
-112.7361907958984
 30
0.0000017422520386
  0
VERTEX
  5
1D7
330
FA
100
AcDbEntity
  8
OracDecor_indirect_lighting
 62
    54
420
  9744667
100
AcDbVertex
100
AcDb2dVertex
 10
-6.36470890045166
 20
-110.4611434936523
 30
0.0000017422520386
  0
VERTEX
  5
1D8
330
FA
100
AcDbEntity
  8
OracDecor_indirect_lighting
 62
    54
420
  9744667
100
AcDbVertex
100
AcDb2dVertex
 10
-7.913732528686523
 20
-108.3872680664062
 30
0.0000017422520386
  0
VERTEX
  5
1D9
330
FA
100
AcDbEntity
  8
OracDecor_indirect_lighting
 62
    54
420
  9744667
100
AcDbVertex
100
AcDb2dVertex
 10
-9.462120056152343
 20
-106.4860610961914
 30
0.0000017422520386
  0
VERTEX
  5
1DA
330
FA
100
AcDbEntity
  8
OracDecor_indirect_lighting
 62
    54
420
  9744667
100
AcDbVertex
100
AcDb2dVertex
 10
-11.01797485351562
 20
-104.7291107177734
 30
0.0000017422520386
  0
VERTEX
  5
1DB
330
FA
100
AcDbEntity
  8
OracDecor_indirect_lighting
 62
    54
420
  9744667
100
AcDbVertex
100
AcDb2dVertex
 10
-12.58939552307129
 20
-103.087905883789
 30
0.0000017422520386
  0
VERTEX
  5
1DC
330
FA
100
AcDbEntity
  8
OracDecor_indirect_lighting
 62
    54
420
  9744667
100
AcDbVertex
100
AcDb2dVertex
 10
-15.81134605407715
 20
-100.0389633178711
 30
0.0000017422520386
  0
VERTEX
  5
1DD
330
FA
100
AcDbEntity
  8
OracDecor_indirect_lighting
 62
    54
420
  9744667
100
AcDbVertex
100
AcDb2dVertex
 10
-19.19278907775879
 20
-97.11154174804688
 30
0.0000017422520386
  0
VERTEX
  5
1DE
330
FA
100
AcDbEntity
  8
OracDecor_indirect_lighting
 62
    54
420
  9744667
100
AcDbVertex
100
AcDb2dVertex
 10
-26.69340515136719
 20
-90.71049499511719
 30
0.0000017422520386
  0
VERTEX
  5
1DF
330
FA
100
AcDbEntity
  8
OracDecor_indirect_lighting
 62
    54
420
  9744667
100
AcDbVertex
100
AcDb2dVertex
 10
-27.21480941772461
 20
-90.26492309570313
 30
0.0000017422520386
  0
VERTEX
  5
1E0
330
FA
100
AcDbEntity
  8
OracDecor_indirect_lighting
 62
    54
420
  9744667
100
AcDbVertex
100
AcDb2dVertex
 10
-27.76301956176758
 20
-89.83029174804688
 30
0.0000017422520386
  0
VERTEX
  5
1E1
330
FA
100
AcDbEntity
  8
OracDecor_indirect_lighting
 62
    54
420
  9744667
100
AcDbVertex
100
AcDb2dVertex
 10
-28.93544197082519
 20
-88.99105834960938
 30
0.0000017422520386
  0
VERTEX
  5
1E2
330
FA
100
AcDbEntity
  8
OracDecor_indirect_lighting
 62
    54
420
  9744667
100
AcDbVertex
100
AcDb2dVertex
 10
-30.20182418823242
 20
-88.18717193603516
 30
0.0000017422520386
  0
VERTEX
  5
1E3
330
FA
100
AcDbEntity
  8
OracDecor_indirect_lighting
 62
    54
420
  9744667
100
AcDbVertex
100
AcDb2dVertex
 10
-31.55330848693848
 20
-87.41305541992188
 30
0.0000017422520386
  0
VERTEX
  5
1E4
330
FA
100
AcDbEntity
  8
OracDecor_indirect_lighting
 62
    54
420
  9744667
100
AcDbVertex
100
AcDb2dVertex
 10
-34.47616577148437
 20
-85.93153381347656
 30
0.0000017422520386
  0
VERTEX
  5
1E5
330
FA
100
AcDbEntity
  8
OracDecor_indirect_lighting
 62
    54
420
  9744667
100
AcDbVertex
100
AcDb2dVertex
 10
-37.6331901550293
 20
-84.50154113769531
 30
0.0000017422520386
  0
VERTEX
  5
1E6
330
FA
100
AcDbEntity
  8
OracDecor_indirect_lighting
 62
    54
420
  9744667
100
AcDbVertex
100
AcDb2dVertex
 10
-44.36641693115234
 20
-81.61640930175781
 30
0.0000017422520386
  0
VERTEX
  5
1E7
330
FA
100
AcDbEntity
  8
OracDecor_indirect_lighting
 62
    54
420
  9744667
100
AcDbVertex
100
AcDb2dVertex
 10
-47.80096054077148
 20
-80.07134246826172
 30
0.0000017422520386
  0
VERTEX
  5
1E8
330
FA
100
AcDbEntity
  8
OracDecor_indirect_lighting
 62
    54
420
  9744667
100
AcDbVertex
100
AcDb2dVertex
 10
-51.18634414672851
 20
-78.39802551269531
 30
0.0000017422520386
  0
VERTEX
  5
1E9
330
FA
100
AcDbEntity
  8
OracDecor_indirect_lighting
 62
    54
420
  9744667
100
AcDbVertex
100
AcDb2dVertex
 10
-54.45174407958984
 20
-76.55148315429688
 30
0.0000017422520386
  0
VERTEX
  5
1EA
330
FA
100
AcDbEntity
  8
OracDecor_indirect_lighting
 62
    54
420
  9744667
100
AcDbVertex
100
AcDb2dVertex
 10
-56.01731491088867
 20
-75.54921722412109
 30
0.0000017422520386
  0
VERTEX
  5
1EB
330
FA
100
AcDbEntity
  8
OracDecor_indirect_lighting
 62
    54
420
  9744667
100
AcDbVertex
100
AcDb2dVertex
 10
-57.52632141113281
 20
-74.4867935180664
 30
0.0000017422520386
  0
VERTEX
  5
1EC
330
FA
100
AcDbEntity
  8
OracDecor_indirect_lighting
 62
    54
420
  9744667
100
AcDbVertex
100
AcDb2dVertex
 10
-58.96992874145507
 20
-73.35859680175781
 30
0.0000017422520386
  0
VERTEX
  5
1ED
330
FA
100
AcDbEntity
  8
OracDecor_indirect_lighting
 62
    54
420
  9744667
100
AcDbVertex
100
AcDb2dVertex
 10
-60.33926391601562
 20
-72.15898895263672
 30
0.0000017422520386
  0
VERTEX
  5
1EE
330
FA
100
AcDbEntity
  8
OracDecor_indirect_lighting
 62
    54
420
  9744667
100
AcDbVertex
100
AcDb2dVertex
 10
-61.62548065185546
 20
-70.88237762451171
 30
0.0000017422520386
  0
VERTEX
  5
1EF
330
FA
100
AcDbEntity
  8
OracDecor_indirect_lighting
 62
    54
420
  9744667
100
AcDbVertex
100
AcDb2dVertex
 10
-62.23465728759766
 20
-70.21343231201171
 30
0.0000017422520386
  0
VERTEX
  5
1F0
330
FA
100
AcDbEntity
  8
OracDecor_indirect_lighting
 62
    54
420
  9744667
100
AcDbVertex
100
AcDb2dVertex
 10
-62.81972503662109
 20
-69.52313232421875
 30
0.0000017422520386
  0
VERTEX
  5
1F1
330
FA
100
AcDbEntity
  8
OracDecor_indirect_lighting
 62
    54
420
  9744667
100
AcDbVertex
100
AcDb2dVertex
 10
-63.37958908081055
 20
-68.81076049804687
 30
0.0000017422520386
  0
VERTEX
  5
1F2
330
FA
100
AcDbEntity
  8
OracDecor_indirect_lighting
 62
    54
420
  9744667
100
AcDbVertex
100
AcDb2dVertex
 10
-63.91314697265625
 20
-68.07563018798828
 30
0.0000017422520386
  0
VERTEX
  5
1F3
330
FA
100
AcDbEntity
  8
OracDecor_indirect_lighting
 62
    54
420
  9744667
100
AcDbVertex
100
AcDb2dVertex
 10
-64.41927337646484
 20
-67.31703948974609
 30
0.0000017422520386
  0
VERTEX
  5
1F4
330
FA
100
AcDbEntity
  8
OracDecor_indirect_lighting
 62
    54
420
  9744667
100
AcDbVertex
100
AcDb2dVertex
 10
-64.89688110351562
 20
-66.53427124023437
 30
0.0000017422520386
  0
VERTEX
  5
1F5
330
FA
100
AcDbEntity
  8
OracDecor_indirect_lighting
 62
    54
420
  9744667
100
AcDbVertex
100
AcDb2dVertex
 10
-65.34485626220703
 20
-65.72663116455078
 30
0.0000017422520386
  0
VERTEX
  5
1F6
330
FA
100
AcDbEntity
  8
OracDecor_indirect_lighting
 62
    54
420
  9744667
100
AcDbVertex
100
AcDb2dVertex
 10
-65.7620849609375
 20
-64.8934097290039
 30
0.0000017422520386
  0
VERTEX
  5
1F7
330
FA
100
AcDbEntity
  8
OracDecor_indirect_lighting
 62
    54
420
  9744667
100
AcDbVertex
100
AcDb2dVertex
 10
-66.14747619628906
 20
-64.0339126586914
 30
0.0000017422520386
  0
VERTEX
  5
1F8
330
FA
100
AcDbEntity
  8
OracDecor_indirect_lighting
 62
    54
420
  9744667
100
AcDbVertex
100
AcDb2dVertex
 10
-66.49990844726563
 20
-63.14743423461914
 30
0.0000017422520386
  0
VERTEX
  5
1F9
330
FA
100
AcDbEntity
  8
OracDecor_indirect_lighting
 62
    54
420
  9744667
100
AcDbVertex
100
AcDb2dVertex
 10
-66.81827545166015
 20
-62.2332763671875
 30
0.0000017422520386
  0
VERTEX
  5
1FA
330
FA
100
AcDbEntity
  8
OracDecor_indirect_lighting
 62
    54
420
  9744667
100
AcDbVertex
100
AcDb2dVertex
 10
-67.10147857666015
 20
-61.29073715209961
 30
0.0000017422520386
  0
VERTEX
  5
1FB
330
FA
100
AcDbEntity
  8
OracDecor_indirect_lighting
 62
    54
420
  9744667
100
AcDbVertex
100
AcDb2dVertex
 10
-67.34840393066406
 20
-60.31911087036132
 30
0.0000017422520386
  0
VERTEX
  5
1FC
330
FA
100
AcDbEntity
  8
OracDecor_indirect_lighting
 62
    54
420
  9744667
100
AcDbVertex
100
AcDb2dVertex
 10
-67.55795288085938
 20
-59.31769561767578
 30
0.0000017422520386
  0
VERTEX
  5
1FD
330
FA
100
AcDbEntity
  8
OracDecor_indirect_lighting
 62
    54
420
  9744667
100
AcDbVertex
100
AcDb2dVertex
 10
-67.72901916503906
 20
-58.28579330444336
 30
0.0000017422520386
  0
VERTEX
  5
1FE
330
FA
100
AcDbEntity
  8
OracDecor_indirect_lighting
 62
    54
420
  9744667
100
AcDbVertex
100
AcDb2dVertex
 10
-67.86048889160156
 20
-57.22269439697265
 30
0.0000017422520386
  0
VERTEX
  5
1FF
330
FA
100
AcDbEntity
  8
OracDecor_indirect_lighting
 62
    54
420
  9744667
100
AcDbVertex
100
AcDb2dVertex
 10
-67.95125579833984
 20
-56.1276969909668
 30
0.0000017422520386
  0
VERTEX
  5
200
330
FA
100
AcDbEntity
  8
OracDecor_indirect_lighting
 62
    54
420
  9744667
100
AcDbVertex
100
AcDb2dVertex
 10
-68.00021362304687
 20
-55.00010299682617
 30
0.0000017422520386
  0
VERTEX
  5
201
330
FA
100
AcDbEntity
  8
OracDecor_indirect_lighting
 62
    54
420
  9744667
100
AcDbVertex
100
AcDb2dVertex
 10
-67.99600982666015
 20
-53.54197311401367
 30
0.0000017422520386
  0
VERTEX
  5
202
330
FA
100
AcDbEntity
  8
OracDecor_indirect_lighting
 62
    54
420
  9744667
100
AcDbVertex
100
AcDb2dVertex
 10
-67.91808319091797
 20
-52.07014083862304
 30
0.0000017422520386
  0
VERTEX
  5
203
330
FA
100
AcDbEntity
  8
OracDecor_indirect_lighting
 62
    54
420
  9744667
100
AcDbVertex
100
AcDb2dVertex
 10
-67.77372741699219
 20
-50.59373474121094
 30
0.0000017422520386
  0
VERTEX
  5
204
330
FA
100
AcDbEntity
  8
OracDecor_indirect_lighting
 62
    54
420
  9744667
100
AcDbVertex
100
AcDb2dVertex
 10
-67.57012176513672
 20
-49.12190628051757
 30
0.0000017422520386
  0
VERTEX
  5
205
330
FA
100
AcDbEntity
  8
OracDecor_indirect_lighting
 62
    54
420
  9744667
100
AcDbVertex
100
AcDb2dVertex
 10
-67.01421356201172
 20
-46.22855377197265
 30
0.0000017422520386
  0
VERTEX
  5
206
330
FA
100
AcDbEntity
  8
OracDecor_indirect_lighting
 62
    54
420
  9744667
100
AcDbVertex
100
AcDb2dVertex
 10
-66.30824279785156
 20
-43.46321868896484
 30
0.0000017422520386
  0
VERTEX
  5
207
330
FA
100
AcDbEntity
  8
OracDecor_indirect_lighting
 62
    54
420
  9744667
100
AcDbVertex
100
AcDb2dVertex
 10
-65.51011657714844
 20
-40.89902877807617
 30
0.0000017422520386
  0
VERTEX
  5
208
330
FA
100
AcDbEntity
  8
OracDecor_indirect_lighting
 62
    54
420
  9744667
100
AcDbVertex
100
AcDb2dVertex
 10
-64.67770385742188
 20
-38.60914611816406
 30
0.0000017422520386
  0
VERTEX
  5
209
330
FA
100
AcDbEntity
  8
OracDecor_indirect_lighting
 62
    54
420
  9744667
100
AcDbVertex
100
AcDb2dVertex
 10
-63.86890029907227
 20
-36.66669464111328
 30
0.0000017422520386
  0
VERTEX
  5
20A
330
FA
100
AcDbEntity
  8
OracDecor_indirect_lighting
 62
    54
420
  9744667
100
AcDbVertex
100
AcDb2dVertex
 10
-63.14160919189453
 20
-35.14482116699219
 30
0.0000017422520386
  0
VERTEX
  5
20B
330
FA
100
AcDbEntity
  8
OracDecor_indirect_lighting
 62
    54
420
  9744667
100
AcDbVertex
100
AcDb2dVertex
 10
-62.98368453979492
 20
-34.85259246826172
 30
0.0000017422520386
  0
VERTEX
  5
20C
330
FA
100
AcDbEntity
  8
OracDecor_indirect_lighting
 62
    54
420
  9744667
100
AcDbVertex
100
AcDb2dVertex
 10
-62.81996536254883
 20
-34.57350540161133
 30
0.0000017422520386
  0
VERTEX
  5
20D
330
FA
100
AcDbEntity
  8
OracDecor_indirect_lighting
 62
    54
420
  9744667
100
AcDbVertex
100
AcDb2dVertex
 10
-62.6506462097168
 20
-34.30728912353516
 30
0.0000017422520386
  0
VERTEX
  5
20E
330
FA
100
AcDbEntity
  8
OracDecor_indirect_lighting
 62
    54
420
  9744667
100
AcDbVertex
100
AcDb2dVertex
 10
-62.4759750366211
 20
-34.05362701416016
 30
0.0000017422520386
  0
VERTEX
  5
20F
330
FA
100
AcDbEntity
  8
OracDecor_indirect_lighting
 62
    54
420
  9744667
100
AcDbVertex
100
AcDb2dVertex
 10
-62.29618072509765
 20
-33.81223297119141
 30
0.0000017422520386
  0
VERTEX
  5
210
330
FA
100
AcDbEntity
  8
OracDecor_indirect_lighting
 62
    54
420
  9744667
100
AcDbVertex
100
AcDb2dVertex
 10
-62.11146926879883
 20
-33.58279800415039
 30
0.0000017422520386
  0
VERTEX
  5
211
330
FA
100
AcDbEntity
  8
OracDecor_indirect_lighting
 62
    54
420
  9744667
100
AcDbVertex
100
AcDb2dVertex
 10
-61.92208480834961
 20
-33.36503601074219
 30
0.0000017422520386
  0
VERTEX
  5
212
330
FA
100
AcDbEntity
  8
OracDecor_indirect_lighting
 62
    54
420
  9744667
100
AcDbVertex
100
AcDb2dVertex
 10
-61.72824096679687
 20
-33.15864181518555
 30
0.0000017422520386
  0
VERTEX
  5
213
330
FA
100
AcDbEntity
  8
OracDecor_indirect_lighting
 62
    54
420
  9744667
100
AcDbVertex
100
AcDb2dVertex
 10
-61.53017044067382
 20
-32.96332550048828
 30
0.0000017422520386
  0
VERTEX
  5
214
330
FA
100
AcDbEntity
  8
OracDecor_indirect_lighting
 62
    54
420
  9744667
100
AcDbVertex
100
AcDb2dVertex
 10
-61.32809066772461
 20
-32.77878570556641
 30
0.0000017422520386
  0
VERTEX
  5
215
330
FA
100
AcDbEntity
  8
OracDecor_indirect_lighting
 62
    54
420
  9744667
100
AcDbVertex
100
AcDb2dVertex
 10
-61.12223434448242
 20
-32.60472106933594
 30
0.0000017422520386
  0
VERTEX
  5
216
330
FA
100
AcDbEntity
  8
OracDecor_indirect_lighting
 62
    54
420
  9744667
100
AcDbVertex
100
AcDb2dVertex
 10
-60.91282272338867
 20
-32.44084167480469
 30
0.0000017422520386
  0
VERTEX
  5
217
330
FA
100
AcDbEntity
  8
OracDecor_indirect_lighting
 62
    54
420
  9744667
100
AcDbVertex
100
AcDb2dVertex
 10
-60.7000732421875
 20
-32.28684616088867
 30
0.0000017422520386
  0
VERTEX
  5
218
330
FA
100
AcDbEntity
  8
OracDecor_indirect_lighting
 62
    54
420
  9744667
100
AcDbVertex
100
AcDb2dVertex
 10
-60.48422622680664
 20
-32.14244079589844
 30
0.0000017422520386
  0
VERTEX
  5
219
330
FA
100
AcDbEntity
  8
OracDecor_indirect_lighting
 62
    54
420
  9744667
100
AcDbVertex
100
AcDb2dVertex
 10
-60.26549911499023
 20
-32.00732421875
 30
0.0000017422520386
  0
VERTEX
  5
21A
330
FA
100
AcDbEntity
  8
OracDecor_indirect_lighting
 62
    54
420
  9744667
100
AcDbVertex
100
AcDb2dVertex
 10
-60.04411697387695
 20
-31.88120079040527
 30
0.0000017422520386
  0
VERTEX
  5
21B
330
FA
100
AcDbEntity
  8
OracDecor_indirect_lighting
 62
    54
420
  9744667
100
AcDbVertex
100
AcDb2dVertex
 10
-59.59428787231445
 20
-31.65474319458008
 30
0.0000017422520386
  0
VERTEX
  5
21C
330
FA
100
AcDbEntity
  8
OracDecor_indirect_lighting
 62
    54
420
  9744667
100
AcDbVertex
100
AcDb2dVertex
 10
-59.13654327392578
 20
-31.460693359375
 30
0.0000017422520386
  0
VERTEX
  5
21D
330
FA
100
AcDbEntity
  8
OracDecor_indirect_lighting
 62
    54
420
  9744667
100
AcDbVertex
100
AcDb2dVertex
 10
-58.67269134521484
 20
-31.29667091369629
 30
0.0000017422520386
  0
VERTEX
  5
21E
330
FA
100
AcDbEntity
  8
OracDecor_indirect_lighting
 62
    54
420
  9744667
100
AcDbVertex
100
AcDb2dVertex
 10
-58.20452117919922
 20
-31.16029739379883
 30
0.0000017422520386
  0
VERTEX
  5
21F
330
FA
100
AcDbEntity
  8
OracDecor_indirect_lighting
 62
    54
420
  9744667
100
AcDbVertex
100
AcDb2dVertex
 10
-57.73383331298828
 20
-31.0491943359375
 30
0.0000017422520386
  0
VERTEX
  5
220
330
FA
100
AcDbEntity
  8
OracDecor_indirect_lighting
 62
    54
420
  9744667
100
AcDbVertex
100
AcDb2dVertex
 10
-57.26244354248047
 20
-30.96098709106446
 30
0.0000017422520386
  0
VERTEX
  5
221
330
FA
100
AcDbEntity
  8
OracDecor_indirect_lighting
 62
    54
420
  9744667
100
AcDbVertex
100
AcDb2dVertex
 10
-56.79214477539062
 20
-30.89329338073731
 30
0.0000017422520386
  0
VERTEX
  5
222
330
FA
100
AcDbEntity
  8
OracDecor_indirect_lighting
 62
    54
420
  9744667
100
AcDbVertex
100
AcDb2dVertex
 10
-56.32473754882813
 20
-30.84373664855957
 30
0.0000017422520386
  0
VERTEX
  5
223
330
FA
100
AcDbEntity
  8
OracDecor_indirect_lighting
 62
    54
420
  9744667
100
AcDbVertex
100
AcDb2dVertex
 10
-0.000169604390976
 20
-28.87681770324707
 30
0.0000017422520386
  0
VERTEX
  5
224
330
FA
100
AcDbEntity
  8
OracDecor_indirect_lighting
 62
    54
420
  9744667
100
AcDbVertex
100
AcDb2dVertex
 10
-0.0001692312362138
 20
-24.60850524902344
 30
0.0000017422520386
  0
VERTEX
  5
225
330
FA
100
AcDbEntity
  8
OracDecor_indirect_lighting
 62
    54
420
  9744667
100
AcDbVertex
100
AcDb2dVertex
 10
-0.0690855905413628
 20
-24.58382987976075
 30
0.0000017422520386
  0
VERTEX
  5
226
330
FA
100
AcDbEntity
  8
OracDecor_indirect_lighting
 62
    54
420
  9744667
100
AcDbVertex
100
AcDb2dVertex
 10
-0.1364651322364807
 20
-24.55683898925781
 30
0.0000017422520386
  0
VERTEX
  5
227
330
FA
100
AcDbEntity
  8
OracDecor_indirect_lighting
 62
    54
420
  9744667
100
AcDbVertex
100
AcDb2dVertex
 10
-0.2022763639688492
 20
-24.5275936126709
 30
0.0000017422520386
  0
VERTEX
  5
228
330
FA
100
AcDbEntity
  8
OracDecor_indirect_lighting
 62
    54
420
  9744667
100
AcDbVertex
100
AcDb2dVertex
 10
-0.2664877474308014
 20
-24.49616241455078
 30
0.0000017422520386
  0
VERTEX
  5
229
330
FA
100
AcDbEntity
  8
OracDecor_indirect_lighting
 62
    54
420
  9744667
100
AcDbVertex
100
AcDb2dVertex
 10
-0.3290678262710571
 20
-24.46261405944824
 30
0.0000017422520386
  0
VERTEX
  5
22A
330
FA
100
AcDbEntity
  8
OracDecor_indirect_lighting
 62
    54
420
  9744667
100
AcDbVertex
100
AcDb2dVertex
 10
-0.3899850845336914
 20
-24.42701530456543
 30
0.0000017422520386
  0
VERTEX
  5
22B
330
FA
100
AcDbEntity
  8
OracDecor_indirect_lighting
 62
    54
420
  9744667
100
AcDbVertex
100
AcDb2dVertex
 10
-0.4492080211639405
 20
-24.3894271850586
 30
0.0000017422520386
  0
VERTEX
  5
22C
330
FA
100
AcDbEntity
  8
OracDecor_indirect_lighting
 62
    54
420
  9744667
100
AcDbVertex
100
AcDb2dVertex
 10
-0.5067051649093628
 20
-24.34992599487305
 30
0.0000017422520386
  0
VERTEX
  5
22D
330
FA
100
AcDbEntity
  8
OracDecor_indirect_lighting
 62
    54
420
  9744667
100
AcDbVertex
100
AcDb2dVertex
 10
-0.5624448657035828
 20
-24.30857086181641
 30
0.0000017422520386
  0
VERTEX
  5
22E
330
FA
100
AcDbEntity
  8
OracDecor_indirect_lighting
 62
    54
420
  9744667
100
AcDbVertex
100
AcDb2dVertex
 10
-0.6163958907127381
 20
-24.26543426513672
 30
0.0000017422520386
  0
VERTEX
  5
22F
330
FA
100
AcDbEntity
  8
OracDecor_indirect_lighting
 62
    54
420
  9744667
100
AcDbVertex
100
AcDb2dVertex
 10
-0.6685264110565186
 20
-24.22057723999023
 30
0.0000017422520386
  0
VERTEX
  5
230
330
FA
100
AcDbEntity
  8
OracDecor_indirect_lighting
 62
    54
420
  9744667
100
AcDbVertex
100
AcDb2dVertex
 10
-0.7188053131103516
 20
-24.174072265625
 30
0.0000017422520386
  0
VERTEX
  5
231
330
FA
100
AcDbEntity
  8
OracDecor_indirect_lighting
 62
    54
420
  9744667
100
AcDbVertex
100
AcDb2dVertex
 10
-0.7672008275985718
 20
-24.12598419189453
 30
0.0000017422520386
  0
VERTEX
  5
232
330
FA
100
AcDbEntity
  8
OracDecor_indirect_lighting
 62
    54
420
  9744667
100
AcDbVertex
100
AcDb2dVertex
 10
-0.8136814832687377
 20
-24.07637596130371
 30
0.0000017422520386
  0
VERTEX
  5
233
330
FA
100
AcDbEntity
  8
OracDecor_indirect_lighting
 62
    54
420
  9744667
100
AcDbVertex
100
AcDb2dVertex
 10
-0.8582158088684082
 20
-24.02532196044922
 30
0.0000017422520386
  0
VERTEX
  5
234
330
FA
100
AcDbEntity
  8
OracDecor_indirect_lighting
 62
    54
420
  9744667
100
AcDbVertex
100
AcDb2dVertex
 10
-0.9007723331451416
 20
-23.9728832244873
 30
0.0000017422520386
  0
VERTEX
  5
235
330
FA
100
AcDbEntity
  8
OracDecor_indirect_lighting
 62
    54
420
  9744667
100
AcDbVertex
100
AcDb2dVertex
 10
-0.9413195252418518
 20
-23.91912841796875
 30
0.0000017422520386
  0
VERTEX
  5
236
330
FA
100
AcDbEntity
  8
OracDecor_indirect_lighting
 62
    54
420
  9744667
100
AcDbVertex
100
AcDb2dVertex
 10
-0.9798259139060974
 20
-23.86412811279297
 30
0.0000017422520386
  0
VERTEX
  5
237
330
FA
100
AcDbEntity
  8
OracDecor_indirect_lighting
 62
    54
420
  9744667
100
AcDbVertex
100
AcDb2dVertex
 10
-1.016259908676147
 20
-23.80794334411621
 30
0.0000017422520386
  0
VERTEX
  5
238
330
FA
100
AcDbEntity
  8
OracDecor_indirect_lighting
 62
    54
420
  9744667
100
AcDbVertex
100
AcDb2dVertex
 10
-1.050590276718139
 20
-23.75064468383789
 30
0.0000017422520386
  0
VERTEX
  5
239
330
FA
100
AcDbEntity
  8
OracDecor_indirect_lighting
 62
    54
420
  9744667
100
AcDbVertex
100
AcDb2dVertex
 10
-1.082785129547119
 20
-23.69230079650879
 30
0.0000017422520386
  0
VERTEX
  5
23A
330
FA
100
AcDbEntity
  8
OracDecor_indirect_lighting
 62
    54
420
  9744667
100
AcDbVertex
100
AcDb2dVertex
 10
-1.112813234329223
 20
-23.63297271728516
 30
0.0000017422520386
  0
VERTEX
  5
23B
330
FA
100
AcDbEntity
  8
OracDecor_indirect_lighting
 62
    54
420
  9744667
100
AcDbVertex
100
AcDb2dVertex
 10
-1.140643119812011
 20
-23.57273101806641
 30
0.0000017422520386
  0
VERTEX
  5
23C
330
FA
100
AcDbEntity
  8
OracDecor_indirect_lighting
 62
    54
420
  9744667
100
AcDbVertex
100
AcDb2dVertex
 10
-1.166243076324462
 20
-23.51164054870606
 30
0.0000017422520386
  0
VERTEX
  5
23D
330
FA
100
AcDbEntity
  8
OracDecor_indirect_lighting
 62
    54
420
  9744667
100
AcDbVertex
100
AcDb2dVertex
 10
-1.189581632614135
 20
-23.44977188110352
 30
0.0000017422520386
  0
VERTEX
  5
23E
330
FA
100
AcDbEntity
  8
OracDecor_indirect_lighting
 62
    54
420
  9744667
100
AcDbVertex
100
AcDb2dVertex
 10
-1.210627436637878
 20
-23.38718986511231
 30
0.0000017422520386
  0
VERTEX
  5
23F
330
FA
100
AcDbEntity
  8
OracDecor_indirect_lighting
 62
    54
420
  9744667
100
AcDbVertex
100
AcDb2dVertex
 10
-1.229348897933959
 20
-23.32395935058594
 30
0.0000017422520386
  0
VERTEX
  5
240
330
FA
100
AcDbEntity
  8
OracDecor_indirect_lighting
 62
    54
420
  9744667
100
AcDbVertex
100
AcDb2dVertex
 10
-1.245714664459228
 20
-23.26014900207519
 30
0.0000017422520386
  0
VERTEX
  5
241
330
FA
100
AcDbEntity
  8
OracDecor_indirect_lighting
 62
    54
420
  9744667
100
AcDbVertex
100
AcDb2dVertex
 10
-1.259692907333374
 20
-23.19582748413086
 30
0.0000017422520386
  0
VERTEX
  5
242
330
FA
100
AcDbEntity
  8
OracDecor_indirect_lighting
 62
    54
420
  9744667
100
AcDbVertex
100
AcDb2dVertex
 10
-1.271252512931823
 20
-23.13106155395508
 30
0.0000017422520386
  0
VERTEX
  5
243
330
FA
100
AcDbEntity
  8
OracDecor_indirect_lighting
 62
    54
420
  9744667
100
AcDbVertex
100
AcDb2dVertex
 10
-1.280361533164978
 20
-23.06591415405273
 30
0.0000017422520386
  0
VERTEX
  5
244
330
FA
100
AcDbEntity
  8
OracDecor_indirect_lighting
 62
    54
420
  9744667
100
AcDbVertex
100
AcDb2dVertex
 10
-1.286989092826843
 20
-23.00045585632324
 30
0.0000017422520386
  0
VERTEX
  5
245
330
FA
100
AcDbEntity
  8
OracDecor_indirect_lighting
 62
    54
420
  9744667
100
AcDbVertex
100
AcDb2dVertex
 10
-1.29110300540924
 20
-22.93475341796875
 30
0.0000017422520386
  0
VERTEX
  5
246
330
FA
100
AcDbEntity
  8
OracDecor_indirect_lighting
 62
    54
420
  9744667
100
AcDbVertex
100
AcDb2dVertex
 10
-1.292672276496887
 20
-22.86886978149414
 30
0.0000017422520386
  0
VERTEX
  5
247
330
FA
100
AcDbEntity
  8
OracDecor_indirect_lighting
 62
    54
420
  9744667
100
AcDbVertex
100
AcDb2dVertex
 10
-1.291665315628051
 20
-22.80287933349609
 30
0.0000017422520386
  0
VERTEX
  5
248
330
FA
100
AcDbEntity
  8
OracDecor_indirect_lighting
 62
    54
420
  9744667
100
AcDbVertex
100
AcDb2dVertex
 10
-1.288050413131713
 20
-22.73683929443359
 30
0.0000017422520386
  0
VERTEX
  5
249
330
FA
100
AcDbEntity
  8
OracDecor_indirect_lighting
 62
    54
420
  9744667
100
AcDbVertex
100
AcDb2dVertex
 10
-1.281796216964721
 20
-22.67082595825195
 30
0.0000017422520386
  0
VERTEX
  5
24A
330
FA
100
AcDbEntity
  8
OracDecor_indirect_lighting
 62
    54
420
  9744667
100
AcDbVertex
100
AcDb2dVertex
 10
-1.272871255874633
 20
-22.60490036010742
 30
0.0000017422520386
  0
VERTEX
  5
24B
330
FA
100
AcDbEntity
  8
OracDecor_indirect_lighting
 62
    54
420
  9744667
100
AcDbVertex
100
AcDb2dVertex
 10
-1.261243820190429
 20
-22.53913307189941
 30
0.0000017422520386
  0
VERTEX
  5
24C
330
FA
100
AcDbEntity
  8
OracDecor_indirect_lighting
 62
    54
420
  9744667
100
AcDbVertex
100
AcDb2dVertex
 10
-1.246882677078247
 20
-22.47358703613281
 30
0.0000017422520386
  0
VERTEX
  5
24D
330
FA
100
AcDbEntity
  8
OracDecor_indirect_lighting
 62
    54
420
  9744667
100
AcDbVertex
100
AcDb2dVertex
 10
-1.229756236076354
 20
-22.4083309173584
 30
0.0000017422520386
  0
VERTEX
  5
24E
330
FA
100
AcDbEntity
  8
OracDecor_indirect_lighting
 62
    54
420
  9744667
100
AcDbVertex
100
AcDb2dVertex
 10
-1.209832787513732
 20
-22.34343338012696
 30
0.0000017422520386
  0
VERTEX
  5
24F
330
FA
100
AcDbEntity
  8
OracDecor_indirect_lighting
 62
    54
420
  9744667
100
AcDbVertex
100
AcDb2dVertex
 10
-1.187081217765808
 20
-22.27895927429199
 30
0.0000017422520386
  0
VERTEX
  5
250
330
FA
100
AcDbEntity
  8
OracDecor_indirect_lighting
 62
    54
420
  9744667
100
AcDbVertex
100
AcDb2dVertex
 10
-1.16146969795227
 20
-22.21497535705566
 30
0.0000017422520386
  0
VERTEX
  5
251
330
FA
100
AcDbEntity
  8
OracDecor_indirect_lighting
 62
    54
420
  9744667
100
AcDbVertex
100
AcDb2dVertex
 10
-1.132966995239257
 20
-22.15155029296875
 30
0.0000017422520386
  0
VERTEX
  5
252
330
FA
100
AcDbEntity
  8
OracDecor_indirect_lighting
 62
    54
420
  9744667
100
AcDbVertex
100
AcDb2dVertex
 10
-1.101541399955749
 20
-22.0887508392334
 30
0.0000017422520386
  0
VERTEX
  5
253
330
FA
100
AcDbEntity
  8
OracDecor_indirect_lighting
 62
    54
420
  9744667
100
AcDbVertex
100
AcDb2dVertex
 10
-1.067161440849304
 20
-22.02664184570313
 30
0.0000017422520386
  0
VERTEX
  5
254
330
FA
100
AcDbEntity
  8
OracDecor_indirect_lighting
 62
    54
420
  9744667
100
AcDbVertex
100
AcDb2dVertex
 10
-1.02979576587677
 20
-21.96529197692871
 30
0.0000017422520386
  0
VERTEX
  5
255
330
FA
100
AcDbEntity
  8
OracDecor_indirect_lighting
 62
    54
420
  9744667
100
AcDbVertex
100
AcDb2dVertex
 10
-0.9894127249717712
 20
-21.9047679901123
 30
0.0000017422520386
  0
VERTEX
  5
256
330
FA
100
AcDbEntity
  8
OracDecor_indirect_lighting
 62
    54
420
  9744667
100
AcDbVertex
100
AcDb2dVertex
 10
-0.9459808468818664
 20
-21.84513473510742
 30
0.0000017422520386
  0
VERTEX
  5
257
330
FA
100
AcDbEntity
  8
OracDecor_indirect_lighting
 62
    54
420
  9744667
100
AcDbVertex
100
AcDb2dVertex
 10
-0.8994686603546142
 20
-21.78646278381348
 30
0.0000017422520386
  0
VERTEX
  5
258
330
FA
100
AcDbEntity
  8
OracDecor_indirect_lighting
 62
    54
420
  9744667
100
AcDbVertex
100
AcDb2dVertex
 10
-0.8498446941375732
 20
-21.72881698608398
 30
0.0000017422520386
  0
VERTEX
  5
259
330
FA
100
AcDbEntity
  8
OracDecor_indirect_lighting
 62
    54
420
  9744667
100
AcDbVertex
100
AcDb2dVertex
 10
-0.7970774173736573
 20
-21.67226409912109
 30
0.0000017422520386
  0
VERTEX
  5
25A
330
FA
100
AcDbEntity
  8
OracDecor_indirect_lighting
 62
    54
420
  9744667
100
AcDbVertex
100
AcDb2dVertex
 10
-0.7411352396011353
 20
-21.61687088012695
 30
0.0000017422520386
  0
VERTEX
  5
25B
330
FA
100
AcDbEntity
  8
OracDecor_indirect_lighting
 62
    54
420
  9744667
100
AcDbVertex
100
AcDb2dVertex
 10
-0.6819868683815003
 20
-21.56270408630371
 30
0.0000017422520386
  0
VERTEX
  5
25C
330
FA
100
AcDbEntity
  8
OracDecor_indirect_lighting
 62
    54
420
  9744667
100
AcDbVertex
100
AcDb2dVertex
 10
-0.619600534439087
 20
-21.50983238220215
 30
0.0000017422520386
  0
VERTEX
  5
25D
330
FA
100
AcDbEntity
  8
OracDecor_indirect_lighting
 62
    54
420
  9744667
100
AcDbVertex
100
AcDb2dVertex
 10
-0.5539449453353882
 20
-21.45832061767578
 30
0.0000017422520386
  0
VERTEX
  5
25E
330
FA
100
AcDbEntity
  8
OracDecor_indirect_lighting
 62
    54
420
  9744667
100
AcDbVertex
100
AcDb2dVertex
 10
-0.4849885404109955
 20
-21.40823745727539
 30
0.0000017422520386
  0
VERTEX
  5
25F
330
FA
100
AcDbEntity
  8
OracDecor_indirect_lighting
 62
    54
420
  9744667
100
AcDbVertex
100
AcDb2dVertex
 10
-0.4126997888088227
 20
-21.35964965820313
 30
0.0000017422520386
  0
VERTEX
  5
260
330
FA
100
AcDbEntity
  8
OracDecor_indirect_lighting
 62
    54
420
  9744667
100
AcDbVertex
100
AcDb2dVertex
 10
-0.3370473086833954
 20
-21.3126220703125
 30
0.0000017422520386
  0
VERTEX
  5
261
330
FA
100
AcDbEntity
  8
OracDecor_indirect_lighting
 62
    54
420
  9744667
100
AcDbVertex
100
AcDb2dVertex
 10
-0.1755247265100479
 20
-21.22351837158203
 30
0.0000017422520386
  0
VERTEX
  5
262
330
FA
100
AcDbEntity
  8
OracDecor_indirect_lighting
 62
    54
420
  9744667
100
AcDbVertex
100
AcDb2dVertex
 10
-0.0001689281343715
 20
-21.14146423339844
 30
0.0000017422520386
  0
SEQEND
  5
263
330
FA
100
AcDbEntity
  8
OracDecor_indirect_lighting
 62
    54
420
  9744667
  0
ENDSEC
  0
SECTION
  2
OBJECTS
  0
DICTIONARY
  5
C
330
0
100
AcDbDictionary
281
     1
  3
ACAD_COLOR
350
DC
  3
ACAD_DETAILVIEWSTYLE
350
F5
  3
ACAD_GROUP
350
D
  3
ACAD_LAYOUT
350
1A
  3
ACAD_MATERIAL
350
AA
  3
ACAD_MLEADERSTYLE
350
F1
  3
ACAD_MLINESTYLE
350
17
  3
ACAD_PLOTSETTINGS
350
19
  3
ACAD_PLOTSTYLENAME
350
E
  3
ACAD_SCALELIST
350
DF
  3
ACAD_SECTIONVIEWSTYLE
350
F3
  3
ACAD_TABLESTYLE
350
DD
  3
ACAD_VISUALSTYLE
350
C3
  3
ACDB_RECOMPOSE_DATA
350
270
  3
AcDbVariableDictionary
350
264
  0
DICTIONARY
  5
DC
102
{ACAD_REACTORS
330
C
102
}
330
C
100
AcDbDictionary
281
     1
  0
DICTIONARY
  5
F5
102
{ACAD_REACTORS
330
C
102
}
330
C
100
AcDbDictionary
281
     1
  3
Imperial24
350
F6
  0
DICTIONARY
  5
D
102
{ACAD_REACTORS
330
C
102
}
330
C
100
AcDbDictionary
281
     1
  0
DICTIONARY
  5
1A
102
{ACAD_REACTORS
330
C
102
}
330
C
100
AcDbDictionary
281
     1
  3
Layout1
350
1E
  3
Layout2
350
26
  3
Model
350
22
  0
DICTIONARY
  5
AA
102
{ACAD_REACTORS
330
C
102
}
330
C
100
AcDbDictionary
281
     1
  3
ByBlock
350
B3
  3
ByLayer
350
AB
  3
Global
350
BB
  0
DICTIONARY
  5
F1
102
{ACAD_REACTORS
330
C
102
}
330
C
100
AcDbDictionary
281
     1
  3
Standard
350
F2
  0
DICTIONARY
  5
17
102
{ACAD_REACTORS
330
C
102
}
330
C
100
AcDbDictionary
281
     1
  3
Standard
350
18
  0
DICTIONARY
  5
19
102
{ACAD_REACTORS
330
C
102
}
330
C
100
AcDbDictionary
281
     1
  0
ACDBDICTIONARYWDFLT
  5
E
102
{ACAD_REACTORS
330
C
102
}
330
C
100
AcDbDictionary
281
     1
  3
ByLayer
350
2D
  3
Normal
350
F
100
AcDbDictionaryWithDefault
340
F
  0
DICTIONARY
  5
DF
102
{ACAD_REACTORS
330
C
102
}
330
C
100
AcDbDictionary
281
     1
  3
A0
350
E0
  3
A1
350
E1
  3
A2
350
E2
  3
A3
350
E3
  3
A4
350
E4
  3
A5
350
E5
  3
A6
350
E6
  3
A7
350
E7
  3
A8
350
E8
  3
A9
350
E9
  3
B0
350
EA
  3
B1
350
EB
  3
B2
350
EC
  3
B3
350
ED
  3
B4
350
EE
  3
B5
350
EF
  3
B6
350
F0
  0
DICTIONARY
  5
F3
102
{ACAD_REACTORS
330
C
102
}
330
C
100
AcDbDictionary
281
     1
  3
Imperial24
350
F4
  0
DICTIONARY
  5
DD
102
{ACAD_REACTORS
330
C
102
}
330
C
100
AcDbDictionary
281
     1
  3
Standard
350
DE
  0
DICTIONARY
  5
C3
102
{ACAD_REACTORS
330
C
102
}
330
C
100
AcDbDictionary
281
     1
  3
2dWireframe
350
C9
  3
Basic
350
C8
  3
Brighten
350
CF
  3
ColorChange
350
D3
  3
Conceptual
350
CC
  3
Dim
350
CE
  3
EdgeColorOff
350
DB
  3
Facepattern
350
D2
  3
Flat
350
C4
  3
FlatWithEdges
350
C5
  3
Gouraud
350
C6
  3
GouraudWithEdges
350
C7
  3
Hidden
350
CB
  3
JitterOff
350
D9
  3
Linepattern
350
D1
  3
OverhangOff
350
DA
  3
Realistic
350
CD
  3
Shaded
350
D8
  3
Shaded with edges
350
D7
  3
Shades of Gray
350
D4
  3
Sketchy
350
D5
  3
Thicken
350
D0
  3
Wireframe
350
CA
  3
X-Ray
350
D6
  0
XRECORD
  5
270
102
{ACAD_REACTORS
330
C
102
}
330
C
100
AcDbXrecord
280
     1
 90
        1
330
DE
  0
DICTIONARY
  5
264
102
{ACAD_REACTORS
330
C
102
}
330
C
100
AcDbDictionary
281
     1
  3
CANNOSCALE
350
26A
  3
CMLEADERSTYLE
350
266
  3
CTABLESTYLE
350
265
  3
CVIEWDETAILSTYLE
350
267
  3
CVIEWSECTIONSTYLE
350
268
  3
LAYEREVAL
350
26C
  3
LAYERNOTIFY
350
26D
  3
LIGHTINGUNITS
350
26B
  3
MSLTSCALE
350
269
  0
ACDBDETAILVIEWSTYLE
  5
F6
102
{ACAD_XDICTIONARY
360
2A5
102
}
102
{ACAD_REACTORS
330
F5
102
}
330
F5
100
AcDbModelDocViewStyle
 70
     0
  3
Imperial24
290
     0
100
AcDbDetailViewStyle
 70
     0
 71
     0
 90
        3
 71
     1
340
11
 62
   256
 40
0.24
340
0
 62
   256
 40
0.24
300

 40
0.36
280
     3
 71
     2
340
16
 90
       25
 62
   256
 71
     3
340
11
 62
   256
 40
0.24
 90
        1
 40
0.75
 90
        1
300
%<\AcVar ViewType \f "%tc1">% %<\AcVar ViewDetailId>%\PSCALE %<\AcVar ViewScale \f "%sn">%
 71
     4
340
16
 90
       25
 62
   256
340
16
 90
       25
 62
   256
280
     0
  0
LAYOUT
  5
1E
102
{ACAD_REACTORS
330
1A
102
}
330
1A
100
AcDbPlotSettings
  1

  2
\\KTXNTBDC\CASF2PN1
  4

  6

 40
0.0
 41
0.0
 42
0.0
 43
0.0
 44
0.0
 45
0.0
 46
0.0
 47
0.0
 48
0.0
 49
0.0
140
0.0
141
0.0
142
1.0
143
1.0
 70
   688
 72
     0
 73
     0
 74
     5
  7

 75
    16
147
1.0
 76
     0
 77
     2
 78
   300
148
0.0
149
0.0
100
AcDbLayout
  1
Layout1
 70
     1
 71
     1
 10
0.0
 20
0.0
 11
12.0
 21
9.0
 12
0.0
 22
0.0
 32
0.0
 14
1.000000000000000E+20
 24
1.000000000000000E+20
 34
1.000000000000000E+20
 15
-1.000000000000000E+20
 25
-1.000000000000000E+20
 35
-1.000000000000000E+20
146
0.0
 13
0.0
 23
0.0
 33
0.0
 16
1.0
 26
0.0
 36
0.0
 17
0.0
 27
1.0
 37
0.0
 76
     0
330
1B
  0
LAYOUT
  5
26
102
{ACAD_REACTORS
330
1A
102
}
330
1A
100
AcDbPlotSettings
  1

  2
\\KTXNTBDC\CASF2PN1
  4

  6

 40
0.0
 41
0.0
 42
0.0
 43
0.0
 44
0.0
 45
0.0
 46
0.0
 47
0.0
 48
0.0
 49
0.0
140
0.0
141
0.0
142
1.0
143
1.0
 70
   688
 72
     0
 73
     0
 74
     5
  7

 75
    16
147
1.0
 76
     0
 77
     2
 78
   300
148
0.0
149
0.0
100
AcDbLayout
  1
Layout2
 70
     1
 71
     2
 10
0.0
 20
0.0
 11
12.0
 21
9.0
 12
0.0
 22
0.0
 32
0.0
 14
0.0
 24
0.0
 34
0.0
 15
0.0
 25
0.0
 35
0.0
146
0.0
 13
0.0
 23
0.0
 33
0.0
 16
1.0
 26
0.0
 36
0.0
 17
0.0
 27
1.0
 37
0.0
 76
     0
330
23
  0
LAYOUT
  5
22
102
{ACAD_REACTORS
330
1A
102
}
330
1A
100
AcDbPlotSettings
  1

  2
\\KTXNTBDC\CASF2PN1
  4

  6

 40
0.0
 41
0.0
 42
0.0
 43
0.0
 44
0.0
 45
0.0
 46
0.0
 47
0.0
 48
0.0
 49
0.0
140
0.0
141
0.0
142
1.0
143
1.0
 70
  1712
 72
     0
 73
     0
 74
     0
  7

 75
     0
147
1.0
 76
     0
 77
     2
 78
   300
148
0.0
149
0.0
100
AcDbLayout
  1
Model
 70
     1
 71
     0
 10
0.0
 20
0.0
 11
12.0
 21
9.0
 12
0.0
 22
0.0
 32
0.0
 14
0.0
 24
0.0
 34
0.0
 15
0.0
 25
0.0
 35
0.0
146
0.0
 13
0.0
 23
0.0
 33
0.0
 16
1.0
 26
0.0
 36
0.0
 17
0.0
 27
1.0
 37
0.0
 76
     0
330
1F
  0
MATERIAL
  5
B3
102
{ACAD_XDICTIONARY
360
B4
102
}
102
{ACAD_REACTORS
330
AA
102
}
330
AA
100
AcDbMaterial
  1
ByBlock
 72
     0
 43
0.0208333333333333
 43
0.0
 43
0.0
 43
0.0
 43
0.0
 43
0.0208333333333333
 43
0.0
 43
0.0
 43
0.0
 43
0.0
 43
1.0
 43
0.0
 43
0.0
 43
0.0
 43
0.0
 43
1.0
 77
     0
 47
0.0208333333333333
 47
0.0
 47
0.0
 47
0.0
 47
0.0
 47
0.0208333333333333
 47
0.0
 47
0.0
 47
0.0
 47
0.0
 47
1.0
 47
0.0
 47
0.0
 47
0.0
 47
0.0
 47
1.0
171
     0
 49
0.0208333333333333
 49
0.0
 49
0.0
 49
0.0
 49
0.0
 49
0.0208333333333333
 49
0.0
 49
0.0
 49
0.0
 49
0.0
 49
1.0
 49
0.0
 49
0.0
 49
0.0
 49
0.0
 49
1.0
175
     0
142
0.0208333333333333
142
0.0
142
0.0
142
0.0
142
0.0
142
0.0208333333333333
142
0.0
142
0.0
142
0.0
142
0.0
142
1.0
142
0.0
142
0.0
142
0.0
142
0.0
142
1.0
179
     0
144
0.0208333333333333
144
0.0
144
0.0
144
0.0
144
0.0
144
0.0208333333333333
144
0.0
144
0.0
144
0.0
144
0.0
144
1.0
144
0.0
144
0.0
144
0.0
144
0.0
144
1.0
147
0.0208333333333333
147
0.0
147
0.0
147
0.0
147
0.0
147
0.0208333333333333
147
0.0
147
0.0
147
0.0
147
0.0
147
1.0
147
0.0
147
0.0
147
0.0
147
0.0
147
1.0
  0
MATERIAL
  5
AB
102
{ACAD_XDICTIONARY
360
AC
102
}
102
{ACAD_REACTORS
330
AA
102
}
330
AA
100
AcDbMaterial
  1
ByLayer
 72
     0
 43
0.0208333333333333
 43
0.0
 43
0.0
 43
0.0
 43
0.0
 43
0.0208333333333333
 43
0.0
 43
0.0
 43
0.0
 43
0.0
 43
1.0
 43
0.0
 43
0.0
 43
0.0
 43
0.0
 43
1.0
 77
     0
 47
0.0208333333333333
 47
0.0
 47
0.0
 47
0.0
 47
0.0
 47
0.0208333333333333
 47
0.0
 47
0.0
 47
0.0
 47
0.0
 47
1.0
 47
0.0
 47
0.0
 47
0.0
 47
0.0
 47
1.0
171
     0
 49
0.0208333333333333
 49
0.0
 49
0.0
 49
0.0
 49
0.0
 49
0.0208333333333333
 49
0.0
 49
0.0
 49
0.0
 49
0.0
 49
1.0
 49
0.0
 49
0.0
 49
0.0
 49
0.0
 49
1.0
175
     0
142
0.0208333333333333
142
0.0
142
0.0
142
0.0
142
0.0
142
0.0208333333333333
142
0.0
142
0.0
142
0.0
142
0.0
142
1.0
142
0.0
142
0.0
142
0.0
142
0.0
142
1.0
179
     0
144
0.0208333333333333
144
0.0
144
0.0
144
0.0
144
0.0
144
0.0208333333333333
144
0.0
144
0.0
144
0.0
144
0.0
144
1.0
144
0.0
144
0.0
144
0.0
144
0.0
144
1.0
147
0.0208333333333333
147
0.0
147
0.0
147
0.0
147
0.0
147
0.0208333333333333
147
0.0
147
0.0
147
0.0
147
0.0
147
1.0
147
0.0
147
0.0
147
0.0
147
0.0
147
1.0
  0
MATERIAL
  5
BB
102
{ACAD_XDICTIONARY
360
BC
102
}
102
{ACAD_REACTORS
330
AA
102
}
330
AA
100
AcDbMaterial
  1
Global
 72
     0
 43
0.0208333333333333
 43
0.0
 43
0.0
 43
0.0
 43
0.0
 43
0.0208333333333333
 43
0.0
 43
0.0
 43
0.0
 43
0.0
 43
1.0
 43
0.0
 43
0.0
 43
0.0
 43
0.0
 43
1.0
 77
     0
 47
0.0208333333333333
 47
0.0
 47
0.0
 47
0.0
 47
0.0
 47
0.0208333333333333
 47
0.0
 47
0.0
 47
0.0
 47
0.0
 47
1.0
 47
0.0
 47
0.0
 47
0.0
 47
0.0
 47
1.0
171
     0
 49
0.0208333333333333
 49
0.0
 49
0.0
 49
0.0
 49
0.0
 49
0.0208333333333333
 49
0.0
 49
0.0
 49
0.0
 49
0.0
 49
1.0
 49
0.0
 49
0.0
 49
0.0
 49
0.0
 49
1.0
175
     0
142
0.0208333333333333
142
0.0
142
0.0
142
0.0
142
0.0
142
0.0208333333333333
142
0.0
142
0.0
142
0.0
142
0.0
142
1.0
142
0.0
142
0.0
142
0.0
142
0.0
142
1.0
179
     0
144
0.0208333333333333
144
0.0
144
0.0
144
0.0
144
0.0
144
0.0208333333333333
144
0.0
144
0.0
144
0.0
144
0.0
144
1.0
144
0.0
144
0.0
144
0.0
144
0.0
144
1.0
147
0.0208333333333333
147
0.0
147
0.0
147
0.0
147
0.0
147
0.0208333333333333
147
0.0
147
0.0
147
0.0
147
0.0
147
1.0
147
0.0
147
0.0
147
0.0
147
0.0
147
1.0
  0
MLEADERSTYLE
  5
F2
102
{ACAD_XDICTIONARY
360
2A1
102
}
102
{ACAD_REACTORS
330
F1
102
}
330
F1
100
AcDbMLeaderStyle
179
     2
170
     2
171
     1
172
     0
 90
        2
 40
0.0
 41
0.0
173
     1
 91
-1056964608
340
14
 92
       -2
290
     1
 42
0.09
291
     1
 43
0.36
  3
Standard
 44
0.18
300

342
11
174
     1
178
     6
175
     1
176
     0
 93
-1056964608
 45
0.18
292
     0
297
     0
 46
0.18
 94
-1056964608
 47
1.0
 49
1.0
140
1.0
293
     1
141
0.0
294
     1
177
     0
142
1.0
295
     0
296
     0
143
0.125
271
     0
272
     9
273
     9
  0
MLINESTYLE
  5
18
102
{ACAD_REACTORS
330
17
102
}
330
17
100
AcDbMlineStyle
  2
STANDARD
 70
     0
  3

 62
   256
 51
90.0
 52
90.0
 71
     2
 49
0.5
 62
   256
  6
BYLAYER
 49
-0.5
 62
   256
  6
BYLAYER
  0
ACDBPLACEHOLDER
  5
2D
102
{ACAD_REACTORS
330
E
102
}
330
E
  0
ACDBPLACEHOLDER
  5
F
102
{ACAD_REACTORS
330
E
102
}
330
E
  0
SCALE
  5
E0
102
{ACAD_REACTORS
330
DF
102
}
330
DF
100
AcDbScale
 70
     0
300
1:1
140
1.0
141
1.0
290
     1
  0
SCALE
  5
E1
102
{ACAD_REACTORS
330
DF
102
}
330
DF
100
AcDbScale
 70
     0
300
1/128" = 1'-0"
140
0.0078125
141
12.0
290
     0
  0
SCALE
  5
E2
102
{ACAD_REACTORS
330
DF
102
}
330
DF
100
AcDbScale
 70
     0
300
1/64" = 1'-0"
140
0.015625
141
12.0
290
     0
  0
SCALE
  5
E3
102
{ACAD_REACTORS
330
DF
102
}
330
DF
100
AcDbScale
 70
     0
300
1/32" = 1'-0"
140
0.03125
141
12.0
290
     0
  0
SCALE
  5
E4
102
{ACAD_REACTORS
330
DF
102
}
330
DF
100
AcDbScale
 70
     0
300
1/16" = 1'-0"
140
0.0625
141
12.0
290
     0
  0
SCALE
  5
E5
102
{ACAD_REACTORS
330
DF
102
}
330
DF
100
AcDbScale
 70
     0
300
3/32" = 1'-0"
140
0.09375
141
12.0
290
     0
  0
SCALE
  5
E6
102
{ACAD_REACTORS
330
DF
102
}
330
DF
100
AcDbScale
 70
     0
300
1/8" = 1'-0"
140
0.125
141
12.0
290
     0
  0
SCALE
  5
E7
102
{ACAD_REACTORS
330
DF
102
}
330
DF
100
AcDbScale
 70
     0
300
3/16" = 1'-0"
140
0.1875
141
12.0
290
     0
  0
SCALE
  5
E8
102
{ACAD_REACTORS
330
DF
102
}
330
DF
100
AcDbScale
 70
     0
300
1/4" = 1'-0"
140
0.25
141
12.0
290
     0
  0
SCALE
  5
E9
102
{ACAD_REACTORS
330
DF
102
}
330
DF
100
AcDbScale
 70
     0
300
3/8" = 1'-0"
140
0.375
141
12.0
290
     0
  0
SCALE
  5
EA
102
{ACAD_REACTORS
330
DF
102
}
330
DF
100
AcDbScale
 70
     0
300
1/2" = 1'-0"
140
0.5
141
12.0
290
     0
  0
SCALE
  5
EB
102
{ACAD_REACTORS
330
DF
102
}
330
DF
100
AcDbScale
 70
     0
300
3/4" = 1'-0"
140
0.75
141
12.0
290
     0
  0
SCALE
  5
EC
102
{ACAD_REACTORS
330
DF
102
}
330
DF
100
AcDbScale
 70
     0
300
1" = 1'-0"
140
1.0
141
12.0
290
     0
  0
SCALE
  5
ED
102
{ACAD_REACTORS
330
DF
102
}
330
DF
100
AcDbScale
 70
     0
300
1-1/2" = 1'-0"
140
1.5
141
12.0
290
     0
  0
SCALE
  5
EE
102
{ACAD_REACTORS
330
DF
102
}
330
DF
100
AcDbScale
 70
     0
300
3" = 1'-0"
140
3.0
141
12.0
290
     0
  0
SCALE
  5
EF
102
{ACAD_REACTORS
330
DF
102
}
330
DF
100
AcDbScale
 70
     0
300
6" = 1'-0"
140
6.0
141
12.0
290
     0
  0
SCALE
  5
F0
102
{ACAD_REACTORS
330
DF
102
}
330
DF
100
AcDbScale
 70
     0
300
1'-0" = 1'-0"
140
12.0
141
12.0
290
     0
  0
ACDBSECTIONVIEWSTYLE
  5
F4
102
{ACAD_XDICTIONARY
360
2A3
102
}
102
{ACAD_REACTORS
330
F3
102
}
330
F3
100
AcDbModelDocViewStyle
 70
     0
  3
Imperial24
290
     0
100
AcDbSectionViewStyle
 70
     0
 71
     0
 90
       78
 71
     1
340
11
 62
   256
 40
0.24
340
0
340
0
 62
   256
 40
0.24
300
I, O, Q, S, X, Z
 40
0.48
 90
        3
 40
0.18
 90
        1
 71
     2
340
16
 90
       25
 62
   256
340
16
 90
       50
 62
   256
 40
0.24
 40
0.0
 40
0.24
 71
     3
340
11
 62
   256
 40
0.24
 90
        1
 40
0.75
 90
        1
300
%<\AcVar ViewType \f "%tc1">% %<\AcVar ViewSectionStartId>%-%<\AcVar ViewSectionEndId>%\PSCALE %<\AcVar ViewScale \f "%sn">%
 71
     4
 62
   256
 62
   257
300
ANSI31
 40
1.0
 90
        0
290
     0
290
     0
 90
        6
 40
0.0
 40
1.570796326794896
 40
0.2617993877991494
 40
1.308996938995747
 40
-0.2617993877991494
 40
1.832595714594046
  0
TABLESTYLE
  5
DE
102
{ACAD_XDICTIONARY
360
26E
102
}
102
{ACAD_REACTORS
330
DD
102
}
330
DD
100
AcDbTableStyle
280
     0
  3
Standard
 70
     0
 71
     0
 40
0.06
 41
0.06
280
     0
281
     0
  7
Standard
140
0.18
170
     2
 62
     0
 63
     7
283
     0
 90
      512
 91
        0
  1

274
    -2
284
     1
 64
     0
275
    -2
285
     1
 65
     0
276
    -2
286
     1
 66
     0
277
    -2
287
     1
 67
     0
278
    -2
288
     1
 68
     0
279
    -2
289
     1
 69
     0
  7
Standard
140
0.25
170
     5
 62
     0
 63
     7
283
     0
 90
      512
 91
        0
  1

274
    -2
284
     1
 64
     0
275
    -2
285
     1
 65
     0
276
    -2
286
     1
 66
     0
277
    -2
287
     1
 67
     0
278
    -2
288
     1
 68
     0
279
    -2
289
     1
 69
     0
  7
Standard
140
0.18
170
     5
 62
     0
 63
     7
283
     0
 90
      512
 91
        0
  1

274
    -2
284
     1
 64
     0
275
    -2
285
     1
 65
     0
276
    -2
286
     1
 66
     0
277
    -2
287
     1
 67
     0
278
    -2
288
     1
 68
     0
279
    -2
289
     1
 69
     0
  0
VISUALSTYLE
  5
C9
102
{ACAD_XDICTIONARY
360
27B
102
}
102
{ACAD_REACTORS
330
C3
102
}
330
C3
100
AcDbVisualStyle
  2
2dWireframe
 70
     4
177
     2
291
     0
 71
     0
176
     1
 72
     2
176
     1
 73
     0
176
     1
 90
        0
176
     1
 40
0.6
176
     1
 41
30.0
176
     1
 63
     7
421
 16777215
176
     1
 74
     1
176
     1
 91
        4
176
     1
 64
     7
176
     1
 65
   257
176
     1
 75
     1
176
     1
175
     1
176
     1
 42
1.0
176
     1
 92
        0
176
     1
 66
   257
176
     1
 43
1.0
176
     1
 76
     1
176
     1
 77
     6
176
     1
 78
     2
176
     1
 67
     7
176
     1
 79
     5
176
     1
170
     0
176
     1
171
     0
176
     1
290
     0
176
     1
 93
        1
176
     1
 44
0.0
176
     1
173
     0
176
     1
1001
ACAD
1000
AcDbSavedByObjectVersion
1070
     0
  0
VISUALSTYLE
  5
C8
102
{ACAD_XDICTIONARY
360
279
102
}
102
{ACAD_REACTORS
330
C3
102
}
330
C3
100
AcDbVisualStyle
  2
Basic
 70
     7
177
     2
291
     1
 71
     1
176
     1
 72
     0
176
     1
 73
     1
176
     1
 90
        0
176
     1
 40
0.6
176
     1
 41
30.0
176
     1
 63
     7
421
 16777215
176
     1
 74
     0
176
     1
 91
        4
176
     1
 64
     7
176
     1
 65
   257
176
     1
 75
     1
176
     1
175
     1
176
     1
 42
1.0
176
     1
 92
        8
176
     1
 66
     7
176
     1
 43
1.0
176
     1
 76
     1
176
     1
 77
     6
176
     1
 78
     2
176
     1
 67
     7
176
     1
 79
     5
176
     1
170
     0
176
     1
171
     0
176
     1
290
     0
176
     1
 93
        1
176
     1
 44
0.0
176
     1
173
     0
176
     1
1001
ACAD
1000
AcDbSavedByObjectVersion
1070
     0
  0
VISUALSTYLE
  5
CF
102
{ACAD_XDICTIONARY
360
287
102
}
102
{ACAD_REACTORS
330
C3
102
}
330
C3
100
AcDbVisualStyle
  2
Brighten
 70
    12
177
     2
291
     1
 71
     2
176
     1
 72
     2
176
     1
 73
     0
176
     1
 90
        0
176
     1
 40
0.6
176
     1
 41
30.0
176
     1
 63
     7
421
 16777215
176
     1
 74
     1
176
     1
 91
        4
176
     1
 64
     7
176
     1
 65
   257
176
     1
 75
     1
176
     1
175
     1
176
     1
 42
1.0
176
     1
 92
        8
176
     1
 66
     7
176
     1
 43
1.0
176
     1
 76
     1
176
     1
 77
     6
176
     1
 78
     2
176
     1
 67
     7
176
     1
 79
     5
176
     1
170
     0
176
     1
171
     0
176
     1
290
     0
176
     1
 93
        1
176
     1
 44
50.0
176
     1
173
     0
176
     1
1001
ACAD
1000
AcDbSavedByObjectVersion
1070
     0
  0
VISUALSTYLE
  5
D3
102
{ACAD_XDICTIONARY
360
28F
102
}
102
{ACAD_REACTORS
330
C3
102
}
330
C3
100
AcDbVisualStyle
  2
ColorChange
 70
    16
177
     2
291
     1
 71
     2
176
     1
 72
     2
176
     1
 73
     3
176
     1
 90
        0
176
     1
 40
0.6
176
     1
 41
30.0
176
     1
 63
     8
421
  8421504
176
     1
 74
     1
176
     1
 91
        4
176
     1
 64
     7
176
     1
 65
   257
176
     1
 75
     1
176
     1
175
     1
176
     1
 42
1.0
176
     1
 92
        8
176
     1
 66
     8
424
  8421504
176
     1
 43
1.0
176
     1
 76
     1
176
     1
 77
     6
176
     1
 78
     2
176
     1
 67
     7
176
     1
 79
     5
176
     1
170
     0
176
     1
171
     0
176
     1
290
     0
176
     1
 93
        1
176
     1
 44
0.0
176
     1
173
     0
176
     1
1001
ACAD
1000
AcDbSavedByObjectVersion
1070
     0
  0
VISUALSTYLE
  5
CC
102
{ACAD_XDICTIONARY
360
281
102
}
102
{ACAD_REACTORS
330
C3
102
}
330
C3
100
AcDbVisualStyle
  2
Conceptual
 70
     9
177
     2
291
     0
 71
     3
176
     1
 72
     2
176
     1
 73
     0
176
     1
 90
        0
176
     1
 40
0.6
176
     1
 41
30.0
176
     1
 63
     7
421
 16777215
176
     1
 74
     2
176
     1
 91
        2
176
     1
 64
     7
176
     1
 65
   257
176
     1
 75
     1
176
     1
175
     1
176
     1
 42
179.0
176
     1
 92
        8
176
     1
 66
     7
176
     1
 43
1.0
176
     1
 76
     1
176
     1
 77
     6
176
     1
 78
     2
176
     1
 67
     7
176
     1
 79
     3
176
     1
170
     0
176
     1
171
     0
176
     1
290
     0
176
     1
 93
        1
176
     1
 44
0.0
176
     1
173
     0
176
     1
1001
ACAD
1000
AcDbSavedByObjectVersion
1070
     0
  0
VISUALSTYLE
  5
CE
102
{ACAD_XDICTIONARY
360
285
102
}
102
{ACAD_REACTORS
330
C3
102
}
330
C3
100
AcDbVisualStyle
  2
Dim
 70
    11
177
     2
291
     1
 71
     2
176
     1
 72
     2
176
     1
 73
     0
176
     1
 90
        0
176
     1
 40
0.6
176
     1
 41
30.0
176
     1
 63
     7
421
 16777215
176
     1
 74
     1
176
     1
 91
        4
176
     1
 64
     7
176
     1
 65
   257
176
     1
 75
     1
176
     1
175
     1
176
     1
 42
1.0
176
     1
 92
        8
176
     1
 66
     7
176
     1
 43
1.0
176
     1
 76
     1
176
     1
 77
     6
176
     1
 78
     2
176
     1
 67
     7
176
     1
 79
     5
176
     1
170
     0
176
     1
171
     0
176
     1
290
     0
176
     1
 93
        1
176
     1
 44
-50.0
176
     1
173
     0
176
     1
1001
ACAD
1000
AcDbSavedByObjectVersion
1070
     0
  0
VISUALSTYLE
  5
DB
102
{ACAD_XDICTIONARY
360
29F
102
}
102
{ACAD_REACTORS
330
C3
102
}
330
C3
100
AcDbVisualStyle
  2
EdgeColorOff
 70
    22
177
     2
291
     1
 71
     2
176
     0
 72
     2
176
     0
 73
     0
176
     0
 90
        0
176
     0
 40
0.6
176
     0
 41
30.0
176
     0
 63
     7
421
 16777215
176
     0
 74
     1
176
     0
 91
        4
176
     0
 64
     7
176
     0
 65
   257
176
     0
 75
     1
176
     0
175
     1
176
     0
 42
1.0
176
     0
 92
        8
176
     2
 66
     7
176
     0
 43
1.0
176
     0
 76
     1
176
     0
 77
     6
176
     0
 78
     2
176
     0
 67
     7
176
     0
 79
     5
176
     0
170
     0
176
     0
171
     0
176
     0
290
     0
176
     0
 93
        1
176
     0
 44
0.0
176
     0
173
     0
176
     0
1001
ACAD
1000
AcDbSavedByObjectVersion
1070
     0
  0
VISUALSTYLE
  5
D2
102
{ACAD_XDICTIONARY
360
28D
102
}
102
{ACAD_REACTORS
330
C3
102
}
330
C3
100
AcDbVisualStyle
  2
Facepattern
 70
    15
177
     2
291
     1
 71
     2
176
     1
 72
     2
176
     1
 73
     0
176
     1
 90
        0
176
     1
 40
0.6
176
     1
 41
30.0
176
     1
 63
     7
421
 16777215
176
     1
 74
     1
176
     1
 91
        4
176
     1
 64
     7
176
     1
 65
   257
176
     1
 75
     1
176
     1
175
     1
176
     1
 42
1.0
176
     1
 92
        8
176
     1
 66
     7
176
     1
 43
1.0
176
     1
 76
     1
176
     1
 77
     6
176
     1
 78
     2
176
     1
 67
     7
176
     1
 79
     5
176
     1
170
     0
176
     1
171
     0
176
     1
290
     0
176
     1
 93
        1
176
     1
 44
0.0
176
     1
173
     0
176
     1
1001
ACAD
1000
AcDbSavedByObjectVersion
1070
     0
  0
VISUALSTYLE
  5
C4
102
{ACAD_XDICTIONARY
360
271
102
}
102
{ACAD_REACTORS
330
C3
102
}
330
C3
100
AcDbVisualStyle
  2
Flat
 70
     0
177
     2
291
     1
 71
     2
176
     1
 72
     1
176
     1
 73
     1
176
     1
 90
        2
176
     1
 40
0.6
176
     1
 41
30.0
176
     1
 63
     7
421
 16777215
176
     1
 74
     0
176
     1
 91
        0
176
     1
 64
     7
176
     1
 65
   257
176
     1
 75
     1
176
     1
175
     1
176
     1
 42
1.0
176
     1
 92
        8
176
     1
 66
     7
176
     1
 43
1.0
176
     1
 76
     1
176
     1
 77
     6
176
     1
 78
     2
176
     1
 67
     7
176
     1
 79
     5
176
     1
170
     0
176
     1
171
     0
176
     1
290
     0
176
     1
 93
       13
176
     1
 44
0.0
176
     1
173
     0
176
     1
1001
ACAD
1000
AcDbSavedByObjectVersion
1070
     0
  0
VISUALSTYLE
  5
C5
102
{ACAD_XDICTIONARY
360
273
102
}
102
{ACAD_REACTORS
330
C3
102
}
330
C3
100
AcDbVisualStyle
  2
FlatWithEdges
 70
     1
177
     2
291
     1
 71
     2
176
     1
 72
     1
176
     1
 73
     1
176
     1
 90
        2
176
     1
 40
0.6
176
     1
 41
30.0
176
     1
 63
     7
421
 16777215
176
     1
 74
     1
176
     1
 91
        0
176
     1
 64
     7
176
     1
 65
   257
176
     1
 75
     1
176
     1
175
     1
176
     1
 42
1.0
176
     1
 92
        0
176
     1
 66
   257
176
     1
 43
1.0
176
     1
 76
     1
176
     1
 77
     6
176
     1
 78
     2
176
     1
 67
     7
176
     1
 79
     5
176
     1
170
     0
176
     1
171
     0
176
     1
290
     0
176
     1
 93
       13
176
     1
 44
0.0
176
     1
173
     0
176
     1
1001
ACAD
1000
AcDbSavedByObjectVersion
1070
     0
  0
VISUALSTYLE
  5
C6
102
{ACAD_XDICTIONARY
360
275
102
}
102
{ACAD_REACTORS
330
C3
102
}
330
C3
100
AcDbVisualStyle
  2
Gouraud
 70
     2
177
     2
291
     1
 71
     2
176
     1
 72
     2
176
     1
 73
     1
176
     1
 90
        2
176
     1
 40
0.6
176
     1
 41
30.0
176
     1
 63
     7
421
 16777215
176
     1
 74
     0
176
     1
 91
        0
176
     1
 64
     7
176
     1
 65
   257
176
     1
 75
     1
176
     1
175
     1
176
     1
 42
1.0
176
     1
 92
        0
176
     1
 66
     7
176
     1
 43
1.0
176
     1
 76
     1
176
     1
 77
     6
176
     1
 78
     2
176
     1
 67
     7
176
     1
 79
     5
176
     1
170
     0
176
     1
171
     0
176
     1
290
     0
176
     1
 93
       13
176
     1
 44
0.0
176
     1
173
     0
176
     1
1001
ACAD
1000
AcDbSavedByObjectVersion
1070
     0
  0
VISUALSTYLE
  5
C7
102
{ACAD_XDICTIONARY
360
277
102
}
102
{ACAD_REACTORS
330
C3
102
}
330
C3
100
AcDbVisualStyle
  2
GouraudWithEdges
 70
     3
177
     2
291
     1
 71
     2
176
     1
 72
     2
176
     1
 73
     1
176
     1
 90
        2
176
     1
 40
0.6
176
     1
 41
30.0
176
     1
 63
     7
421
 16777215
176
     1
 74
     1
176
     1
 91
        0
176
     1
 64
     7
176
     1
 65
   257
176
     1
 75
     1
176
     1
175
     1
176
     1
 42
1.0
176
     1
 92
        0
176
     1
 66
   257
176
     1
 43
1.0
176
     1
 76
     1
176
     1
 77
     6
176
     1
 78
     2
176
     1
 67
     7
176
     1
 79
     5
176
     1
170
     0
176
     1
171
     0
176
     1
290
     0
176
     1
 93
       13
176
     1
 44
0.0
176
     1
173
     0
176
     1
1001
ACAD
1000
AcDbSavedByObjectVersion
1070
     0
  0
VISUALSTYLE
  5
CB
102
{ACAD_XDICTIONARY
360
27F
102
}
102
{ACAD_REACTORS
330
C3
102
}
330
C3
100
AcDbVisualStyle
  2
Hidden
 70
     6
177
     2
291
     0
 71
     1
176
     1
 72
     2
176
     1
 73
     2
176
     1
 90
        0
176
     1
 40
0.6
176
     1
 41
30.0
176
     1
 63
     7
421
 16777215
176
     1
 74
     2
176
     1
 91
        2
176
     1
 64
     7
176
     1
 65
   257
176
     1
 75
     2
176
     1
175
     1
176
     1
 42
40.0
176
     1
 92
        0
176
     1
 66
   257
176
     1
 43
1.0
176
     1
 76
     1
176
     1
 77
     6
176
     1
 78
     2
176
     1
 67
     7
176
     1
 79
     3
176
     1
170
     0
176
     1
171
     0
176
     1
290
     0
176
     1
 93
        1
176
     1
 44
0.0
176
     1
173
     0
176
     1
1001
ACAD
1000
AcDbSavedByObjectVersion
1070
     0
  0
VISUALSTYLE
  5
D9
102
{ACAD_XDICTIONARY
360
29B
102
}
102
{ACAD_REACTORS
330
C3
102
}
330
C3
100
AcDbVisualStyle
  2
JitterOff
 70
    20
177
     2
291
     1
 71
     2
176
     0
 72
     2
176
     0
 73
     0
176
     0
 90
        0
176
     0
 40
0.6
176
     0
 41
30.0
176
     0
 63
     7
421
 16777215
176
     0
 74
     1
176
     0
 91
        4
176
     0
 64
     7
176
     0
 65
   257
176
     0
 75
     1
176
     0
175
     1
176
     0
 42
1.0
176
     0
 92
       10
176
     2
 66
     7
176
     0
 43
1.0
176
     0
 76
     1
176
     0
 77
     6
176
     0
 78
     2
176
     0
 67
     7
176
     0
 79
     5
176
     0
170
     0
176
     0
171
     0
176
     0
290
     0
176
     0
 93
        1
176
     0
 44
0.0
176
     0
173
     0
176
     0
1001
ACAD
1000
AcDbSavedByObjectVersion
1070
     0
  0
VISUALSTYLE
  5
D1
102
{ACAD_XDICTIONARY
360
28B
102
}
102
{ACAD_REACTORS
330
C3
102
}
330
C3
100
AcDbVisualStyle
  2
Linepattern
 70
    14
177
     2
291
     1
 71
     2
176
     1
 72
     2
176
     1
 73
     0
176
     1
 90
        0
176
     1
 40
0.6
176
     1
 41
30.0
176
     1
 63
     7
421
 16777215
176
     1
 74
     1
176
     1
 91
        4
176
     1
 64
     7
176
     1
 65
   257
176
     1
 75
     7
176
     1
175
     7
176
     1
 42
1.0
176
     1
 92
        8
176
     1
 66
     7
176
     1
 43
1.0
176
     1
 76
     1
176
     1
 77
     6
176
     1
 78
     2
176
     1
 67
     7
176
     1
 79
     5
176
     1
170
     0
176
     1
171
     0
176
     1
290
     0
176
     1
 93
        1
176
     1
 44
0.0
176
     1
173
     0
176
     1
1001
ACAD
1000
AcDbSavedByObjectVersion
1070
     0
  0
VISUALSTYLE
  5
DA
102
{ACAD_XDICTIONARY
360
29D
102
}
102
{ACAD_REACTORS
330
C3
102
}
330
C3
100
AcDbVisualStyle
  2
OverhangOff
 70
    21
177
     2
291
     1
 71
     2
176
     0
 72
     2
176
     0
 73
     0
176
     0
 90
        0
176
     0
 40
0.6
176
     0
 41
30.0
176
     0
 63
     7
421
 16777215
176
     0
 74
     1
176
     0
 91
        4
176
     0
 64
     7
176
     0
 65
   257
176
     0
 75
     1
176
     0
175
     1
176
     0
 42
1.0
176
     0
 92
        9
176
     2
 66
     7
176
     0
 43
1.0
176
     0
 76
     1
176
     0
 77
     6
176
     0
 78
     2
176
     0
 67
     7
176
     0
 79
     5
176
     0
170
     0
176
     0
171
     0
176
     0
290
     0
176
     0
 93
        1
176
     0
 44
0.0
176
     0
173
     0
176
     0
1001
ACAD
1000
AcDbSavedByObjectVersion
1070
     0
  0
VISUALSTYLE
  5
CD
102
{ACAD_XDICTIONARY
360
283
102
}
102
{ACAD_REACTORS
330
C3
102
}
330
C3
100
AcDbVisualStyle
  2
Realistic
 70
     8
177
     2
291
     0
 71
     2
176
     1
 72
     3
176
     1
 73
     0
176
     1
 90
        2
176
     1
 40
0.6
176
     1
 41
30.0
176
     1
 63
     7
421
 16777215
176
     1
 74
     0
176
     1
 91
        0
176
     1
 64
     7
176
     1
 65
   257
176
     1
 75
     1
176
     1
175
     1
176
     1
 42
1.0
176
     1
 92
        8
176
     1
 66
   257
176
     1
 43
1.0
176
     1
 76
     1
176
     1
 77
     6
176
     1
 78
     2
176
     1
 67
     7
176
     1
 79
     3
176
     1
170
     0
176
     1
171
     0
176
     1
290
     0
176
     1
 93
       13
176
     1
 44
0.0
176
     1
173
     0
176
     1
1001
ACAD
1000
AcDbSavedByObjectVersion
1070
     0
  0
VISUALSTYLE
  5
D8
102
{ACAD_XDICTIONARY
360
299
102
}
102
{ACAD_REACTORS
330
C3
102
}
330
C3
100
AcDbVisualStyle
  2
Shaded
 70
    27
177
     2
291
     0
 71
     2
176
     1
 72
     2
176
     1
 73
     1
176
     1
 90
        2
176
     1
 40
0.6
176
     1
 41
30.0
176
     1
 63
     7
421
 16777215
176
     1
 74
     0
176
     1
 91
        4
176
     1
 64
     7
176
     1
 65
   257
176
     1
 75
     1
176
     1
175
     1
176
     1
 42
1.0
176
     1
 92
        8
176
     1
 66
   257
176
     1
 43
1.0
176
     1
 76
     1
176
     1
 77
     6
176
     1
 78
     2
176
     1
 67
     8
425
  7895160
176
     1
 79
     3
176
     1
170
     0
176
     1
171
     0
176
     1
290
     0
176
     1
 93
        5
176
     1
 44
0.0
176
     1
173
     0
176
     1
1001
ACAD
1000
AcDbSavedByObjectVersion
1070
     0
  0
VISUALSTYLE
  5
D7
102
{ACAD_XDICTIONARY
360
297
102
}
102
{ACAD_REACTORS
330
C3
102
}
330
C3
100
AcDbVisualStyle
  2
Shaded with edges
 70
    26
177
     2
291
     0
 71
     2
176
     1
 72
     2
176
     1
 73
     1
176
     1
 90
        2
176
     1
 40
0.6
176
     1
 41
30.0
176
     1
 63
     7
421
 16777215
176
     1
 74
     1
176
     1
 91
       10
176
     1
 64
     7
176
     1
 65
   257
176
     1
 75
     2
176
     1
175
     1
176
     1
 42
1.0
176
     1
 92
        8
176
     1
 66
   257
176
     1
 43
1.0
176
     1
 76
     1
176
     1
 77
     6
176
     1
 78
     2
176
     1
 67
     7
176
     1
 79
     3
176
     1
170
     0
176
     1
171
     0
176
     1
290
     0
176
     1
 93
        5
176
     1
 44
0.0
176
     1
173
     0
176
     1
1001
ACAD
1000
AcDbSavedByObjectVersion
1070
     0
  0
VISUALSTYLE
  5
D4
102
{ACAD_XDICTIONARY
360
291
102
}
102
{ACAD_REACTORS
330
C3
102
}
330
C3
100
AcDbVisualStyle
  2
Shades of Gray
 70
    23
177
     2
291
     0
 71
     2
176
     1
 72
     2
176
     1
 73
     3
176
     1
 90
        0
176
     1
 40
0.6
176
     1
 41
30.0
176
     1
 63
     7
421
 16777215
176
     1
 74
     2
176
     1
 91
        2
176
     1
 64
     7
176
     1
 65
     7
176
     1
 75
     1
176
     1
175
     1
176
     1
 42
40.0
176
     1
 92
        8
176
     1
 66
     7
176
     1
 43
1.0
176
     1
 76
     1
176
     1
 77
     6
176
     1
 78
     2
176
     1
 67
     7
176
     1
 79
     3
176
     1
170
     0
176
     1
171
     0
176
     1
290
     0
176
     1
 93
        1
176
     1
 44
0.0
176
     1
173
     0
176
     1
1001
ACAD
1000
AcDbSavedByObjectVersion
1070
     0
  0
VISUALSTYLE
  5
D5
102
{ACAD_XDICTIONARY
360
293
102
}
102
{ACAD_REACTORS
330
C3
102
}
330
C3
100
AcDbVisualStyle
  2
Sketchy
 70
    24
177
     2
291
     0
 71
     1
176
     1
 72
     2
176
     1
 73
     2
176
     1
 90
        0
176
     1
 40
0.6
176
     1
 41
30.0
176
     1
 63
     7
421
 16777215
176
     1
 74
     2
176
     1
 91
        2
176
     1
 64
     7
176
     1
 65
     7
176
     1
 75
     1
176
     1
175
     1
176
     1
 42
40.0
176
     1
 92
       11
176
     1
 66
     7
176
     1
 43
1.0
176
     1
 76
     1
176
     1
 77
     6
176
     1
 78
     2
176
     1
 67
     7
176
     1
 79
     6
176
     1
170
     0
176
     1
171
     0
176
     1
290
     0
176
     1
 93
        1
176
     1
 44
0.0
176
     1
173
     0
176
     1
1001
ACAD
1000
AcDbSavedByObjectVersion
1070
     0
  0
VISUALSTYLE
  5
D0
102
{ACAD_XDICTIONARY
360
289
102
}
102
{ACAD_REACTORS
330
C3
102
}
330
C3
100
AcDbVisualStyle
  2
Thicken
 70
    13
177
     2
291
     1
 71
     2
176
     1
 72
     2
176
     1
 73
     0
176
     1
 90
        0
176
     1
 40
0.6
176
     1
 41
30.0
176
     1
 63
     7
421
 16777215
176
     1
 74
     1
176
     1
 91
        4
176
     1
 64
     7
176
     1
 65
   257
176
     1
 75
     1
176
     1
175
     1
176
     1
 42
1.0
176
     1
 92
       12
176
     1
 66
     7
176
     1
 43
1.0
176
     1
 76
     1
176
     1
 77
     6
176
     1
 78
     2
176
     1
 67
     7
176
     1
 79
     5
176
     1
170
     0
176
     1
171
     0
176
     1
290
     0
176
     1
 93
        1
176
     1
 44
0.0
176
     1
173
     0
176
     1
1001
ACAD
1000
AcDbSavedByObjectVersion
1070
     0
  0
VISUALSTYLE
  5
CA
102
{ACAD_XDICTIONARY
360
27D
102
}
102
{ACAD_REACTORS
330
C3
102
}
330
C3
100
AcDbVisualStyle
  2
Wireframe
 70
     5
177
     2
291
     0
 71
     0
176
     1
 72
     2
176
     1
 73
     0
176
     1
 90
        0
176
     1
 40
0.6
176
     1
 41
30.0
176
     1
 63
     7
421
 16777215
176
     1
 74
     1
176
     1
 91
        4
176
     1
 64
     7
176
     1
 65
   257
176
     1
 75
     1
176
     1
175
     1
176
     1
 42
1.0
176
     1
 92
        0
176
     1
 66
   257
176
     1
 43
1.0
176
     1
 76
     1
176
     1
 77
     6
176
     1
 78
     2
176
     1
 67
     7
176
     1
 79
     3
176
     1
170
     0
176
     1
171
     0
176
     1
290
     0
176
     1
 93
        1
176
     1
 44
0.0
176
     1
173
     0
176
     1
1001
ACAD
1000
AcDbSavedByObjectVersion
1070
     0
  0
VISUALSTYLE
  5
D6
102
{ACAD_XDICTIONARY
360
295
102
}
102
{ACAD_REACTORS
330
C3
102
}
330
C3
100
AcDbVisualStyle
  2
X-Ray
 70
    25
177
     2
291
     0
 71
     2
176
     1
 72
     2
176
     1
 73
     1
176
     1
 90
        1
176
     1
 40
0.5
176
     1
 41
30.0
176
     1
 63
     7
421
 16777215
176
     1
 74
     1
176
     1
 91
        0
176
     1
 64
     7
176
     1
 65
   257
176
     1
 75
     1
176
     1
175
     1
176
     1
 42
1.0
176
     1
 92
        8
176
     1
 66
     7
176
     1
 43
1.0
176
     1
 76
     1
176
     1
 77
     6
176
     1
 78
     2
176
     1
 67
     7
176
     1
 79
     3
176
     1
170
     0
176
     1
171
     0
176
     1
290
     0
176
     1
 93
       13
176
     1
 44
0.0
176
     1
173
     0
176
     1
1001
ACAD
1000
AcDbSavedByObjectVersion
1070
     0
  0
DICTIONARYVAR
  5
26A
102
{ACAD_REACTORS
330
264
102
}
330
264
100
DictionaryVariables
280
     0
  1
1:1
  0
DICTIONARYVAR
  5
266
102
{ACAD_REACTORS
330
264
102
}
330
264
100
DictionaryVariables
280
     0
  1
STANDARD
  0
DICTIONARYVAR
  5
265
102
{ACAD_REACTORS
330
264
102
}
330
264
100
DictionaryVariables
280
     0
  1
STANDARD
  0
DICTIONARYVAR
  5
267
102
{ACAD_REACTORS
330
264
102
}
330
264
100
DictionaryVariables
280
     0
  1
Imperial24
  0
DICTIONARYVAR
  5
268
102
{ACAD_REACTORS
330
264
102
}
330
264
100
DictionaryVariables
280
     0
  1
Imperial24
  0
DICTIONARYVAR
  5
26C
102
{ACAD_REACTORS
330
264
102
}
330
264
100
DictionaryVariables
280
     0
  1
1
  0
DICTIONARYVAR
  5
26D
102
{ACAD_REACTORS
330
264
102
}
330
264
100
DictionaryVariables
280
     0
  1
15
  0
DICTIONARYVAR
  5
26B
102
{ACAD_REACTORS
330
264
102
}
330
264
100
DictionaryVariables
280
     0
  1
0
  0
DICTIONARYVAR
  5
269
102
{ACAD_REACTORS
330
264
102
}
330
264
100
DictionaryVariables
280
     0
  1
0
  0
DICTIONARY
  5
2A5
330
F6
100
AcDbDictionary
280
     1
281
     1
  3
ACAD_XREC_ROUNDTRIP
360
2A6
  0
DICTIONARY
  5
B4
330
B3
100
AcDbDictionary
280
     1
281
     1
  3
BUMPTILE
360
B6
  3
DIFFUSETILE
360
B5
  3
OPACITYTILE
360
B9
  3
REFLECTIONTILE
360
B8
  3
REFRACTIONTILE
360
BA
  3
SPECULARTILE
360
B7
  0
DICTIONARY
  5
AC
330
AB
100
AcDbDictionary
280
     1
281
     1
  3
BUMPTILE
360
AE
  3
DIFFUSETILE
360
AD
  3
OPACITYTILE
360
B1
  3
REFLECTIONTILE
360
B0
  3
REFRACTIONTILE
360
B2
  3
SPECULARTILE
360
AF
  0
DICTIONARY
  5
BC
330
BB
100
AcDbDictionary
280
     1
281
     1
  3
BUMPTILE
360
BE
  3
DIFFUSETILE
360
BD
  3
OPACITYTILE
360
C1
  3
REFLECTIONTILE
360
C0
  3
REFRACTIONTILE
360
C2
  3
SPECULARTILE
360
BF
  0
DICTIONARY
  5
2A1
330
F2
100
AcDbDictionary
280
     1
281
     1
  3
ACAD_XREC_ROUNDTRIP
360
2A2
  0
DICTIONARY
  5
2A3
330
F4
100
AcDbDictionary
280
     1
281
     1
  3
ACAD_XREC_ROUNDTRIP
360
2A4
  0
DICTIONARY
  5
26E
330
DE
100
AcDbDictionary
280
     1
281
     1
  3
ACAD_ROUNDTRIP_2008_TABLESTYLE_CELLSTYLEMAP
360
26F
  0
DICTIONARY
  5
27B
330
C9
100
AcDbDictionary
280
     1
281
     1
  3
ACAD_XREC_ROUNDTRIP
360
27C
  0
DICTIONARY
  5
279
330
C8
100
AcDbDictionary
280
     1
281
     1
  3
ACAD_XREC_ROUNDTRIP
360
27A
  0
DICTIONARY
  5
287
330
CF
100
AcDbDictionary
280
     1
281
     1
  3
ACAD_XREC_ROUNDTRIP
360
288
  0
DICTIONARY
  5
28F
330
D3
100
AcDbDictionary
280
     1
281
     1
  3
ACAD_XREC_ROUNDTRIP
360
290
  0
DICTIONARY
  5
281
330
CC
100
AcDbDictionary
280
     1
281
     1
  3
ACAD_XREC_ROUNDTRIP
360
282
  0
DICTIONARY
  5
285
330
CE
100
AcDbDictionary
280
     1
281
     1
  3
ACAD_XREC_ROUNDTRIP
360
286
  0
DICTIONARY
  5
29F
330
DB
100
AcDbDictionary
280
     1
281
     1
  3
ACAD_XREC_ROUNDTRIP
360
2A0
  0
DICTIONARY
  5
28D
330
D2
100
AcDbDictionary
280
     1
281
     1
  3
ACAD_XREC_ROUNDTRIP
360
28E
  0
DICTIONARY
  5
271
330
C4
100
AcDbDictionary
280
     1
281
     1
  3
ACAD_XREC_ROUNDTRIP
360
272
  0
DICTIONARY
  5
273
330
C5
100
AcDbDictionary
280
     1
281
     1
  3
ACAD_XREC_ROUNDTRIP
360
274
  0
DICTIONARY
  5
275
330
C6
100
AcDbDictionary
280
     1
281
     1
  3
ACAD_XREC_ROUNDTRIP
360
276
  0
DICTIONARY
  5
277
330
C7
100
AcDbDictionary
280
     1
281
     1
  3
ACAD_XREC_ROUNDTRIP
360
278
  0
DICTIONARY
  5
27F
330
CB
100
AcDbDictionary
280
     1
281
     1
  3
ACAD_XREC_ROUNDTRIP
360
280
  0
DICTIONARY
  5
29B
330
D9
100
AcDbDictionary
280
     1
281
     1
  3
ACAD_XREC_ROUNDTRIP
360
29C
  0
DICTIONARY
  5
28B
330
D1
100
AcDbDictionary
280
     1
281
     1
  3
ACAD_XREC_ROUNDTRIP
360
28C
  0
DICTIONARY
  5
29D
330
DA
100
AcDbDictionary
280
     1
281
     1
  3
ACAD_XREC_ROUNDTRIP
360
29E
  0
DICTIONARY
  5
283
330
CD
100
AcDbDictionary
280
     1
281
     1
  3
ACAD_XREC_ROUNDTRIP
360
284
  0
DICTIONARY
  5
299
330
D8
100
AcDbDictionary
280
     1
281
     1
  3
ACAD_XREC_ROUNDTRIP
360
29A
  0
DICTIONARY
  5
297
330
D7
100
AcDbDictionary
280
     1
281
     1
  3
ACAD_XREC_ROUNDTRIP
360
298
  0
DICTIONARY
  5
291
330
D4
100
AcDbDictionary
280
     1
281
     1
  3
ACAD_XREC_ROUNDTRIP
360
292
  0
DICTIONARY
  5
293
330
D5
100
AcDbDictionary
280
     1
281
     1
  3
ACAD_XREC_ROUNDTRIP
360
294
  0
DICTIONARY
  5
289
330
D0
100
AcDbDictionary
280
     1
281
     1
  3
ACAD_XREC_ROUNDTRIP
360
28A
  0
DICTIONARY
  5
27D
330
CA
100
AcDbDictionary
280
     1
281
     1
  3
ACAD_XREC_ROUNDTRIP
360
27E
  0
DICTIONARY
  5
295
330
D6
100
AcDbDictionary
280
     1
281
     1
  3
ACAD_XREC_ROUNDTRIP
360
296
  0
XRECORD
  5
2A6
102
{ACAD_REACTORS
330
2A5
102
}
330
2A5
100
AcDbXrecord
280
     1
102
DISPLAYNAME
  1
Imperial24
102
FLAGS
 90
        0
  0
XRECORD
  5
B6
102
{ACAD_REACTORS
330
B4
102
}
330
B4
100
AcDbXrecord
280
     1
270
     1
271
     1
  0
XRECORD
  5
B5
102
{ACAD_REACTORS
330
B4
102
}
330
B4
100
AcDbXrecord
280
     1
270
     1
271
     1
  0
XRECORD
  5
B9
102
{ACAD_REACTORS
330
B4
102
}
330
B4
100
AcDbXrecord
280
     1
270
     1
271
     1
  0
XRECORD
  5
B8
102
{ACAD_REACTORS
330
B4
102
}
330
B4
100
AcDbXrecord
280
     1
270
     1
271
     1
  0
XRECORD
  5
BA
102
{ACAD_REACTORS
330
B4
102
}
330
B4
100
AcDbXrecord
280
     1
270
     1
271
     1
  0
XRECORD
  5
B7
102
{ACAD_REACTORS
330
B4
102
}
330
B4
100
AcDbXrecord
280
     1
270
     1
271
     1
  0
XRECORD
  5
AE
102
{ACAD_REACTORS
330
AC
102
}
330
AC
100
AcDbXrecord
280
     1
270
     1
271
     1
  0
XRECORD
  5
AD
102
{ACAD_REACTORS
330
AC
102
}
330
AC
100
AcDbXrecord
280
     1
270
     1
271
     1
  0
XRECORD
  5
B1
102
{ACAD_REACTORS
330
AC
102
}
330
AC
100
AcDbXrecord
280
     1
270
     1
271
     1
  0
XRECORD
  5
B0
102
{ACAD_REACTORS
330
AC
102
}
330
AC
100
AcDbXrecord
280
     1
270
     1
271
     1
  0
XRECORD
  5
B2
102
{ACAD_REACTORS
330
AC
102
}
330
AC
100
AcDbXrecord
280
     1
270
     1
271
     1
  0
XRECORD
  5
AF
102
{ACAD_REACTORS
330
AC
102
}
330
AC
100
AcDbXrecord
280
     1
270
     1
271
     1
  0
XRECORD
  5
BE
102
{ACAD_REACTORS
330
BC
102
}
330
BC
100
AcDbXrecord
280
     1
270
     1
271
     1
  0
XRECORD
  5
BD
102
{ACAD_REACTORS
330
BC
102
}
330
BC
100
AcDbXrecord
280
     1
270
     1
271
     1
  0
XRECORD
  5
C1
102
{ACAD_REACTORS
330
BC
102
}
330
BC
100
AcDbXrecord
280
     1
270
     1
271
     1
  0
XRECORD
  5
C0
102
{ACAD_REACTORS
330
BC
102
}
330
BC
100
AcDbXrecord
280
     1
270
     1
271
     1
  0
XRECORD
  5
C2
102
{ACAD_REACTORS
330
BC
102
}
330
BC
100
AcDbXrecord
280
     1
270
     1
271
     1
  0
XRECORD
  5
BF
102
{ACAD_REACTORS
330
BC
102
}
330
BC
100
AcDbXrecord
280
     1
270
     1
271
     1
  0
XRECORD
  5
2A2
102
{ACAD_REACTORS
330
2A1
102
}
330
2A1
100
AcDbXrecord
280
     1
102
ACAD_ROUNDTRIP_2012_MLEADER_STYLE
298
     1
  0
XRECORD
  5
2A4
102
{ACAD_REACTORS
330
2A3
102
}
330
2A3
100
AcDbXrecord
280
     1
102
DISPLAYNAME
  1
Imperial24
102
FLAGS
 90
        0
  0
CELLSTYLEMAP
  5
26F
102
{ACAD_REACTORS
330
26E
102
}
330
26E
100
AcDbCellStyleMap
 90
        3
300
CELLSTYLE
  1
TABLEFORMAT_BEGIN
 90
        5
170
     1
 91
        0
 92
    32768
 62
   257
 93
        1
300
CONTENTFORMAT
  1
CONTENTFORMAT_BEGIN
 90
        0
 91
        0
 92
      512
 93
        0
300

 40
0.0
140
1.0
 94
        5
 62
     0
340
11
144
0.25
309
CONTENTFORMAT_END
171
     0
 94
        0
309
TABLEFORMAT_END
  1
CELLSTYLE_BEGIN
 90
        1
 91
        1
300
_TITLE
309
CELLSTYLE_END
300
CELLSTYLE
  1
TABLEFORMAT_BEGIN
 90
        5
170
     1
 91
        0
 92
        0
 62
   257
 93
        1
300
CONTENTFORMAT
  1
CONTENTFORMAT_BEGIN
 90
        0
 91
        0
 92
      512
 93
        0
300

 40
0.0
140
1.0
 94
        5
 62
     0
340
11
144
0.18
309
CONTENTFORMAT_END
171
     0
 94
        0
309
TABLEFORMAT_END
  1
CELLSTYLE_BEGIN
 90
        2
 91
        1
300
_HEADER
309
CELLSTYLE_END
300
CELLSTYLE
  1
TABLEFORMAT_BEGIN
 90
        5
170
     1
 91
        0
 92
        0
 62
   257
 93
        1
300
CONTENTFORMAT
  1
CONTENTFORMAT_BEGIN
 90
        0
 91
        0
 92
      512
 93
        0
300

 40
0.0
140
1.0
 94
        2
 62
     0
340
11
144
0.18
309
CONTENTFORMAT_END
171
     0
 94
        0
309
TABLEFORMAT_END
  1
CELLSTYLE_BEGIN
 90
        3
 91
        2
300
_DATA
309
CELLSTYLE_END
  0
XRECORD
  5
27C
102
{ACAD_REACTORS
330
27B
102
}
330
27B
100
AcDbXrecord
280
     1
102
RTVSPost2010Prop28
280
     1
102
RTVSPost2010PropOp28
 70
     1
102
RTVSPost2010Prop29
280
     1
102
RTVSPost2010PropOp29
 70
     1
102
RTVSPost2010Prop30
280
     0
102
RTVSPost2010PropOp30
 70
     1
102
RTVSPost2010Prop31
280
     0
102
RTVSPost2010PropOp31
 70
     1
102
RTVSPost2010Prop32
280
     0
102
RTVSPost2010PropOp32
 70
     1
102
RTVSPost2010Prop33
280
     0
102
RTVSPost2010PropOp33
 70
     1
102
RTVSPost2010Prop34
280
     0
102
RTVSPost2010PropOp34
 70
     1
102
RTVSPost2010Prop35
280
     0
102
RTVSPost2010PropOp35
 70
     1
102
RTVSPost2010Prop36
280
     0
102
RTVSPost2010PropOp36
 70
     1
102
RTVSPost2010Prop37
 90
       50
102
RTVSPost2010PropOp37
 70
     1
102
RTVSPost2010Prop38
140
0.0
102
RTVSPost2010PropOp38
 70
     1
102
RTVSPost2010Prop39
140
1.0
102
RTVSPost2010PropOp39
 70
     1
102
RTVSPost2010Prop40
 90
        0
102
RTVSPost2010PropOp40
 70
     1
102
RTVSPost2010Prop41ColorIndex
 90
       18
102
RTVSPost2010Prop41ColorRGB
 90
        0
102
RTVSPost2010PropOp41
 70
     1
102
RTVSPost2010Prop42
 90
       50
102
RTVSPost2010PropOp42
 70
     1
102
RTVSPost2010Prop43
 90
        3
102
RTVSPost2010PropOp43
 70
     1
102
RTVSPost2010Prop44ColorIndex
 90
        5
102
RTVSPost2010Prop44ColorRGB
 90
      255
102
RTVSPost2010PropOp44
 70
     1
102
RTVSPost2010Prop45
280
     0
102
RTVSPost2010PropOp45
 70
     1
102
RTVSPost2010Prop46
 90
       50
102
RTVSPost2010PropOp46
 70
     1
102
RTVSPost2010Prop47
 90
       50
102
RTVSPost2010PropOp47
 70
     1
102
RTVSPost2010Prop48
 90
       50
102
RTVSPost2010PropOp48
 70
     1
102
RTVSPost2010Prop49
280
     0
102
RTVSPost2010PropOp49
 70
     1
102
RTVSPost2010Prop50
 90
       50
102
RTVSPost2010PropOp50
 70
     1
102
RTVSPost2010Prop51ColorIndex
 90
      256
102
RTVSPost2010Prop51ColorRGB
 90
-16777216
102
RTVSPost2010PropOp51
 70
     0
102
RTVSPost2010Prop52
140
1.0
102
RTVSPost2010PropOp52
 70
     0
102
RTVSPost2010Prop53
 90
        2
102
RTVSPost2010PropOp53
 70
     1
102
RTVSPost2010Prop54
  1
strokes_ogs.tif
102
RTVSPost2010PropOp54
 70
     1
102
RTVSPost2010Prop55
280
     0
102
RTVSPost2010PropOp55
 70
     1
102
RTVSPost2010Prop56
140
1.0
102
RTVSPost2010PropOp56
 70
     1
102
RTVSPost2010Prop57
140
1.0
102
RTVSPost2010PropOp57
 70
     1
  0
XRECORD
  5
27A
102
{ACAD_REACTORS
330
279
102
}
330
279
100
AcDbXrecord
280
     1
102
RTVSPost2010Prop28
280
     0
102
RTVSPost2010PropOp28
 70
     1
102
RTVSPost2010Prop29
280
     1
102
RTVSPost2010PropOp29
 70
     1
102
RTVSPost2010Prop30
280
     1
102
RTVSPost2010PropOp30
 70
     1
102
RTVSPost2010Prop31
280
     0
102
RTVSPost2010PropOp31
 70
     1
102
RTVSPost2010Prop32
280
     0
102
RTVSPost2010PropOp32
 70
     1
102
RTVSPost2010Prop33
280
     0
102
RTVSPost2010PropOp33
 70
     1
102
RTVSPost2010Prop34
280
     0
102
RTVSPost2010PropOp34
 70
     1
102
RTVSPost2010Prop35
280
     0
102
RTVSPost2010PropOp35
 70
     1
102
RTVSPost2010Prop36
280
     0
102
RTVSPost2010PropOp36
 70
     1
102
RTVSPost2010Prop37
 90
       50
102
RTVSPost2010PropOp37
 70
     1
102
RTVSPost2010Prop38
140
0.0
102
RTVSPost2010PropOp38
 70
     1
102
RTVSPost2010Prop39
140
1.0
102
RTVSPost2010PropOp39
 70
     1
102
RTVSPost2010Prop40
 90
        0
102
RTVSPost2010PropOp40
 70
     1
102
RTVSPost2010Prop41ColorIndex
 90
       18
102
RTVSPost2010Prop41ColorRGB
 90
        0
102
RTVSPost2010PropOp41
 70
     1
102
RTVSPost2010Prop42
 90
       50
102
RTVSPost2010PropOp42
 70
     1
102
RTVSPost2010Prop43
 90
        3
102
RTVSPost2010PropOp43
 70
     1
102
RTVSPost2010Prop44ColorIndex
 90
        5
102
RTVSPost2010Prop44ColorRGB
 90
      255
102
RTVSPost2010PropOp44
 70
     1
102
RTVSPost2010Prop45
280
     0
102
RTVSPost2010PropOp45
 70
     1
102
RTVSPost2010Prop46
 90
       50
102
RTVSPost2010PropOp46
 70
     1
102
RTVSPost2010Prop47
 90
       50
102
RTVSPost2010PropOp47
 70
     1
102
RTVSPost2010Prop48
 90
       50
102
RTVSPost2010PropOp48
 70
     1
102
RTVSPost2010Prop49
280
     0
102
RTVSPost2010PropOp49
 70
     1
102
RTVSPost2010Prop50
 90
       50
102
RTVSPost2010PropOp50
 70
     1
102
RTVSPost2010Prop51ColorIndex
 90
      256
102
RTVSPost2010Prop51ColorRGB
 90
-16777216
102
RTVSPost2010PropOp51
 70
     0
102
RTVSPost2010Prop52
140
1.0
102
RTVSPost2010PropOp52
 70
     0
102
RTVSPost2010Prop53
 90
        2
102
RTVSPost2010PropOp53
 70
     1
102
RTVSPost2010Prop54
  1
strokes_ogs.tif
102
RTVSPost2010PropOp54
 70
     1
102
RTVSPost2010Prop55
280
     0
102
RTVSPost2010PropOp55
 70
     1
102
RTVSPost2010Prop56
140
1.0
102
RTVSPost2010PropOp56
 70
     1
102
RTVSPost2010Prop57
140
1.0
102
RTVSPost2010PropOp57
 70
     1
  0
XRECORD
  5
288
102
{ACAD_REACTORS
330
287
102
}
330
287
100
AcDbXrecord
280
     1
102
RTVSPost2010Prop28
280
     0
102
RTVSPost2010PropOp28
 70
     1
102
RTVSPost2010Prop29
280
     1
102
RTVSPost2010PropOp29
 70
     1
102
RTVSPost2010Prop30
280
     1
102
RTVSPost2010PropOp30
 70
     1
102
RTVSPost2010Prop31
280
     0
102
RTVSPost2010PropOp31
 70
     1
102
RTVSPost2010Prop32
280
     0
102
RTVSPost2010PropOp32
 70
     1
102
RTVSPost2010Prop33
280
     0
102
RTVSPost2010PropOp33
 70
     1
102
RTVSPost2010Prop34
280
     0
102
RTVSPost2010PropOp34
 70
     1
102
RTVSPost2010Prop35
280
     0
102
RTVSPost2010PropOp35
 70
     1
102
RTVSPost2010Prop36
280
     0
102
RTVSPost2010PropOp36
 70
     1
102
RTVSPost2010Prop37
 90
       50
102
RTVSPost2010PropOp37
 70
     1
102
RTVSPost2010Prop38
140
0.0
102
RTVSPost2010PropOp38
 70
     1
102
RTVSPost2010Prop39
140
1.0
102
RTVSPost2010PropOp39
 70
     1
102
RTVSPost2010Prop40
 90
        0
102
RTVSPost2010PropOp40
 70
     1
102
RTVSPost2010Prop41ColorIndex
 90
       18
102
RTVSPost2010Prop41ColorRGB
 90
        0
102
RTVSPost2010PropOp41
 70
     1
102
RTVSPost2010Prop42
 90
       50
102
RTVSPost2010PropOp42
 70
     1
102
RTVSPost2010Prop43
 90
        3
102
RTVSPost2010PropOp43
 70
     1
102
RTVSPost2010Prop44ColorIndex
 90
        5
102
RTVSPost2010Prop44ColorRGB
 90
      255
102
RTVSPost2010PropOp44
 70
     1
102
RTVSPost2010Prop45
280
     0
102
RTVSPost2010PropOp45
 70
     1
102
RTVSPost2010Prop46
 90
       50
102
RTVSPost2010PropOp46
 70
     1
102
RTVSPost2010Prop47
 90
       50
102
RTVSPost2010PropOp47
 70
     1
102
RTVSPost2010Prop48
 90
       50
102
RTVSPost2010PropOp48
 70
     1
102
RTVSPost2010Prop49
280
     0
102
RTVSPost2010PropOp49
 70
     1
102
RTVSPost2010Prop50
 90
       50
102
RTVSPost2010PropOp50
 70
     1
102
RTVSPost2010Prop51ColorIndex
 90
      256
102
RTVSPost2010Prop51ColorRGB
 90
-16777216
102
RTVSPost2010PropOp51
 70
     0
102
RTVSPost2010Prop52
140
1.0
102
RTVSPost2010PropOp52
 70
     0
102
RTVSPost2010Prop53
 90
        2
102
RTVSPost2010PropOp53
 70
     1
102
RTVSPost2010Prop54
  1
strokes_ogs.tif
102
RTVSPost2010PropOp54
 70
     1
102
RTVSPost2010Prop55
280
     0
102
RTVSPost2010PropOp55
 70
     1
102
RTVSPost2010Prop56
140
1.0
102
RTVSPost2010PropOp56
 70
     1
102
RTVSPost2010Prop57
140
1.0
102
RTVSPost2010PropOp57
 70
     1
  0
XRECORD
  5
290
102
{ACAD_REACTORS
330
28F
102
}
330
28F
100
AcDbXrecord
280
     1
102
RTVSPost2010Prop28
280
     0
102
RTVSPost2010PropOp28
 70
     1
102
RTVSPost2010Prop29
280
     1
102
RTVSPost2010PropOp29
 70
     1
102
RTVSPost2010Prop30
280
     1
102
RTVSPost2010PropOp30
 70
     1
102
RTVSPost2010Prop31
280
     0
102
RTVSPost2010PropOp31
 70
     1
102
RTVSPost2010Prop32
280
     0
102
RTVSPost2010PropOp32
 70
     1
102
RTVSPost2010Prop33
280
     0
102
RTVSPost2010PropOp33
 70
     1
102
RTVSPost2010Prop34
280
     0
102
RTVSPost2010PropOp34
 70
     1
102
RTVSPost2010Prop35
280
     0
102
RTVSPost2010PropOp35
 70
     1
102
RTVSPost2010Prop36
280
     0
102
RTVSPost2010PropOp36
 70
     1
102
RTVSPost2010Prop37
 90
       50
102
RTVSPost2010PropOp37
 70
     1
102
RTVSPost2010Prop38
140
0.0
102
RTVSPost2010PropOp38
 70
     1
102
RTVSPost2010Prop39
140
1.0
102
RTVSPost2010PropOp39
 70
     1
102
RTVSPost2010Prop40
 90
        0
102
RTVSPost2010PropOp40
 70
     1
102
RTVSPost2010Prop41ColorIndex
 90
       18
102
RTVSPost2010Prop41ColorRGB
 90
        0
102
RTVSPost2010PropOp41
 70
     1
102
RTVSPost2010Prop42
 90
       50
102
RTVSPost2010PropOp42
 70
     1
102
RTVSPost2010Prop43
 90
        3
102
RTVSPost2010PropOp43
 70
     1
102
RTVSPost2010Prop44ColorIndex
 90
        5
102
RTVSPost2010Prop44ColorRGB
 90
      255
102
RTVSPost2010PropOp44
 70
     1
102
RTVSPost2010Prop45
280
     0
102
RTVSPost2010PropOp45
 70
     1
102
RTVSPost2010Prop46
 90
       50
102
RTVSPost2010PropOp46
 70
     1
102
RTVSPost2010Prop47
 90
       50
102
RTVSPost2010PropOp47
 70
     1
102
RTVSPost2010Prop48
 90
       50
102
RTVSPost2010PropOp48
 70
     1
102
RTVSPost2010Prop49
280
     0
102
RTVSPost2010PropOp49
 70
     1
102
RTVSPost2010Prop50
 90
       50
102
RTVSPost2010PropOp50
 70
     1
102
RTVSPost2010Prop51ColorIndex
 90
      256
102
RTVSPost2010Prop51ColorRGB
 90
-16777216
102
RTVSPost2010PropOp51
 70
     0
102
RTVSPost2010Prop52
140
1.0
102
RTVSPost2010PropOp52
 70
     0
102
RTVSPost2010Prop53
 90
        2
102
RTVSPost2010PropOp53
 70
     1
102
RTVSPost2010Prop54
  1
strokes_ogs.tif
102
RTVSPost2010PropOp54
 70
     1
102
RTVSPost2010Prop55
280
     0
102
RTVSPost2010PropOp55
 70
     1
102
RTVSPost2010Prop56
140
1.0
102
RTVSPost2010PropOp56
 70
     1
102
RTVSPost2010Prop57
140
1.0
102
RTVSPost2010PropOp57
 70
     1
  0
XRECORD
  5
282
102
{ACAD_REACTORS
330
281
102
}
330
281
100
AcDbXrecord
280
     1
102
RTVSPost2010Prop28
280
     0
102
RTVSPost2010PropOp28
 70
     1
102
RTVSPost2010Prop29
280
     1
102
RTVSPost2010PropOp29
 70
     1
102
RTVSPost2010Prop30
280
     1
102
RTVSPost2010PropOp30
 70
     1
102
RTVSPost2010Prop31
280
     0
102
RTVSPost2010PropOp31
 70
     1
102
RTVSPost2010Prop32
280
     0
102
RTVSPost2010PropOp32
 70
     1
102
RTVSPost2010Prop33
280
     0
102
RTVSPost2010PropOp33
 70
     1
102
RTVSPost2010Prop34
280
     0
102
RTVSPost2010PropOp34
 70
     1
102
RTVSPost2010Prop35
280
     0
102
RTVSPost2010PropOp35
 70
     1
102
RTVSPost2010Prop36
280
     0
102
RTVSPost2010PropOp36
 70
     1
102
RTVSPost2010Prop37
 90
       50
102
RTVSPost2010PropOp37
 70
     1
102
RTVSPost2010Prop38
140
0.0
102
RTVSPost2010PropOp38
 70
     1
102
RTVSPost2010Prop39
140
1.0
102
RTVSPost2010PropOp39
 70
     1
102
RTVSPost2010Prop40
 90
        0
102
RTVSPost2010PropOp40
 70
     1
102
RTVSPost2010Prop41ColorIndex
 90
       18
102
RTVSPost2010Prop41ColorRGB
 90
        0
102
RTVSPost2010PropOp41
 70
     1
102
RTVSPost2010Prop42
 90
       50
102
RTVSPost2010PropOp42
 70
     1
102
RTVSPost2010Prop43
 90
        3
102
RTVSPost2010PropOp43
 70
     1
102
RTVSPost2010Prop44ColorIndex
 90
        5
102
RTVSPost2010Prop44ColorRGB
 90
      255
102
RTVSPost2010PropOp44
 70
     1
102
RTVSPost2010Prop45
280
     0
102
RTVSPost2010PropOp45
 70
     1
102
RTVSPost2010Prop46
 90
       50
102
RTVSPost2010PropOp46
 70
     1
102
RTVSPost2010Prop47
 90
       50
102
RTVSPost2010PropOp47
 70
     1
102
RTVSPost2010Prop48
 90
       50
102
RTVSPost2010PropOp48
 70
     1
102
RTVSPost2010Prop49
280
     0
102
RTVSPost2010PropOp49
 70
     1
102
RTVSPost2010Prop50
 90
       50
102
RTVSPost2010PropOp50
 70
     1
102
RTVSPost2010Prop51ColorIndex
 90
      256
102
RTVSPost2010Prop51ColorRGB
 90
-16777216
102
RTVSPost2010PropOp51
 70
     0
102
RTVSPost2010Prop52
140
1.0
102
RTVSPost2010PropOp52
 70
     0
102
RTVSPost2010Prop53
 90
        2
102
RTVSPost2010PropOp53
 70
     1
102
RTVSPost2010Prop54
  1
strokes_ogs.tif
102
RTVSPost2010PropOp54
 70
     1
102
RTVSPost2010Prop55
280
     0
102
RTVSPost2010PropOp55
 70
     1
102
RTVSPost2010Prop56
140
1.0
102
RTVSPost2010PropOp56
 70
     1
102
RTVSPost2010Prop57
140
1.0
102
RTVSPost2010PropOp57
 70
     1
  0
XRECORD
  5
286
102
{ACAD_REACTORS
330
285
102
}
330
285
100
AcDbXrecord
280
     1
102
RTVSPost2010Prop28
280
     0
102
RTVSPost2010PropOp28
 70
     1
102
RTVSPost2010Prop29
280
     1
102
RTVSPost2010PropOp29
 70
     1
102
RTVSPost2010Prop30
280
     1
102
RTVSPost2010PropOp30
 70
     1
102
RTVSPost2010Prop31
280
     0
102
RTVSPost2010PropOp31
 70
     1
102
RTVSPost2010Prop32
280
     0
102
RTVSPost2010PropOp32
 70
     1
102
RTVSPost2010Prop33
280
     0
102
RTVSPost2010PropOp33
 70
     1
102
RTVSPost2010Prop34
280
     0
102
RTVSPost2010PropOp34
 70
     1
102
RTVSPost2010Prop35
280
     0
102
RTVSPost2010PropOp35
 70
     1
102
RTVSPost2010Prop36
280
     0
102
RTVSPost2010PropOp36
 70
     1
102
RTVSPost2010Prop37
 90
       50
102
RTVSPost2010PropOp37
 70
     1
102
RTVSPost2010Prop38
140
0.0
102
RTVSPost2010PropOp38
 70
     1
102
RTVSPost2010Prop39
140
1.0
102
RTVSPost2010PropOp39
 70
     1
102
RTVSPost2010Prop40
 90
        0
102
RTVSPost2010PropOp40
 70
     1
102
RTVSPost2010Prop41ColorIndex
 90
       18
102
RTVSPost2010Prop41ColorRGB
 90
        0
102
RTVSPost2010PropOp41
 70
     1
102
RTVSPost2010Prop42
 90
       50
102
RTVSPost2010PropOp42
 70
     1
102
RTVSPost2010Prop43
 90
        3
102
RTVSPost2010PropOp43
 70
     1
102
RTVSPost2010Prop44ColorIndex
 90
        5
102
RTVSPost2010Prop44ColorRGB
 90
      255
102
RTVSPost2010PropOp44
 70
     1
102
RTVSPost2010Prop45
280
     0
102
RTVSPost2010PropOp45
 70
     1
102
RTVSPost2010Prop46
 90
       50
102
RTVSPost2010PropOp46
 70
     1
102
RTVSPost2010Prop47
 90
       50
102
RTVSPost2010PropOp47
 70
     1
102
RTVSPost2010Prop48
 90
       50
102
RTVSPost2010PropOp48
 70
     1
102
RTVSPost2010Prop49
280
     0
102
RTVSPost2010PropOp49
 70
     1
102
RTVSPost2010Prop50
 90
       50
102
RTVSPost2010PropOp50
 70
     1
102
RTVSPost2010Prop51ColorIndex
 90
      256
102
RTVSPost2010Prop51ColorRGB
 90
-16777216
102
RTVSPost2010PropOp51
 70
     0
102
RTVSPost2010Prop52
140
1.0
102
RTVSPost2010PropOp52
 70
     0
102
RTVSPost2010Prop53
 90
        2
102
RTVSPost2010PropOp53
 70
     1
102
RTVSPost2010Prop54
  1
strokes_ogs.tif
102
RTVSPost2010PropOp54
 70
     1
102
RTVSPost2010Prop55
280
     0
102
RTVSPost2010PropOp55
 70
     1
102
RTVSPost2010Prop56
140
1.0
102
RTVSPost2010PropOp56
 70
     1
102
RTVSPost2010Prop57
140
1.0
102
RTVSPost2010PropOp57
 70
     1
  0
XRECORD
  5
2A0
102
{ACAD_REACTORS
330
29F
102
}
330
29F
100
AcDbXrecord
280
     1
102
RTVSPost2010Prop28
280
     0
102
RTVSPost2010PropOp28
 70
     0
102
RTVSPost2010Prop29
280
     1
102
RTVSPost2010PropOp29
 70
     0
102
RTVSPost2010Prop30
280
     1
102
RTVSPost2010PropOp30
 70
     0
102
RTVSPost2010Prop31
280
     0
102
RTVSPost2010PropOp31
 70
     0
102
RTVSPost2010Prop32
280
     0
102
RTVSPost2010PropOp32
 70
     0
102
RTVSPost2010Prop33
280
     0
102
RTVSPost2010PropOp33
 70
     0
102
RTVSPost2010Prop34
280
     0
102
RTVSPost2010PropOp34
 70
     0
102
RTVSPost2010Prop35
280
     0
102
RTVSPost2010PropOp35
 70
     0
102
RTVSPost2010Prop36
280
     0
102
RTVSPost2010PropOp36
 70
     0
102
RTVSPost2010Prop37
 90
       50
102
RTVSPost2010PropOp37
 70
     0
102
RTVSPost2010Prop38
140
0.0
102
RTVSPost2010PropOp38
 70
     0
102
RTVSPost2010Prop39
140
1.0
102
RTVSPost2010PropOp39
 70
     0
102
RTVSPost2010Prop40
 90
        0
102
RTVSPost2010PropOp40
 70
     0
102
RTVSPost2010Prop41ColorIndex
 90
       18
102
RTVSPost2010Prop41ColorRGB
 90
        0
102
RTVSPost2010PropOp41
 70
     0
102
RTVSPost2010Prop42
 90
       50
102
RTVSPost2010PropOp42
 70
     0
102
RTVSPost2010Prop43
 90
        3
102
RTVSPost2010PropOp43
 70
     0
102
RTVSPost2010Prop44ColorIndex
 90
        5
102
RTVSPost2010Prop44ColorRGB
 90
      255
102
RTVSPost2010PropOp44
 70
     0
102
RTVSPost2010Prop45
280
     0
102
RTVSPost2010PropOp45
 70
     0
102
RTVSPost2010Prop46
 90
       50
102
RTVSPost2010PropOp46
 70
     0
102
RTVSPost2010Prop47
 90
       50
102
RTVSPost2010PropOp47
 70
     0
102
RTVSPost2010Prop48
 90
       50
102
RTVSPost2010PropOp48
 70
     0
102
RTVSPost2010Prop49
280
     0
102
RTVSPost2010PropOp49
 70
     0
102
RTVSPost2010Prop50
 90
       50
102
RTVSPost2010PropOp50
 70
     0
102
RTVSPost2010Prop51ColorIndex
 90
      256
102
RTVSPost2010Prop51ColorRGB
 90
-16777216
102
RTVSPost2010PropOp51
 70
     0
102
RTVSPost2010Prop52
140
1.0
102
RTVSPost2010PropOp52
 70
     0
102
RTVSPost2010Prop53
 90
        2
102
RTVSPost2010PropOp53
 70
     0
102
RTVSPost2010Prop54
  1
strokes_ogs.tif
102
RTVSPost2010PropOp54
 70
     0
102
RTVSPost2010Prop55
280
     0
102
RTVSPost2010PropOp55
 70
     0
102
RTVSPost2010Prop56
140
1.0
102
RTVSPost2010PropOp56
 70
     0
102
RTVSPost2010Prop57
140
1.0
102
RTVSPost2010PropOp57
 70
     0
  0
XRECORD
  5
28E
102
{ACAD_REACTORS
330
28D
102
}
330
28D
100
AcDbXrecord
280
     1
102
RTVSPost2010Prop28
280
     0
102
RTVSPost2010PropOp28
 70
     1
102
RTVSPost2010Prop29
280
     1
102
RTVSPost2010PropOp29
 70
     1
102
RTVSPost2010Prop30
280
     1
102
RTVSPost2010PropOp30
 70
     1
102
RTVSPost2010Prop31
280
     0
102
RTVSPost2010PropOp31
 70
     1
102
RTVSPost2010Prop32
280
     0
102
RTVSPost2010PropOp32
 70
     1
102
RTVSPost2010Prop33
280
     0
102
RTVSPost2010PropOp33
 70
     1
102
RTVSPost2010Prop34
280
     0
102
RTVSPost2010PropOp34
 70
     1
102
RTVSPost2010Prop35
280
     0
102
RTVSPost2010PropOp35
 70
     1
102
RTVSPost2010Prop36
280
     0
102
RTVSPost2010PropOp36
 70
     1
102
RTVSPost2010Prop37
 90
       50
102
RTVSPost2010PropOp37
 70
     1
102
RTVSPost2010Prop38
140
0.0
102
RTVSPost2010PropOp38
 70
     1
102
RTVSPost2010Prop39
140
1.0
102
RTVSPost2010PropOp39
 70
     1
102
RTVSPost2010Prop40
 90
        0
102
RTVSPost2010PropOp40
 70
     1
102
RTVSPost2010Prop41ColorIndex
 90
       18
102
RTVSPost2010Prop41ColorRGB
 90
        0
102
RTVSPost2010PropOp41
 70
     1
102
RTVSPost2010Prop42
 90
       50
102
RTVSPost2010PropOp42
 70
     1
102
RTVSPost2010Prop43
 90
        3
102
RTVSPost2010PropOp43
 70
     1
102
RTVSPost2010Prop44ColorIndex
 90
        5
102
RTVSPost2010Prop44ColorRGB
 90
      255
102
RTVSPost2010PropOp44
 70
     1
102
RTVSPost2010Prop45
280
     0
102
RTVSPost2010PropOp45
 70
     1
102
RTVSPost2010Prop46
 90
       50
102
RTVSPost2010PropOp46
 70
     1
102
RTVSPost2010Prop47
 90
       50
102
RTVSPost2010PropOp47
 70
     1
102
RTVSPost2010Prop48
 90
       50
102
RTVSPost2010PropOp48
 70
     1
102
RTVSPost2010Prop49
280
     0
102
RTVSPost2010PropOp49
 70
     1
102
RTVSPost2010Prop50
 90
       50
102
RTVSPost2010PropOp50
 70
     1
102
RTVSPost2010Prop51ColorIndex
 90
      256
102
RTVSPost2010Prop51ColorRGB
 90
-16777216
102
RTVSPost2010PropOp51
 70
     0
102
RTVSPost2010Prop52
140
1.0
102
RTVSPost2010PropOp52
 70
     0
102
RTVSPost2010Prop53
 90
        2
102
RTVSPost2010PropOp53
 70
     1
102
RTVSPost2010Prop54
  1
strokes_ogs.tif
102
RTVSPost2010PropOp54
 70
     1
102
RTVSPost2010Prop55
280
     0
102
RTVSPost2010PropOp55
 70
     1
102
RTVSPost2010Prop56
140
1.0
102
RTVSPost2010PropOp56
 70
     1
102
RTVSPost2010Prop57
140
1.0
102
RTVSPost2010PropOp57
 70
     1
  0
XRECORD
  5
272
102
{ACAD_REACTORS
330
271
102
}
330
271
100
AcDbXrecord
280
     1
102
RTVSPost2010Prop28
280
     0
102
RTVSPost2010PropOp28
 70
     1
102
RTVSPost2010Prop29
280
     1
102
RTVSPost2010PropOp29
 70
     1
102
RTVSPost2010Prop30
280
     1
102
RTVSPost2010PropOp30
 70
     1
102
RTVSPost2010Prop31
280
     0
102
RTVSPost2010PropOp31
 70
     1
102
RTVSPost2010Prop32
280
     0
102
RTVSPost2010PropOp32
 70
     1
102
RTVSPost2010Prop33
280
     0
102
RTVSPost2010PropOp33
 70
     1
102
RTVSPost2010Prop34
280
     0
102
RTVSPost2010PropOp34
 70
     1
102
RTVSPost2010Prop35
280
     0
102
RTVSPost2010PropOp35
 70
     1
102
RTVSPost2010Prop36
280
     0
102
RTVSPost2010PropOp36
 70
     1
102
RTVSPost2010Prop37
 90
       50
102
RTVSPost2010PropOp37
 70
     1
102
RTVSPost2010Prop38
140
0.0
102
RTVSPost2010PropOp38
 70
     1
102
RTVSPost2010Prop39
140
1.0
102
RTVSPost2010PropOp39
 70
     1
102
RTVSPost2010Prop40
 90
        0
102
RTVSPost2010PropOp40
 70
     1
102
RTVSPost2010Prop41ColorIndex
 90
       18
102
RTVSPost2010Prop41ColorRGB
 90
        0
102
RTVSPost2010PropOp41
 70
     1
102
RTVSPost2010Prop42
 90
       50
102
RTVSPost2010PropOp42
 70
     1
102
RTVSPost2010Prop43
 90
        3
102
RTVSPost2010PropOp43
 70
     1
102
RTVSPost2010Prop44ColorIndex
 90
        5
102
RTVSPost2010Prop44ColorRGB
 90
      255
102
RTVSPost2010PropOp44
 70
     1
102
RTVSPost2010Prop45
280
     0
102
RTVSPost2010PropOp45
 70
     1
102
RTVSPost2010Prop46
 90
       50
102
RTVSPost2010PropOp46
 70
     1
102
RTVSPost2010Prop47
 90
       50
102
RTVSPost2010PropOp47
 70
     1
102
RTVSPost2010Prop48
 90
       50
102
RTVSPost2010PropOp48
 70
     1
102
RTVSPost2010Prop49
280
     0
102
RTVSPost2010PropOp49
 70
     1
102
RTVSPost2010Prop50
 90
       50
102
RTVSPost2010PropOp50
 70
     1
102
RTVSPost2010Prop51ColorIndex
 90
      256
102
RTVSPost2010Prop51ColorRGB
 90
-16777216
102
RTVSPost2010PropOp51
 70
     0
102
RTVSPost2010Prop52
140
1.0
102
RTVSPost2010PropOp52
 70
     0
102
RTVSPost2010Prop53
 90
        2
102
RTVSPost2010PropOp53
 70
     1
102
RTVSPost2010Prop54
  1
strokes_ogs.tif
102
RTVSPost2010PropOp54
 70
     1
102
RTVSPost2010Prop55
280
     0
102
RTVSPost2010PropOp55
 70
     1
102
RTVSPost2010Prop56
140
1.0
102
RTVSPost2010PropOp56
 70
     1
102
RTVSPost2010Prop57
140
1.0
102
RTVSPost2010PropOp57
 70
     1
  0
XRECORD
  5
274
102
{ACAD_REACTORS
330
273
102
}
330
273
100
AcDbXrecord
280
     1
102
RTVSPost2010Prop28
280
     0
102
RTVSPost2010PropOp28
 70
     1
102
RTVSPost2010Prop29
280
     1
102
RTVSPost2010PropOp29
 70
     1
102
RTVSPost2010Prop30
280
     1
102
RTVSPost2010PropOp30
 70
     1
102
RTVSPost2010Prop31
280
     0
102
RTVSPost2010PropOp31
 70
     1
102
RTVSPost2010Prop32
280
     0
102
RTVSPost2010PropOp32
 70
     1
102
RTVSPost2010Prop33
280
     0
102
RTVSPost2010PropOp33
 70
     1
102
RTVSPost2010Prop34
280
     0
102
RTVSPost2010PropOp34
 70
     1
102
RTVSPost2010Prop35
280
     0
102
RTVSPost2010PropOp35
 70
     1
102
RTVSPost2010Prop36
280
     0
102
RTVSPost2010PropOp36
 70
     1
102
RTVSPost2010Prop37
 90
       50
102
RTVSPost2010PropOp37
 70
     1
102
RTVSPost2010Prop38
140
0.0
102
RTVSPost2010PropOp38
 70
     1
102
RTVSPost2010Prop39
140
1.0
102
RTVSPost2010PropOp39
 70
     1
102
RTVSPost2010Prop40
 90
        0
102
RTVSPost2010PropOp40
 70
     1
102
RTVSPost2010Prop41ColorIndex
 90
       18
102
RTVSPost2010Prop41ColorRGB
 90
        0
102
RTVSPost2010PropOp41
 70
     1
102
RTVSPost2010Prop42
 90
       50
102
RTVSPost2010PropOp42
 70
     1
102
RTVSPost2010Prop43
 90
        3
102
RTVSPost2010PropOp43
 70
     1
102
RTVSPost2010Prop44ColorIndex
 90
        5
102
RTVSPost2010Prop44ColorRGB
 90
      255
102
RTVSPost2010PropOp44
 70
     1
102
RTVSPost2010Prop45
280
     0
102
RTVSPost2010PropOp45
 70
     1
102
RTVSPost2010Prop46
 90
       50
102
RTVSPost2010PropOp46
 70
     1
102
RTVSPost2010Prop47
 90
       50
102
RTVSPost2010PropOp47
 70
     1
102
RTVSPost2010Prop48
 90
       50
102
RTVSPost2010PropOp48
 70
     1
102
RTVSPost2010Prop49
280
     0
102
RTVSPost2010PropOp49
 70
     1
102
RTVSPost2010Prop50
 90
       50
102
RTVSPost2010PropOp50
 70
     1
102
RTVSPost2010Prop51ColorIndex
 90
      256
102
RTVSPost2010Prop51ColorRGB
 90
-16777216
102
RTVSPost2010PropOp51
 70
     0
102
RTVSPost2010Prop52
140
1.0
102
RTVSPost2010PropOp52
 70
     0
102
RTVSPost2010Prop53
 90
        2
102
RTVSPost2010PropOp53
 70
     1
102
RTVSPost2010Prop54
  1
strokes_ogs.tif
102
RTVSPost2010PropOp54
 70
     1
102
RTVSPost2010Prop55
280
     0
102
RTVSPost2010PropOp55
 70
     1
102
RTVSPost2010Prop56
140
1.0
102
RTVSPost2010PropOp56
 70
     1
102
RTVSPost2010Prop57
140
1.0
102
RTVSPost2010PropOp57
 70
     1
  0
XRECORD
  5
276
102
{ACAD_REACTORS
330
275
102
}
330
275
100
AcDbXrecord
280
     1
102
RTVSPost2010Prop28
280
     0
102
RTVSPost2010PropOp28
 70
     1
102
RTVSPost2010Prop29
280
     1
102
RTVSPost2010PropOp29
 70
     1
102
RTVSPost2010Prop30
280
     1
102
RTVSPost2010PropOp30
 70
     1
102
RTVSPost2010Prop31
280
     0
102
RTVSPost2010PropOp31
 70
     1
102
RTVSPost2010Prop32
280
     0
102
RTVSPost2010PropOp32
 70
     1
102
RTVSPost2010Prop33
280
     0
102
RTVSPost2010PropOp33
 70
     1
102
RTVSPost2010Prop34
280
     0
102
RTVSPost2010PropOp34
 70
     1
102
RTVSPost2010Prop35
280
     0
102
RTVSPost2010PropOp35
 70
     1
102
RTVSPost2010Prop36
280
     0
102
RTVSPost2010PropOp36
 70
     1
102
RTVSPost2010Prop37
 90
       50
102
RTVSPost2010PropOp37
 70
     1
102
RTVSPost2010Prop38
140
0.0
102
RTVSPost2010PropOp38
 70
     1
102
RTVSPost2010Prop39
140
1.0
102
RTVSPost2010PropOp39
 70
     1
102
RTVSPost2010Prop40
 90
        0
102
RTVSPost2010PropOp40
 70
     1
102
RTVSPost2010Prop41ColorIndex
 90
       18
102
RTVSPost2010Prop41ColorRGB
 90
        0
102
RTVSPost2010PropOp41
 70
     1
102
RTVSPost2010Prop42
 90
       50
102
RTVSPost2010PropOp42
 70
     1
102
RTVSPost2010Prop43
 90
        3
102
RTVSPost2010PropOp43
 70
     1
102
RTVSPost2010Prop44ColorIndex
 90
        5
102
RTVSPost2010Prop44ColorRGB
 90
      255
102
RTVSPost2010PropOp44
 70
     1
102
RTVSPost2010Prop45
280
     0
102
RTVSPost2010PropOp45
 70
     1
102
RTVSPost2010Prop46
 90
       50
102
RTVSPost2010PropOp46
 70
     1
102
RTVSPost2010Prop47
 90
       50
102
RTVSPost2010PropOp47
 70
     1
102
RTVSPost2010Prop48
 90
       50
102
RTVSPost2010PropOp48
 70
     1
102
RTVSPost2010Prop49
280
     0
102
RTVSPost2010PropOp49
 70
     1
102
RTVSPost2010Prop50
 90
       50
102
RTVSPost2010PropOp50
 70
     1
102
RTVSPost2010Prop51ColorIndex
 90
      256
102
RTVSPost2010Prop51ColorRGB
 90
-16777216
102
RTVSPost2010PropOp51
 70
     0
102
RTVSPost2010Prop52
140
1.0
102
RTVSPost2010PropOp52
 70
     0
102
RTVSPost2010Prop53
 90
        2
102
RTVSPost2010PropOp53
 70
     1
102
RTVSPost2010Prop54
  1
strokes_ogs.tif
102
RTVSPost2010PropOp54
 70
     1
102
RTVSPost2010Prop55
280
     0
102
RTVSPost2010PropOp55
 70
     1
102
RTVSPost2010Prop56
140
1.0
102
RTVSPost2010PropOp56
 70
     1
102
RTVSPost2010Prop57
140
1.0
102
RTVSPost2010PropOp57
 70
     1
  0
XRECORD
  5
278
102
{ACAD_REACTORS
330
277
102
}
330
277
100
AcDbXrecord
280
     1
102
RTVSPost2010Prop28
280
     0
102
RTVSPost2010PropOp28
 70
     1
102
RTVSPost2010Prop29
280
     1
102
RTVSPost2010PropOp29
 70
     1
102
RTVSPost2010Prop30
280
     1
102
RTVSPost2010PropOp30
 70
     1
102
RTVSPost2010Prop31
280
     0
102
RTVSPost2010PropOp31
 70
     1
102
RTVSPost2010Prop32
280
     0
102
RTVSPost2010PropOp32
 70
     1
102
RTVSPost2010Prop33
280
     0
102
RTVSPost2010PropOp33
 70
     1
102
RTVSPost2010Prop34
280
     0
102
RTVSPost2010PropOp34
 70
     1
102
RTVSPost2010Prop35
280
     0
102
RTVSPost2010PropOp35
 70
     1
102
RTVSPost2010Prop36
280
     0
102
RTVSPost2010PropOp36
 70
     1
102
RTVSPost2010Prop37
 90
       50
102
RTVSPost2010PropOp37
 70
     1
102
RTVSPost2010Prop38
140
0.0
102
RTVSPost2010PropOp38
 70
     1
102
RTVSPost2010Prop39
140
1.0
102
RTVSPost2010PropOp39
 70
     1
102
RTVSPost2010Prop40
 90
        0
102
RTVSPost2010PropOp40
 70
     1
102
RTVSPost2010Prop41ColorIndex
 90
       18
102
RTVSPost2010Prop41ColorRGB
 90
        0
102
RTVSPost2010PropOp41
 70
     1
102
RTVSPost2010Prop42
 90
       50
102
RTVSPost2010PropOp42
 70
     1
102
RTVSPost2010Prop43
 90
        3
102
RTVSPost2010PropOp43
 70
     1
102
RTVSPost2010Prop44ColorIndex
 90
        5
102
RTVSPost2010Prop44ColorRGB
 90
      255
102
RTVSPost2010PropOp44
 70
     1
102
RTVSPost2010Prop45
280
     0
102
RTVSPost2010PropOp45
 70
     1
102
RTVSPost2010Prop46
 90
       50
102
RTVSPost2010PropOp46
 70
     1
102
RTVSPost2010Prop47
 90
       50
102
RTVSPost2010PropOp47
 70
     1
102
RTVSPost2010Prop48
 90
       50
102
RTVSPost2010PropOp48
 70
     1
102
RTVSPost2010Prop49
280
     0
102
RTVSPost2010PropOp49
 70
     1
102
RTVSPost2010Prop50
 90
       50
102
RTVSPost2010PropOp50
 70
     1
102
RTVSPost2010Prop51ColorIndex
 90
      256
102
RTVSPost2010Prop51ColorRGB
 90
-16777216
102
RTVSPost2010PropOp51
 70
     0
102
RTVSPost2010Prop52
140
1.0
102
RTVSPost2010PropOp52
 70
     0
102
RTVSPost2010Prop53
 90
        2
102
RTVSPost2010PropOp53
 70
     1
102
RTVSPost2010Prop54
  1
strokes_ogs.tif
102
RTVSPost2010PropOp54
 70
     1
102
RTVSPost2010Prop55
280
     0
102
RTVSPost2010PropOp55
 70
     1
102
RTVSPost2010Prop56
140
1.0
102
RTVSPost2010PropOp56
 70
     1
102
RTVSPost2010Prop57
140
1.0
102
RTVSPost2010PropOp57
 70
     1
  0
XRECORD
  5
280
102
{ACAD_REACTORS
330
27F
102
}
330
27F
100
AcDbXrecord
280
     1
102
RTVSPost2010Prop28
280
     0
102
RTVSPost2010PropOp28
 70
     1
102
RTVSPost2010Prop29
280
     1
102
RTVSPost2010PropOp29
 70
     1
102
RTVSPost2010Prop30
280
     1
102
RTVSPost2010PropOp30
 70
     1
102
RTVSPost2010Prop31
280
     0
102
RTVSPost2010PropOp31
 70
     1
102
RTVSPost2010Prop32
280
     0
102
RTVSPost2010PropOp32
 70
     1
102
RTVSPost2010Prop33
280
     0
102
RTVSPost2010PropOp33
 70
     1
102
RTVSPost2010Prop34
280
     0
102
RTVSPost2010PropOp34
 70
     1
102
RTVSPost2010Prop35
280
     0
102
RTVSPost2010PropOp35
 70
     1
102
RTVSPost2010Prop36
280
     0
102
RTVSPost2010PropOp36
 70
     1
102
RTVSPost2010Prop37
 90
       50
102
RTVSPost2010PropOp37
 70
     1
102
RTVSPost2010Prop38
140
0.0
102
RTVSPost2010PropOp38
 70
     1
102
RTVSPost2010Prop39
140
1.0
102
RTVSPost2010PropOp39
 70
     1
102
RTVSPost2010Prop40
 90
        0
102
RTVSPost2010PropOp40
 70
     1
102
RTVSPost2010Prop41ColorIndex
 90
       18
102
RTVSPost2010Prop41ColorRGB
 90
        0
102
RTVSPost2010PropOp41
 70
     1
102
RTVSPost2010Prop42
 90
       50
102
RTVSPost2010PropOp42
 70
     1
102
RTVSPost2010Prop43
 90
        3
102
RTVSPost2010PropOp43
 70
     1
102
RTVSPost2010Prop44ColorIndex
 90
        5
102
RTVSPost2010Prop44ColorRGB
 90
      255
102
RTVSPost2010PropOp44
 70
     1
102
RTVSPost2010Prop45
280
     0
102
RTVSPost2010PropOp45
 70
     1
102
RTVSPost2010Prop46
 90
       50
102
RTVSPost2010PropOp46
 70
     1
102
RTVSPost2010Prop47
 90
       50
102
RTVSPost2010PropOp47
 70
     1
102
RTVSPost2010Prop48
 90
       50
102
RTVSPost2010PropOp48
 70
     1
102
RTVSPost2010Prop49
280
     0
102
RTVSPost2010PropOp49
 70
     1
102
RTVSPost2010Prop50
 90
       50
102
RTVSPost2010PropOp50
 70
     1
102
RTVSPost2010Prop51ColorIndex
 90
      256
102
RTVSPost2010Prop51ColorRGB
 90
-16777216
102
RTVSPost2010PropOp51
 70
     0
102
RTVSPost2010Prop52
140
1.0
102
RTVSPost2010PropOp52
 70
     0
102
RTVSPost2010Prop53
 90
        2
102
RTVSPost2010PropOp53
 70
     1
102
RTVSPost2010Prop54
  1
strokes_ogs.tif
102
RTVSPost2010PropOp54
 70
     1
102
RTVSPost2010Prop55
280
     0
102
RTVSPost2010PropOp55
 70
     1
102
RTVSPost2010Prop56
140
1.0
102
RTVSPost2010PropOp56
 70
     1
102
RTVSPost2010Prop57
140
1.0
102
RTVSPost2010PropOp57
 70
     1
  0
XRECORD
  5
29C
102
{ACAD_REACTORS
330
29B
102
}
330
29B
100
AcDbXrecord
280
     1
102
RTVSPost2010Prop28
280
     0
102
RTVSPost2010PropOp28
 70
     0
102
RTVSPost2010Prop29
280
     1
102
RTVSPost2010PropOp29
 70
     0
102
RTVSPost2010Prop30
280
     1
102
RTVSPost2010PropOp30
 70
     0
102
RTVSPost2010Prop31
280
     0
102
RTVSPost2010PropOp31
 70
     0
102
RTVSPost2010Prop32
280
     0
102
RTVSPost2010PropOp32
 70
     0
102
RTVSPost2010Prop33
280
     0
102
RTVSPost2010PropOp33
 70
     0
102
RTVSPost2010Prop34
280
     0
102
RTVSPost2010PropOp34
 70
     0
102
RTVSPost2010Prop35
280
     0
102
RTVSPost2010PropOp35
 70
     0
102
RTVSPost2010Prop36
280
     0
102
RTVSPost2010PropOp36
 70
     0
102
RTVSPost2010Prop37
 90
       50
102
RTVSPost2010PropOp37
 70
     0
102
RTVSPost2010Prop38
140
0.0
102
RTVSPost2010PropOp38
 70
     0
102
RTVSPost2010Prop39
140
1.0
102
RTVSPost2010PropOp39
 70
     0
102
RTVSPost2010Prop40
 90
        0
102
RTVSPost2010PropOp40
 70
     0
102
RTVSPost2010Prop41ColorIndex
 90
       18
102
RTVSPost2010Prop41ColorRGB
 90
        0
102
RTVSPost2010PropOp41
 70
     0
102
RTVSPost2010Prop42
 90
       50
102
RTVSPost2010PropOp42
 70
     0
102
RTVSPost2010Prop43
 90
        3
102
RTVSPost2010PropOp43
 70
     0
102
RTVSPost2010Prop44ColorIndex
 90
        5
102
RTVSPost2010Prop44ColorRGB
 90
      255
102
RTVSPost2010PropOp44
 70
     0
102
RTVSPost2010Prop45
280
     0
102
RTVSPost2010PropOp45
 70
     0
102
RTVSPost2010Prop46
 90
       50
102
RTVSPost2010PropOp46
 70
     0
102
RTVSPost2010Prop47
 90
       50
102
RTVSPost2010PropOp47
 70
     0
102
RTVSPost2010Prop48
 90
       50
102
RTVSPost2010PropOp48
 70
     0
102
RTVSPost2010Prop49
280
     0
102
RTVSPost2010PropOp49
 70
     0
102
RTVSPost2010Prop50
 90
       50
102
RTVSPost2010PropOp50
 70
     0
102
RTVSPost2010Prop51ColorIndex
 90
      256
102
RTVSPost2010Prop51ColorRGB
 90
-16777216
102
RTVSPost2010PropOp51
 70
     0
102
RTVSPost2010Prop52
140
1.0
102
RTVSPost2010PropOp52
 70
     0
102
RTVSPost2010Prop53
 90
        2
102
RTVSPost2010PropOp53
 70
     0
102
RTVSPost2010Prop54
  1
strokes_ogs.tif
102
RTVSPost2010PropOp54
 70
     0
102
RTVSPost2010Prop55
280
     0
102
RTVSPost2010PropOp55
 70
     0
102
RTVSPost2010Prop56
140
1.0
102
RTVSPost2010PropOp56
 70
     0
102
RTVSPost2010Prop57
140
1.0
102
RTVSPost2010PropOp57
 70
     0
  0
XRECORD
  5
28C
102
{ACAD_REACTORS
330
28B
102
}
330
28B
100
AcDbXrecord
280
     1
102
RTVSPost2010Prop28
280
     0
102
RTVSPost2010PropOp28
 70
     1
102
RTVSPost2010Prop29
280
     1
102
RTVSPost2010PropOp29
 70
     1
102
RTVSPost2010Prop30
280
     1
102
RTVSPost2010PropOp30
 70
     1
102
RTVSPost2010Prop31
280
     0
102
RTVSPost2010PropOp31
 70
     1
102
RTVSPost2010Prop32
280
     0
102
RTVSPost2010PropOp32
 70
     1
102
RTVSPost2010Prop33
280
     0
102
RTVSPost2010PropOp33
 70
     1
102
RTVSPost2010Prop34
280
     0
102
RTVSPost2010PropOp34
 70
     1
102
RTVSPost2010Prop35
280
     0
102
RTVSPost2010PropOp35
 70
     1
102
RTVSPost2010Prop36
280
     0
102
RTVSPost2010PropOp36
 70
     1
102
RTVSPost2010Prop37
 90
       50
102
RTVSPost2010PropOp37
 70
     1
102
RTVSPost2010Prop38
140
0.0
102
RTVSPost2010PropOp38
 70
     1
102
RTVSPost2010Prop39
140
1.0
102
RTVSPost2010PropOp39
 70
     1
102
RTVSPost2010Prop40
 90
        0
102
RTVSPost2010PropOp40
 70
     1
102
RTVSPost2010Prop41ColorIndex
 90
       18
102
RTVSPost2010Prop41ColorRGB
 90
        0
102
RTVSPost2010PropOp41
 70
     1
102
RTVSPost2010Prop42
 90
       50
102
RTVSPost2010PropOp42
 70
     1
102
RTVSPost2010Prop43
 90
        3
102
RTVSPost2010PropOp43
 70
     1
102
RTVSPost2010Prop44ColorIndex
 90
        5
102
RTVSPost2010Prop44ColorRGB
 90
      255
102
RTVSPost2010PropOp44
 70
     1
102
RTVSPost2010Prop45
280
     0
102
RTVSPost2010PropOp45
 70
     1
102
RTVSPost2010Prop46
 90
       50
102
RTVSPost2010PropOp46
 70
     1
102
RTVSPost2010Prop47
 90
       50
102
RTVSPost2010PropOp47
 70
     1
102
RTVSPost2010Prop48
 90
       50
102
RTVSPost2010PropOp48
 70
     1
102
RTVSPost2010Prop49
280
     0
102
RTVSPost2010PropOp49
 70
     1
102
RTVSPost2010Prop50
 90
       50
102
RTVSPost2010PropOp50
 70
     1
102
RTVSPost2010Prop51ColorIndex
 90
      256
102
RTVSPost2010Prop51ColorRGB
 90
-16777216
102
RTVSPost2010PropOp51
 70
     0
102
RTVSPost2010Prop52
140
1.0
102
RTVSPost2010PropOp52
 70
     0
102
RTVSPost2010Prop53
 90
        2
102
RTVSPost2010PropOp53
 70
     1
102
RTVSPost2010Prop54
  1
strokes_ogs.tif
102
RTVSPost2010PropOp54
 70
     1
102
RTVSPost2010Prop55
280
     0
102
RTVSPost2010PropOp55
 70
     1
102
RTVSPost2010Prop56
140
1.0
102
RTVSPost2010PropOp56
 70
     1
102
RTVSPost2010Prop57
140
1.0
102
RTVSPost2010PropOp57
 70
     1
  0
XRECORD
  5
29E
102
{ACAD_REACTORS
330
29D
102
}
330
29D
100
AcDbXrecord
280
     1
102
RTVSPost2010Prop28
280
     0
102
RTVSPost2010PropOp28
 70
     0
102
RTVSPost2010Prop29
280
     1
102
RTVSPost2010PropOp29
 70
     0
102
RTVSPost2010Prop30
280
     1
102
RTVSPost2010PropOp30
 70
     0
102
RTVSPost2010Prop31
280
     0
102
RTVSPost2010PropOp31
 70
     0
102
RTVSPost2010Prop32
280
     0
102
RTVSPost2010PropOp32
 70
     0
102
RTVSPost2010Prop33
280
     0
102
RTVSPost2010PropOp33
 70
     0
102
RTVSPost2010Prop34
280
     0
102
RTVSPost2010PropOp34
 70
     0
102
RTVSPost2010Prop35
280
     0
102
RTVSPost2010PropOp35
 70
     0
102
RTVSPost2010Prop36
280
     0
102
RTVSPost2010PropOp36
 70
     0
102
RTVSPost2010Prop37
 90
       50
102
RTVSPost2010PropOp37
 70
     0
102
RTVSPost2010Prop38
140
0.0
102
RTVSPost2010PropOp38
 70
     0
102
RTVSPost2010Prop39
140
1.0
102
RTVSPost2010PropOp39
 70
     0
102
RTVSPost2010Prop40
 90
        0
102
RTVSPost2010PropOp40
 70
     0
102
RTVSPost2010Prop41ColorIndex
 90
       18
102
RTVSPost2010Prop41ColorRGB
 90
        0
102
RTVSPost2010PropOp41
 70
     0
102
RTVSPost2010Prop42
 90
       50
102
RTVSPost2010PropOp42
 70
     0
102
RTVSPost2010Prop43
 90
        3
102
RTVSPost2010PropOp43
 70
     0
102
RTVSPost2010Prop44ColorIndex
 90
        5
102
RTVSPost2010Prop44ColorRGB
 90
      255
102
RTVSPost2010PropOp44
 70
     0
102
RTVSPost2010Prop45
280
     0
102
RTVSPost2010PropOp45
 70
     0
102
RTVSPost2010Prop46
 90
       50
102
RTVSPost2010PropOp46
 70
     0
102
RTVSPost2010Prop47
 90
       50
102
RTVSPost2010PropOp47
 70
     0
102
RTVSPost2010Prop48
 90
       50
102
RTVSPost2010PropOp48
 70
     0
102
RTVSPost2010Prop49
280
     0
102
RTVSPost2010PropOp49
 70
     0
102
RTVSPost2010Prop50
 90
       50
102
RTVSPost2010PropOp50
 70
     0
102
RTVSPost2010Prop51ColorIndex
 90
      256
102
RTVSPost2010Prop51ColorRGB
 90
-16777216
102
RTVSPost2010PropOp51
 70
     0
102
RTVSPost2010Prop52
140
1.0
102
RTVSPost2010PropOp52
 70
     0
102
RTVSPost2010Prop53
 90
        2
102
RTVSPost2010PropOp53
 70
     0
102
RTVSPost2010Prop54
  1
strokes_ogs.tif
102
RTVSPost2010PropOp54
 70
     0
102
RTVSPost2010Prop55
280
     0
102
RTVSPost2010PropOp55
 70
     0
102
RTVSPost2010Prop56
140
1.0
102
RTVSPost2010PropOp56
 70
     0
102
RTVSPost2010Prop57
140
1.0
102
RTVSPost2010PropOp57
 70
     0
  0
XRECORD
  5
284
102
{ACAD_REACTORS
330
283
102
}
330
283
100
AcDbXrecord
280
     1
102
RTVSPost2010Prop28
280
     0
102
RTVSPost2010PropOp28
 70
     1
102
RTVSPost2010Prop29
280
     1
102
RTVSPost2010PropOp29
 70
     1
102
RTVSPost2010Prop30
280
     1
102
RTVSPost2010PropOp30
 70
     1
102
RTVSPost2010Prop31
280
     0
102
RTVSPost2010PropOp31
 70
     1
102
RTVSPost2010Prop32
280
     0
102
RTVSPost2010PropOp32
 70
     1
102
RTVSPost2010Prop33
280
     0
102
RTVSPost2010PropOp33
 70
     1
102
RTVSPost2010Prop34
280
     0
102
RTVSPost2010PropOp34
 70
     1
102
RTVSPost2010Prop35
280
     0
102
RTVSPost2010PropOp35
 70
     1
102
RTVSPost2010Prop36
280
     0
102
RTVSPost2010PropOp36
 70
     1
102
RTVSPost2010Prop37
 90
       50
102
RTVSPost2010PropOp37
 70
     1
102
RTVSPost2010Prop38
140
0.0
102
RTVSPost2010PropOp38
 70
     1
102
RTVSPost2010Prop39
140
1.0
102
RTVSPost2010PropOp39
 70
     1
102
RTVSPost2010Prop40
 90
        0
102
RTVSPost2010PropOp40
 70
     1
102
RTVSPost2010Prop41ColorIndex
 90
       18
102
RTVSPost2010Prop41ColorRGB
 90
        0
102
RTVSPost2010PropOp41
 70
     1
102
RTVSPost2010Prop42
 90
       50
102
RTVSPost2010PropOp42
 70
     1
102
RTVSPost2010Prop43
 90
        3
102
RTVSPost2010PropOp43
 70
     1
102
RTVSPost2010Prop44ColorIndex
 90
        5
102
RTVSPost2010Prop44ColorRGB
 90
      255
102
RTVSPost2010PropOp44
 70
     1
102
RTVSPost2010Prop45
280
     0
102
RTVSPost2010PropOp45
 70
     1
102
RTVSPost2010Prop46
 90
       50
102
RTVSPost2010PropOp46
 70
     1
102
RTVSPost2010Prop47
 90
       50
102
RTVSPost2010PropOp47
 70
     1
102
RTVSPost2010Prop48
 90
       50
102
RTVSPost2010PropOp48
 70
     1
102
RTVSPost2010Prop49
280
     0
102
RTVSPost2010PropOp49
 70
     1
102
RTVSPost2010Prop50
 90
       50
102
RTVSPost2010PropOp50
 70
     1
102
RTVSPost2010Prop51ColorIndex
 90
      256
102
RTVSPost2010Prop51ColorRGB
 90
-16777216
102
RTVSPost2010PropOp51
 70
     0
102
RTVSPost2010Prop52
140
1.0
102
RTVSPost2010PropOp52
 70
     0
102
RTVSPost2010Prop53
 90
        2
102
RTVSPost2010PropOp53
 70
     1
102
RTVSPost2010Prop54
  1
strokes_ogs.tif
102
RTVSPost2010PropOp54
 70
     1
102
RTVSPost2010Prop55
280
     0
102
RTVSPost2010PropOp55
 70
     1
102
RTVSPost2010Prop56
140
1.0
102
RTVSPost2010PropOp56
 70
     1
102
RTVSPost2010Prop57
140
1.0
102
RTVSPost2010PropOp57
 70
     1
  0
XRECORD
  5
29A
102
{ACAD_REACTORS
330
299
102
}
330
299
100
AcDbXrecord
280
     1
102
RTVSPost2010Prop28
280
     0
102
RTVSPost2010PropOp28
 70
     1
102
RTVSPost2010Prop29
280
     1
102
RTVSPost2010PropOp29
 70
     1
102
RTVSPost2010Prop30
280
     1
102
RTVSPost2010PropOp30
 70
     1
102
RTVSPost2010Prop31
280
     0
102
RTVSPost2010PropOp31
 70
     1
102
RTVSPost2010Prop32
280
     0
102
RTVSPost2010PropOp32
 70
     1
102
RTVSPost2010Prop33
280
     0
102
RTVSPost2010PropOp33
 70
     1
102
RTVSPost2010Prop34
280
     0
102
RTVSPost2010PropOp34
 70
     1
102
RTVSPost2010Prop35
280
     0
102
RTVSPost2010PropOp35
 70
     1
102
RTVSPost2010Prop36
280
     0
102
RTVSPost2010PropOp36
 70
     1
102
RTVSPost2010Prop37
 90
       50
102
RTVSPost2010PropOp37
 70
     1
102
RTVSPost2010Prop38
140
0.0
102
RTVSPost2010PropOp38
 70
     1
102
RTVSPost2010Prop39
140
1.0
102
RTVSPost2010PropOp39
 70
     1
102
RTVSPost2010Prop40
 90
        0
102
RTVSPost2010PropOp40
 70
     1
102
RTVSPost2010Prop41ColorIndex
 90
       18
102
RTVSPost2010Prop41ColorRGB
 90
        0
102
RTVSPost2010PropOp41
 70
     1
102
RTVSPost2010Prop42
 90
       50
102
RTVSPost2010PropOp42
 70
     1
102
RTVSPost2010Prop43
 90
        3
102
RTVSPost2010PropOp43
 70
     1
102
RTVSPost2010Prop44ColorIndex
 90
        5
102
RTVSPost2010Prop44ColorRGB
 90
      255
102
RTVSPost2010PropOp44
 70
     1
102
RTVSPost2010Prop45
280
     0
102
RTVSPost2010PropOp45
 70
     1
102
RTVSPost2010Prop46
 90
       50
102
RTVSPost2010PropOp46
 70
     1
102
RTVSPost2010Prop47
 90
       50
102
RTVSPost2010PropOp47
 70
     1
102
RTVSPost2010Prop48
 90
       50
102
RTVSPost2010PropOp48
 70
     1
102
RTVSPost2010Prop49
280
     0
102
RTVSPost2010PropOp49
 70
     1
102
RTVSPost2010Prop50
 90
       50
102
RTVSPost2010PropOp50
 70
     1
102
RTVSPost2010Prop51ColorIndex
 90
      256
102
RTVSPost2010Prop51ColorRGB
 90
-16777216
102
RTVSPost2010PropOp51
 70
     0
102
RTVSPost2010Prop52
140
1.0
102
RTVSPost2010PropOp52
 70
     0
102
RTVSPost2010Prop53
 90
        2
102
RTVSPost2010PropOp53
 70
     1
102
RTVSPost2010Prop54
  1
strokes_ogs.tif
102
RTVSPost2010PropOp54
 70
     1
102
RTVSPost2010Prop55
280
     0
102
RTVSPost2010PropOp55
 70
     1
102
RTVSPost2010Prop56
140
1.0
102
RTVSPost2010PropOp56
 70
     1
102
RTVSPost2010Prop57
140
1.0
102
RTVSPost2010PropOp57
 70
     1
  0
XRECORD
  5
298
102
{ACAD_REACTORS
330
297
102
}
330
297
100
AcDbXrecord
280
     1
102
RTVSPost2010Prop28
280
     0
102
RTVSPost2010PropOp28
 70
     1
102
RTVSPost2010Prop29
280
     1
102
RTVSPost2010PropOp29
 70
     1
102
RTVSPost2010Prop30
280
     1
102
RTVSPost2010PropOp30
 70
     1
102
RTVSPost2010Prop31
280
     0
102
RTVSPost2010PropOp31
 70
     1
102
RTVSPost2010Prop32
280
     0
102
RTVSPost2010PropOp32
 70
     1
102
RTVSPost2010Prop33
280
     0
102
RTVSPost2010PropOp33
 70
     1
102
RTVSPost2010Prop34
280
     0
102
RTVSPost2010PropOp34
 70
     1
102
RTVSPost2010Prop35
280
     0
102
RTVSPost2010PropOp35
 70
     1
102
RTVSPost2010Prop36
280
     0
102
RTVSPost2010PropOp36
 70
     1
102
RTVSPost2010Prop37
 90
       50
102
RTVSPost2010PropOp37
 70
     1
102
RTVSPost2010Prop38
140
0.0
102
RTVSPost2010PropOp38
 70
     1
102
RTVSPost2010Prop39
140
1.0
102
RTVSPost2010PropOp39
 70
     1
102
RTVSPost2010Prop40
 90
        0
102
RTVSPost2010PropOp40
 70
     1
102
RTVSPost2010Prop41ColorIndex
 90
       18
102
RTVSPost2010Prop41ColorRGB
 90
        0
102
RTVSPost2010PropOp41
 70
     1
102
RTVSPost2010Prop42
 90
       50
102
RTVSPost2010PropOp42
 70
     1
102
RTVSPost2010Prop43
 90
        3
102
RTVSPost2010PropOp43
 70
     1
102
RTVSPost2010Prop44ColorIndex
 90
        5
102
RTVSPost2010Prop44ColorRGB
 90
      255
102
RTVSPost2010PropOp44
 70
     1
102
RTVSPost2010Prop45
280
     0
102
RTVSPost2010PropOp45
 70
     1
102
RTVSPost2010Prop46
 90
       50
102
RTVSPost2010PropOp46
 70
     1
102
RTVSPost2010Prop47
 90
       50
102
RTVSPost2010PropOp47
 70
     1
102
RTVSPost2010Prop48
 90
       50
102
RTVSPost2010PropOp48
 70
     1
102
RTVSPost2010Prop49
280
     0
102
RTVSPost2010PropOp49
 70
     1
102
RTVSPost2010Prop50
 90
       50
102
RTVSPost2010PropOp50
 70
     1
102
RTVSPost2010Prop51ColorIndex
 90
      256
102
RTVSPost2010Prop51ColorRGB
 90
-16777216
102
RTVSPost2010PropOp51
 70
     0
102
RTVSPost2010Prop52
140
1.0
102
RTVSPost2010PropOp52
 70
     0
102
RTVSPost2010Prop53
 90
        2
102
RTVSPost2010PropOp53
 70
     1
102
RTVSPost2010Prop54
  1
strokes_ogs.tif
102
RTVSPost2010PropOp54
 70
     1
102
RTVSPost2010Prop55
280
     0
102
RTVSPost2010PropOp55
 70
     1
102
RTVSPost2010Prop56
140
1.0
102
RTVSPost2010PropOp56
 70
     1
102
RTVSPost2010Prop57
140
1.0
102
RTVSPost2010PropOp57
 70
     1
  0
XRECORD
  5
292
102
{ACAD_REACTORS
330
291
102
}
330
291
100
AcDbXrecord
280
     1
102
RTVSPost2010Prop28
280
     0
102
RTVSPost2010PropOp28
 70
     1
102
RTVSPost2010Prop29
280
     1
102
RTVSPost2010PropOp29
 70
     1
102
RTVSPost2010Prop30
280
     1
102
RTVSPost2010PropOp30
 70
     1
102
RTVSPost2010Prop31
280
     0
102
RTVSPost2010PropOp31
 70
     1
102
RTVSPost2010Prop32
280
     0
102
RTVSPost2010PropOp32
 70
     1
102
RTVSPost2010Prop33
280
     0
102
RTVSPost2010PropOp33
 70
     1
102
RTVSPost2010Prop34
280
     0
102
RTVSPost2010PropOp34
 70
     1
102
RTVSPost2010Prop35
280
     0
102
RTVSPost2010PropOp35
 70
     1
102
RTVSPost2010Prop36
280
     0
102
RTVSPost2010PropOp36
 70
     1
102
RTVSPost2010Prop37
 90
       50
102
RTVSPost2010PropOp37
 70
     1
102
RTVSPost2010Prop38
140
0.0
102
RTVSPost2010PropOp38
 70
     1
102
RTVSPost2010Prop39
140
1.0
102
RTVSPost2010PropOp39
 70
     1
102
RTVSPost2010Prop40
 90
        0
102
RTVSPost2010PropOp40
 70
     1
102
RTVSPost2010Prop41ColorIndex
 90
       18
102
RTVSPost2010Prop41ColorRGB
 90
        0
102
RTVSPost2010PropOp41
 70
     1
102
RTVSPost2010Prop42
 90
       50
102
RTVSPost2010PropOp42
 70
     1
102
RTVSPost2010Prop43
 90
        3
102
RTVSPost2010PropOp43
 70
     1
102
RTVSPost2010Prop44ColorIndex
 90
        5
102
RTVSPost2010Prop44ColorRGB
 90
      255
102
RTVSPost2010PropOp44
 70
     1
102
RTVSPost2010Prop45
280
     0
102
RTVSPost2010PropOp45
 70
     1
102
RTVSPost2010Prop46
 90
       50
102
RTVSPost2010PropOp46
 70
     1
102
RTVSPost2010Prop47
 90
       50
102
RTVSPost2010PropOp47
 70
     1
102
RTVSPost2010Prop48
 90
       50
102
RTVSPost2010PropOp48
 70
     1
102
RTVSPost2010Prop49
280
     0
102
RTVSPost2010PropOp49
 70
     1
102
RTVSPost2010Prop50
 90
       50
102
RTVSPost2010PropOp50
 70
     1
102
RTVSPost2010Prop51ColorIndex
 90
      256
102
RTVSPost2010Prop51ColorRGB
 90
-16777216
102
RTVSPost2010PropOp51
 70
     0
102
RTVSPost2010Prop52
140
1.0
102
RTVSPost2010PropOp52
 70
     0
102
RTVSPost2010Prop53
 90
        2
102
RTVSPost2010PropOp53
 70
     1
102
RTVSPost2010Prop54
  1
strokes_ogs.tif
102
RTVSPost2010PropOp54
 70
     1
102
RTVSPost2010Prop55
280
     0
102
RTVSPost2010PropOp55
 70
     1
102
RTVSPost2010Prop56
140
1.0
102
RTVSPost2010PropOp56
 70
     1
102
RTVSPost2010Prop57
140
1.0
102
RTVSPost2010PropOp57
 70
     1
  0
XRECORD
  5
294
102
{ACAD_REACTORS
330
293
102
}
330
293
100
AcDbXrecord
280
     1
102
RTVSPost2010Prop28
280
     0
102
RTVSPost2010PropOp28
 70
     1
102
RTVSPost2010Prop29
280
     1
102
RTVSPost2010PropOp29
 70
     1
102
RTVSPost2010Prop30
280
     1
102
RTVSPost2010PropOp30
 70
     1
102
RTVSPost2010Prop31
280
     0
102
RTVSPost2010PropOp31
 70
     1
102
RTVSPost2010Prop32
280
     0
102
RTVSPost2010PropOp32
 70
     1
102
RTVSPost2010Prop33
280
     0
102
RTVSPost2010PropOp33
 70
     1
102
RTVSPost2010Prop34
280
     0
102
RTVSPost2010PropOp34
 70
     1
102
RTVSPost2010Prop35
280
     0
102
RTVSPost2010PropOp35
 70
     1
102
RTVSPost2010Prop36
280
     0
102
RTVSPost2010PropOp36
 70
     1
102
RTVSPost2010Prop37
 90
       50
102
RTVSPost2010PropOp37
 70
     1
102
RTVSPost2010Prop38
140
0.0
102
RTVSPost2010PropOp38
 70
     1
102
RTVSPost2010Prop39
140
1.0
102
RTVSPost2010PropOp39
 70
     1
102
RTVSPost2010Prop40
 90
        0
102
RTVSPost2010PropOp40
 70
     1
102
RTVSPost2010Prop41ColorIndex
 90
       18
102
RTVSPost2010Prop41ColorRGB
 90
        0
102
RTVSPost2010PropOp41
 70
     1
102
RTVSPost2010Prop42
 90
       50
102
RTVSPost2010PropOp42
 70
     1
102
RTVSPost2010Prop43
 90
        3
102
RTVSPost2010PropOp43
 70
     1
102
RTVSPost2010Prop44ColorIndex
 90
        5
102
RTVSPost2010Prop44ColorRGB
 90
      255
102
RTVSPost2010PropOp44
 70
     1
102
RTVSPost2010Prop45
280
     0
102
RTVSPost2010PropOp45
 70
     1
102
RTVSPost2010Prop46
 90
       50
102
RTVSPost2010PropOp46
 70
     1
102
RTVSPost2010Prop47
 90
       50
102
RTVSPost2010PropOp47
 70
     1
102
RTVSPost2010Prop48
 90
       50
102
RTVSPost2010PropOp48
 70
     1
102
RTVSPost2010Prop49
280
     0
102
RTVSPost2010PropOp49
 70
     1
102
RTVSPost2010Prop50
 90
       50
102
RTVSPost2010PropOp50
 70
     1
102
RTVSPost2010Prop51ColorIndex
 90
      256
102
RTVSPost2010Prop51ColorRGB
 90
-16777216
102
RTVSPost2010PropOp51
 70
     0
102
RTVSPost2010Prop52
140
1.0
102
RTVSPost2010PropOp52
 70
     0
102
RTVSPost2010Prop53
 90
        2
102
RTVSPost2010PropOp53
 70
     1
102
RTVSPost2010Prop54
  1
strokes_ogs.tif
102
RTVSPost2010PropOp54
 70
     1
102
RTVSPost2010Prop55
280
     0
102
RTVSPost2010PropOp55
 70
     1
102
RTVSPost2010Prop56
140
1.0
102
RTVSPost2010PropOp56
 70
     1
102
RTVSPost2010Prop57
140
1.0
102
RTVSPost2010PropOp57
 70
     1
  0
XRECORD
  5
28A
102
{ACAD_REACTORS
330
289
102
}
330
289
100
AcDbXrecord
280
     1
102
RTVSPost2010Prop28
280
     0
102
RTVSPost2010PropOp28
 70
     1
102
RTVSPost2010Prop29
280
     1
102
RTVSPost2010PropOp29
 70
     1
102
RTVSPost2010Prop30
280
     1
102
RTVSPost2010PropOp30
 70
     1
102
RTVSPost2010Prop31
280
     0
102
RTVSPost2010PropOp31
 70
     1
102
RTVSPost2010Prop32
280
     0
102
RTVSPost2010PropOp32
 70
     1
102
RTVSPost2010Prop33
280
     0
102
RTVSPost2010PropOp33
 70
     1
102
RTVSPost2010Prop34
280
     0
102
RTVSPost2010PropOp34
 70
     1
102
RTVSPost2010Prop35
280
     0
102
RTVSPost2010PropOp35
 70
     1
102
RTVSPost2010Prop36
280
     0
102
RTVSPost2010PropOp36
 70
     1
102
RTVSPost2010Prop37
 90
       50
102
RTVSPost2010PropOp37
 70
     1
102
RTVSPost2010Prop38
140
0.0
102
RTVSPost2010PropOp38
 70
     1
102
RTVSPost2010Prop39
140
1.0
102
RTVSPost2010PropOp39
 70
     1
102
RTVSPost2010Prop40
 90
        0
102
RTVSPost2010PropOp40
 70
     1
102
RTVSPost2010Prop41ColorIndex
 90
       18
102
RTVSPost2010Prop41ColorRGB
 90
        0
102
RTVSPost2010PropOp41
 70
     1
102
RTVSPost2010Prop42
 90
       50
102
RTVSPost2010PropOp42
 70
     1
102
RTVSPost2010Prop43
 90
        3
102
RTVSPost2010PropOp43
 70
     1
102
RTVSPost2010Prop44ColorIndex
 90
        5
102
RTVSPost2010Prop44ColorRGB
 90
      255
102
RTVSPost2010PropOp44
 70
     1
102
RTVSPost2010Prop45
280
     0
102
RTVSPost2010PropOp45
 70
     1
102
RTVSPost2010Prop46
 90
       50
102
RTVSPost2010PropOp46
 70
     1
102
RTVSPost2010Prop47
 90
       50
102
RTVSPost2010PropOp47
 70
     1
102
RTVSPost2010Prop48
 90
       50
102
RTVSPost2010PropOp48
 70
     1
102
RTVSPost2010Prop49
280
     0
102
RTVSPost2010PropOp49
 70
     1
102
RTVSPost2010Prop50
 90
       50
102
RTVSPost2010PropOp50
 70
     1
102
RTVSPost2010Prop51ColorIndex
 90
      256
102
RTVSPost2010Prop51ColorRGB
 90
-16777216
102
RTVSPost2010PropOp51
 70
     0
102
RTVSPost2010Prop52
140
1.0
102
RTVSPost2010PropOp52
 70
     0
102
RTVSPost2010Prop53
 90
        2
102
RTVSPost2010PropOp53
 70
     1
102
RTVSPost2010Prop54
  1
strokes_ogs.tif
102
RTVSPost2010PropOp54
 70
     1
102
RTVSPost2010Prop55
280
     0
102
RTVSPost2010PropOp55
 70
     1
102
RTVSPost2010Prop56
140
1.0
102
RTVSPost2010PropOp56
 70
     1
102
RTVSPost2010Prop57
140
1.0
102
RTVSPost2010PropOp57
 70
     1
  0
XRECORD
  5
27E
102
{ACAD_REACTORS
330
27D
102
}
330
27D
100
AcDbXrecord
280
     1
102
RTVSPost2010Prop28
280
     0
102
RTVSPost2010PropOp28
 70
     1
102
RTVSPost2010Prop29
280
     1
102
RTVSPost2010PropOp29
 70
     1
102
RTVSPost2010Prop30
280
     1
102
RTVSPost2010PropOp30
 70
     1
102
RTVSPost2010Prop31
280
     0
102
RTVSPost2010PropOp31
 70
     1
102
RTVSPost2010Prop32
280
     0
102
RTVSPost2010PropOp32
 70
     1
102
RTVSPost2010Prop33
280
     0
102
RTVSPost2010PropOp33
 70
     1
102
RTVSPost2010Prop34
280
     0
102
RTVSPost2010PropOp34
 70
     1
102
RTVSPost2010Prop35
280
     0
102
RTVSPost2010PropOp35
 70
     1
102
RTVSPost2010Prop36
280
     0
102
RTVSPost2010PropOp36
 70
     1
102
RTVSPost2010Prop37
 90
       50
102
RTVSPost2010PropOp37
 70
     1
102
RTVSPost2010Prop38
140
0.0
102
RTVSPost2010PropOp38
 70
     1
102
RTVSPost2010Prop39
140
1.0
102
RTVSPost2010PropOp39
 70
     1
102
RTVSPost2010Prop40
 90
        0
102
RTVSPost2010PropOp40
 70
     1
102
RTVSPost2010Prop41ColorIndex
 90
       18
102
RTVSPost2010Prop41ColorRGB
 90
        0
102
RTVSPost2010PropOp41
 70
     1
102
RTVSPost2010Prop42
 90
       50
102
RTVSPost2010PropOp42
 70
     1
102
RTVSPost2010Prop43
 90
        3
102
RTVSPost2010PropOp43
 70
     1
102
RTVSPost2010Prop44ColorIndex
 90
        5
102
RTVSPost2010Prop44ColorRGB
 90
      255
102
RTVSPost2010PropOp44
 70
     1
102
RTVSPost2010Prop45
280
     0
102
RTVSPost2010PropOp45
 70
     1
102
RTVSPost2010Prop46
 90
       50
102
RTVSPost2010PropOp46
 70
     1
102
RTVSPost2010Prop47
 90
       50
102
RTVSPost2010PropOp47
 70
     1
102
RTVSPost2010Prop48
 90
       50
102
RTVSPost2010PropOp48
 70
     1
102
RTVSPost2010Prop49
280
     0
102
RTVSPost2010PropOp49
 70
     1
102
RTVSPost2010Prop50
 90
       50
102
RTVSPost2010PropOp50
 70
     1
102
RTVSPost2010Prop51ColorIndex
 90
      256
102
RTVSPost2010Prop51ColorRGB
 90
-16777216
102
RTVSPost2010PropOp51
 70
     0
102
RTVSPost2010Prop52
140
1.0
102
RTVSPost2010PropOp52
 70
     0
102
RTVSPost2010Prop53
 90
        2
102
RTVSPost2010PropOp53
 70
     1
102
RTVSPost2010Prop54
  1
strokes_ogs.tif
102
RTVSPost2010PropOp54
 70
     1
102
RTVSPost2010Prop55
280
     0
102
RTVSPost2010PropOp55
 70
     1
102
RTVSPost2010Prop56
140
1.0
102
RTVSPost2010PropOp56
 70
     1
102
RTVSPost2010Prop57
140
1.0
102
RTVSPost2010PropOp57
 70
     1
  0
XRECORD
  5
296
102
{ACAD_REACTORS
330
295
102
}
330
295
100
AcDbXrecord
280
     1
102
RTVSPost2010Prop28
280
     0
102
RTVSPost2010PropOp28
 70
     1
102
RTVSPost2010Prop29
280
     1
102
RTVSPost2010PropOp29
 70
     1
102
RTVSPost2010Prop30
280
     1
102
RTVSPost2010PropOp30
 70
     1
102
RTVSPost2010Prop31
280
     0
102
RTVSPost2010PropOp31
 70
     1
102
RTVSPost2010Prop32
280
     0
102
RTVSPost2010PropOp32
 70
     1
102
RTVSPost2010Prop33
280
     0
102
RTVSPost2010PropOp33
 70
     1
102
RTVSPost2010Prop34
280
     0
102
RTVSPost2010PropOp34
 70
     1
102
RTVSPost2010Prop35
280
     0
102
RTVSPost2010PropOp35
 70
     1
102
RTVSPost2010Prop36
280
     0
102
RTVSPost2010PropOp36
 70
     1
102
RTVSPost2010Prop37
 90
       50
102
RTVSPost2010PropOp37
 70
     1
102
RTVSPost2010Prop38
140
0.0
102
RTVSPost2010PropOp38
 70
     1
102
RTVSPost2010Prop39
140
1.0
102
RTVSPost2010PropOp39
 70
     1
102
RTVSPost2010Prop40
 90
        0
102
RTVSPost2010PropOp40
 70
     1
102
RTVSPost2010Prop41ColorIndex
 90
       18
102
RTVSPost2010Prop41ColorRGB
 90
        0
102
RTVSPost2010PropOp41
 70
     1
102
RTVSPost2010Prop42
 90
       50
102
RTVSPost2010PropOp42
 70
     1
102
RTVSPost2010Prop43
 90
        3
102
RTVSPost2010PropOp43
 70
     1
102
RTVSPost2010Prop44ColorIndex
 90
        5
102
RTVSPost2010Prop44ColorRGB
 90
      255
102
RTVSPost2010PropOp44
 70
     1
102
RTVSPost2010Prop45
280
     0
102
RTVSPost2010PropOp45
 70
     1
102
RTVSPost2010Prop46
 90
       50
102
RTVSPost2010PropOp46
 70
     1
102
RTVSPost2010Prop47
 90
       50
102
RTVSPost2010PropOp47
 70
     1
102
RTVSPost2010Prop48
 90
       50
102
RTVSPost2010PropOp48
 70
     1
102
RTVSPost2010Prop49
280
     0
102
RTVSPost2010PropOp49
 70
     1
102
RTVSPost2010Prop50
 90
       50
102
RTVSPost2010PropOp50
 70
     1
102
RTVSPost2010Prop51ColorIndex
 90
      256
102
RTVSPost2010Prop51ColorRGB
 90
-16777216
102
RTVSPost2010PropOp51
 70
     0
102
RTVSPost2010Prop52
140
1.0
102
RTVSPost2010PropOp52
 70
     0
102
RTVSPost2010Prop53
 90
        2
102
RTVSPost2010PropOp53
 70
     1
102
RTVSPost2010Prop54
  1
strokes_ogs.tif
102
RTVSPost2010PropOp54
 70
     1
102
RTVSPost2010Prop55
280
     0
102
RTVSPost2010PropOp55
 70
     1
102
RTVSPost2010Prop56
140
1.0
102
RTVSPost2010PropOp56
 70
     1
102
RTVSPost2010Prop57
140
1.0
102
RTVSPost2010PropOp57
 70
     1
  0
ENDSEC
  0
EOF
