  0
SECTION
  2
HEADER
  9
$ACADVER
  1
AC1024
  9
$ACADMAINTVER
 70
   205
  9
$DWGCODEPAGE
  3
ANSI_1251
  9
$INSBASE
 10
0.0
 20
0.0
 30
0.0
  9
$EXTMIN
 10
1.000000000000000E+20
 20
1.000000000000000E+20
 30
1.000000000000000E+20
  9
$EXTMAX
 10
-1.000000000000000E+20
 20
-1.000000000000000E+20
 30
-1.000000000000000E+20
  9
$LIMMIN
 10
0.0
 20
0.0
  9
$LIMMAX
 10
12.0
 20
9.0
  9
$ORTHOMODE
 70
     0
  9
$REGENMODE
 70
     1
  9
$FILLMODE
 70
     1
  9
$QTEXTMODE
 70
     0
  9
$MIRRTEXT
 70
     1
  9
$LTSCALE
 40
1.0
  9
$ATTMODE
 70
     1
  9
$TEXTSIZE
 40
0.2
  9
$TRACEWID
 40
0.05
  9
$TEXTSTYLE
  7
Standard
  9
$CLAYER
  8
OracDecor_cornice_mouldings
  9
$CELTYPE
  6
ByLayer
  9
$CECOLOR
 62
   256
  9
$CELTSCALE
 40
1.0
  9
$DISPSILH
 70
     0
  9
$DIMSCALE
 40
1.0
  9
$DIMASZ
 40
0.18
  9
$DIMEXO
 40
0.0625
  9
$DIMDLI
 40
0.38
  9
$DIMRND
 40
0.0
  9
$DIMDLE
 40
0.0
  9
$DIMEXE
 40
0.18
  9
$DIMTP
 40
0.0
  9
$DIMTM
 40
0.0
  9
$DIMTXT
 40
0.18
  9
$DIMCEN
 40
0.09
  9
$DIMTSZ
 40
0.0
  9
$DIMTOL
 70
     0
  9
$DIMLIM
 70
     0
  9
$DIMTIH
 70
     1
  9
$DIMTOH
 70
     1
  9
$DIMSE1
 70
     0
  9
$DIMSE2
 70
     0
  9
$DIMTAD
 70
     0
  9
$DIMZIN
 70
     0
  9
$DIMBLK
  1

  9
$DIMASO
 70
     1
  9
$DIMSHO
 70
     1
  9
$DIMPOST
  1

  9
$DIMAPOST
  1

  9
$DIMALT
 70
     0
  9
$DIMALTD
 70
     2
  9
$DIMALTF
 40
25.4
  9
$DIMLFAC
 40
1.0
  9
$DIMTOFL
 70
     0
  9
$DIMTVP
 40
0.0
  9
$DIMTIX
 70
     0
  9
$DIMSOXD
 70
     0
  9
$DIMSAH
 70
     0
  9
$DIMBLK1
  1

  9
$DIMBLK2
  1

  9
$DIMSTYLE
  2
Standard
  9
$DIMCLRD
 70
     0
  9
$DIMCLRE
 70
     0
  9
$DIMCLRT
 70
     0
  9
$DIMTFAC
 40
1.0
  9
$DIMGAP
 40
0.09
  9
$DIMJUST
 70
     0
  9
$DIMSD1
 70
     0
  9
$DIMSD2
 70
     0
  9
$DIMTOLJ
 70
     1
  9
$DIMTZIN
 70
     0
  9
$DIMALTZ
 70
     0
  9
$DIMALTTZ
 70
     0
  9
$DIMUPT
 70
     0
  9
$DIMDEC
 70
     4
  9
$DIMTDEC
 70
     4
  9
$DIMALTU
 70
     2
  9
$DIMALTTD
 70
     2
  9
$DIMTXSTY
  7
Standard
  9
$DIMAUNIT
 70
     0
  9
$DIMADEC
 70
     0
  9
$DIMALTRND
 40
0.0
  9
$DIMAZIN
 70
     0
  9
$DIMDSEP
 70
    46
  9
$DIMATFIT
 70
     3
  9
$DIMFRAC
 70
     0
  9
$DIMLDRBLK
  1

  9
$DIMLUNIT
 70
     2
  9
$DIMLWD
 70
    -2
  9
$DIMLWE
 70
    -2
  9
$DIMTMOVE
 70
     0
  9
$DIMFXL
 40
1.0
  9
$DIMFXLON
 70
     0
  9
$DIMJOGANG
 40
0.7853981633974483
  9
$DIMTFILL
 70
     0
  9
$DIMTFILLCLR
 70
     0
  9
$DIMARCSYM
 70
     0
  9
$DIMLTYPE
  6

  9
$DIMLTEX1
  6

  9
$DIMLTEX2
  6

  9
$DIMTXTDIRECTION
 70
     0
  9
$LUNITS
 70
     2
  9
$LUPREC
 70
     4
  9
$SKETCHINC
 40
0.1
  9
$FILLETRAD
 40
0.5
  9
$AUNITS
 70
     0
  9
$AUPREC
 70
     0
  9
$MENU
  1
.
  9
$ELEVATION
 40
0.0
  9
$PELEVATION
 40
0.0
  9
$THICKNESS
 40
0.0
  9
$LIMCHECK
 70
     0
  9
$CHAMFERA
 40
0.5
  9
$CHAMFERB
 40
0.5
  9
$CHAMFERC
 40
1.0
  9
$CHAMFERD
 40
0.0
  9
$SKPOLY
 70
     0
  9
$TDCREATE
 40
2451380.930432396
  9
$TDUCREATE
 40
2451380.805432396
  9
$TDUPDATE
 40
2451380.966180555
  9
$TDUUPDATE
 40
2451380.841180556
  9
$TDINDWG
 40
0.0075617245
  9
$TDUSRTIMER
 40
0.0075526852
  9
$USRTIMER
 70
     1
  9
$ANGBASE
 50
0.0
  9
$ANGDIR
 70
     0
  9
$PDMODE
 70
     0
  9
$PDSIZE
 40
0.0
  9
$PLINEWID
 40
0.0
  9
$SPLFRAME
 70
     0
  9
$SPLINETYPE
 70
     6
  9
$SPLINESEGS
 70
     8
  9
$HANDSEED
  5
1E5
  9
$SURFTAB1
 70
     6
  9
$SURFTAB2
 70
     6
  9
$SURFTYPE
 70
     6
  9
$SURFU
 70
     6
  9
$SURFV
 70
     6
  9
$UCSBASE
  2

  9
$UCSNAME
  2

  9
$UCSORG
 10
0.0
 20
0.0
 30
0.0
  9
$UCSXDIR
 10
1.0
 20
0.0
 30
0.0
  9
$UCSYDIR
 10
0.0
 20
1.0
 30
0.0
  9
$UCSORTHOREF
  2

  9
$UCSORTHOVIEW
 70
     0
  9
$UCSORGTOP
 10
0.0
 20
0.0
 30
0.0
  9
$UCSORGBOTTOM
 10
0.0
 20
0.0
 30
0.0
  9
$UCSORGLEFT
 10
0.0
 20
0.0
 30
0.0
  9
$UCSORGRIGHT
 10
0.0
 20
0.0
 30
0.0
  9
$UCSORGFRONT
 10
0.0
 20
0.0
 30
0.0
  9
$UCSORGBACK
 10
0.0
 20
0.0
 30
0.0
  9
$PUCSBASE
  2

  9
$PUCSNAME
  2

  9
$PUCSORG
 10
0.0
 20
0.0
 30
0.0
  9
$PUCSXDIR
 10
1.0
 20
0.0
 30
0.0
  9
$PUCSYDIR
 10
0.0
 20
1.0
 30
0.0
  9
$PUCSORTHOREF
  2

  9
$PUCSORTHOVIEW
 70
     0
  9
$PUCSORGTOP
 10
0.0
 20
0.0
 30
0.0
  9
$PUCSORGBOTTOM
 10
0.0
 20
0.0
 30
0.0
  9
$PUCSORGLEFT
 10
0.0
 20
0.0
 30
0.0
  9
$PUCSORGRIGHT
 10
0.0
 20
0.0
 30
0.0
  9
$PUCSORGFRONT
 10
0.0
 20
0.0
 30
0.0
  9
$PUCSORGBACK
 10
0.0
 20
0.0
 30
0.0
  9
$USERI1
 70
     0
  9
$USERI2
 70
     0
  9
$USERI3
 70
     0
  9
$USERI4
 70
     0
  9
$USERI5
 70
     0
  9
$USERR1
 40
0.0
  9
$USERR2
 40
0.0
  9
$USERR3
 40
0.0
  9
$USERR4
 40
0.0
  9
$USERR5
 40
0.0
  9
$WORLDVIEW
 70
     1
  9
$SHADEDGE
 70
     3
  9
$SHADEDIF
 70
    70
  9
$TILEMODE
 70
     1
  9
$MAXACTVP
 70
    64
  9
$PINSBASE
 10
0.0
 20
0.0
 30
0.0
  9
$PLIMCHECK
 70
     0
  9
$PEXTMIN
 10
1.000000000000000E+20
 20
1.000000000000000E+20
 30
1.000000000000000E+20
  9
$PEXTMAX
 10
-1.000000000000000E+20
 20
-1.000000000000000E+20
 30
-1.000000000000000E+20
  9
$PLIMMIN
 10
0.0
 20
0.0
  9
$PLIMMAX
 10
12.0
 20
9.0
  9
$UNITMODE
 70
     0
  9
$VISRETAIN
 70
     1
  9
$PLINEGEN
 70
     0
  9
$PSLTSCALE
 70
     1
  9
$TREEDEPTH
 70
  3020
  9
$CMLSTYLE
  2
Standard
  9
$CMLJUST
 70
     0
  9
$CMLSCALE
 40
1.0
  9
$PROXYGRAPHICS
 70
     1
  9
$MEASUREMENT
 70
     1
  9
$CELWEIGHT
370
    -1
  9
$ENDCAPS
280
     0
  9
$JOINSTYLE
280
     0
  9
$LWDISPLAY
290
     0
  9
$INSUNITS
 70
     4
  9
$HYPERLINKBASE
  1

  9
$STYLESHEET
  1

  9
$XEDIT
290
     1
  9
$CEPSNTYPE
380
     0
  9
$PSTYLEMODE
290
     1
  9
$FINGERPRINTGUID
  2
{12F50282-3ED8-11D3-A8B7-0060B0F84BC6}
  9
$VERSIONGUID
  2
{12F50293-3ED8-11D3-A8B7-0060B0F84BC6}
  9
$EXTNAMES
290
     1
  9
$PSVPSCALE
 40
0.0
  9
$OLESTARTUP
290
     0
  9
$SORTENTS
280
   127
  9
$INDEXCTL
280
     0
  9
$HIDETEXT
280
     0
  9
$XCLIPFRAME
280
     2
  9
$HALOGAP
280
     0
  9
$OBSCOLOR
 70
   257
  9
$OBSLTYPE
280
     0
  9
$INTERSECTIONDISPLAY
280
     0
  9
$INTERSECTIONCOLOR
 70
   257
  9
$DIMASSOC
280
     1
  9
$PROJECTNAME
  1

  9
$CAMERADISPLAY
290
     0
  9
$LENSLENGTH
 40
50.0
  9
$CAMERAHEIGHT
 40
0.0
  9
$STEPSPERSEC
 40
2.0
  9
$STEPSIZE
 40
6.0
  9
$3DDWFPREC
 40
2.0
  9
$PSOLWIDTH
 40
0.25
  9
$PSOLHEIGHT
 40
4.0
  9
$LOFTANG1
 40
1.570796326794896
  9
$LOFTANG2
 40
1.570796326794896
  9
$LOFTMAG1
 40
0.0
  9
$LOFTMAG2
 40
0.0
  9
$LOFTPARAM
 70
     7
  9
$LOFTNORMALS
280
     1
  9
$LATITUDE
 40
37.795
  9
$LONGITUDE
 40
-122.394
  9
$NORTHDIRECTION
 40
0.0
  9
$TIMEZONE
 70
 -8000
  9
$LIGHTGLYPHDISPLAY
280
     1
  9
$TILEMODELIGHTSYNCH
280
     1
  9
$CMATERIAL
347
AB
  9
$SOLIDHIST
280
     0
  9
$SHOWHIST
280
     1
  9
$DWFFRAME
280
     2
  9
$DGNFRAME
280
     0
  9
$REALWORLDSCALE
290
     1
  9
$INTERFERECOLOR
 62
     1
  9
$INTERFEREOBJVS
345
CD
  9
$INTERFEREVPVS
346
CA
  9
$CSHADOW
280
     0
  9
$SHADOWPLANELOCATION
 40
0.0
  0
ENDSEC
  0
SECTION
  2
CLASSES
  0
CLASS
  1
ACDBDICTIONARYWDFLT
  2
AcDbDictionaryWithDefault
  3
ObjectDBX Classes
 90
        0
 91
        1
280
     0
281
     0
  0
CLASS
  1
ACDBPLACEHOLDER
  2
AcDbPlaceHolder
  3
ObjectDBX Classes
 90
        0
 91
        2
280
     0
281
     0
  0
CLASS
  1
LAYOUT
  2
AcDbLayout
  3
ObjectDBX Classes
 90
        0
 91
        3
280
     0
281
     0
  0
CLASS
  1
MATERIAL
  2
AcDbMaterial
  3
ObjectDBX Classes
 90
     1153
 91
        3
280
     0
281
     0
  0
CLASS
  1
VISUALSTYLE
  2
AcDbVisualStyle
  3
ObjectDBX Classes
 90
     4095
 91
       24
280
     0
281
     0
  0
CLASS
  1
TABLESTYLE
  2
AcDbTableStyle
  3
ObjectDBX Classes
 90
     4095
 91
        1
280
     0
281
     0
  0
CLASS
  1
SCALE
  2
AcDbScale
  3
ObjectDBX Classes
 90
     1153
 91
       17
280
     0
281
     0
  0
CLASS
  1
MLEADERSTYLE
  2
AcDbMLeaderStyle
  3
ACDB_MLEADERSTYLE_CLASS
 90
     4095
 91
        1
280
     0
281
     0
  0
CLASS
  1
ACDBSECTIONVIEWSTYLE
  2
AcDbSectionViewStyle
  3
ObjectDBX Classes
 90
     1025
 91
        1
280
     0
281
     0
  0
CLASS
  1
ACDBDETAILVIEWSTYLE
  2
AcDbDetailViewStyle
  3
ObjectDBX Classes
 90
     1025
 91
        1
280
     0
281
     0
  0
CLASS
  1
MESH
  2
AcDbSubDMesh
  3
ObjectDBX Classes
 90
        0
 91
        1
280
     0
281
     1
  0
CLASS
  1
DICTIONARYVAR
  2
AcDbDictionaryVar
  3
ObjectDBX Classes
 90
        0
 91
        9
280
     0
281
     0
  0
CLASS
  1
CELLSTYLEMAP
  2
AcDbCellStyleMap
  3
ObjectDBX Classes
 90
     1152
 91
        1
280
     0
281
     0
  0
ENDSEC
  0
SECTION
  2
TABLES
  0
TABLE
  2
VPORT
  5
8
330
0
100
AcDbSymbolTable
 70
     1
  0
VPORT
  5
A8
330
8
100
AcDbSymbolTableRecord
100
AcDbViewportTableRecord
  2
*Active
 70
     0
 10
0.0
 20
0.0
 11
1.0
 21
1.0
 12
-0.0001078959394363
 22
-104.5114364624023
 13
0.0
 23
0.0
 14
0.5
 24
0.5
 15
0.5
 25
0.5
 16
-1.0
 26
-1.0
 36
1.0
 17
0.0
 27
0.0
 37
0.0
 40
1390.999488801146
 41
1.413284191078308
 42
50.0
 43
0.0
 44
0.0
 50
0.0
 51
0.0
 71
     0
 72
   100
 73
     1
 74
     3
 75
     0
 76
     0
 77
     0
 78
     0
281
     0
 65
     1
110
0.0
120
0.0
130
0.0
111
1.0
121
0.0
131
0.0
112
0.0
122
1.0
132
0.0
 79
     0
146
0.0
348
C9
 60
     3
 61
     5
292
     1
282
     1
141
0.0
142
0.0
 63
   250
421
  3355443
  0
ENDTAB
  0
TABLE
  2
LTYPE
  5
5
330
0
100
AcDbSymbolTable
 70
     1
  0
LTYPE
  5
14
330
5
100
AcDbSymbolTableRecord
100
AcDbLinetypeTableRecord
  2
ByBlock
 70
     0
  3

 72
    65
 73
     0
 40
0.0
  0
LTYPE
  5
15
330
5
100
AcDbSymbolTableRecord
100
AcDbLinetypeTableRecord
  2
ByLayer
 70
     0
  3

 72
    65
 73
     0
 40
0.0
  0
LTYPE
  5
16
330
5
100
AcDbSymbolTableRecord
100
AcDbLinetypeTableRecord
  2
Continuous
 70
     0
  3
Solid line
 72
    65
 73
     0
 40
0.0
  0
ENDTAB
  0
TABLE
  2
LAYER
  5
2
330
0
100
AcDbSymbolTable
 70
     3
  0
LAYER
  5
10
330
2
100
AcDbSymbolTableRecord
100
AcDbLayerTableRecord
  2
0
 70
     0
 62
     7
  6
Continuous
370
    -3
390
F
347
BB
  0
LAYER
  5
2B
330
2
100
AcDbSymbolTableRecord
100
AcDbLayerTableRecord
  2
ASHADE
 70
     4
 62
     7
  6
Continuous
370
    -3
390
2D
347
BB
  0
LAYER
  5
F8
330
2
100
AcDbSymbolTableRecord
100
AcDbLayerTableRecord
  2
OracDecor_cornice_mouldings
 70
     0
 62
   153
420
  5804257
  6
Continuous
370
    -3
390
F
347
BB
  0
ENDTAB
  0
TABLE
  2
STYLE
  5
3
330
0
100
AcDbSymbolTable
 70
     2
  0
STYLE
  5
11
330
3
100
AcDbSymbolTableRecord
100
AcDbTextStyleTableRecord
  2
Standard
 70
     0
 40
0.0
 41
1.0
 50
0.0
 71
     0
 42
0.2
  3
txt
  4

  0
STYLE
  5
2C
330
3
100
AcDbSymbolTableRecord
100
AcDbTextStyleTableRecord
  2
ASHADE
 70
     0
 40
0.2
 41
1.0
 50
0.0
 71
     0
 42
0.2
  3
simplex
  4

  0
ENDTAB
  0
TABLE
  2
VIEW
  5
6
330
0
100
AcDbSymbolTable
 70
     0
  0
ENDTAB
  0
TABLE
  2
UCS
  5
7
330
0
100
AcDbSymbolTable
 70
     0
  0
ENDTAB
  0
TABLE
  2
APPID
  5
9
330
0
100
AcDbSymbolTable
 70
     6
  0
APPID
  5
12
330
9
100
AcDbSymbolTableRecord
100
AcDbRegAppTableRecord
  2
ACAD
 70
     0
  0
APPID
  5
8F
330
9
100
AcDbSymbolTableRecord
100
AcDbRegAppTableRecord
  2
AVE_RENDER
 70
     0
  0
APPID
  5
90
330
9
100
AcDbSymbolTableRecord
100
AcDbRegAppTableRecord
  2
AVE_ENTITY_MATERIAL
 70
     0
  0
APPID
  5
9C
330
9
100
AcDbSymbolTableRecord
100
AcDbRegAppTableRecord
  2
AVE_FINISH
 70
     0
  0
APPID
  5
9D
330
9
100
AcDbSymbolTableRecord
100
AcDbRegAppTableRecord
  2
AVE_MATERIAL
 70
     0
  0
APPID
  5
9E
330
9
100
AcDbSymbolTableRecord
100
AcDbRegAppTableRecord
  2
AVE_GLOBAL
 70
     0
  0
ENDTAB
  0
TABLE
  2
DIMSTYLE
  5
A
330
0
100
AcDbSymbolTable
 70
     1
100
AcDbDimStyleTable
 71
     0
  0
DIMSTYLE
105
27
330
A
100
AcDbSymbolTableRecord
100
AcDbDimStyleTableRecord
  2
Standard
 70
     0
340
11
  0
ENDTAB
  0
TABLE
  2
BLOCK_RECORD
  5
1
330
0
100
AcDbSymbolTable
 70
     6
  0
BLOCK_RECORD
  5
1F
330
1
100
AcDbSymbolTableRecord
100
AcDbBlockTableRecord
  2
*Model_Space
340
22
 70
     0
280
     1
281
     0
  0
BLOCK_RECORD
  5
1B
330
1
100
AcDbSymbolTableRecord
100
AcDbBlockTableRecord
  2
*Paper_Space
340
1E
 70
     0
280
     1
281
     0
  0
BLOCK_RECORD
  5
23
330
1
100
AcDbSymbolTableRecord
100
AcDbBlockTableRecord
  2
*Paper_Space0
340
26
 70
     0
280
     1
281
     0
  0
BLOCK_RECORD
  5
2E
330
1
100
AcDbSymbolTableRecord
100
AcDbBlockTableRecord
  2
direct
340
0
 70
     0
280
     1
281
     0
  0
BLOCK_RECORD
  5
42
330
1
100
AcDbSymbolTableRecord
100
AcDbBlockTableRecord
  2
overhead
340
0
 70
     0
280
     1
281
     0
  0
BLOCK_RECORD
  5
5F
330
1
100
AcDbSymbolTableRecord
100
AcDbBlockTableRecord
  2
sh_spot
340
0
 70
     0
280
     1
281
     0
  0
BLOCK_RECORD
  5
91
330
1
100
AcDbSymbolTableRecord
100
AcDbBlockTableRecord
  2
AVE_RENDER
340
0
102
{BLKREFS
331
94
331
95
331
96
331
97
331
98
331
99
331
9A
331
9B
102
}
 70
     0
280
     1
281
     0
  0
BLOCK_RECORD
  5
9F
330
1
100
AcDbSymbolTableRecord
100
AcDbBlockTableRecord
  2
AVE_GLOBAL
340
0
102
{BLKREFS
331
A2
102
}
 70
     0
280
     1
281
     0
  0
ENDTAB
  0
ENDSEC
  0
SECTION
  2
BLOCKS
  0
BLOCK
  5
20
330
1F
100
AcDbEntity
  8
0
100
AcDbBlockBegin
  2
*Model_Space
 70
     0
 10
0.0
 20
0.0
 30
0.0
  3
*Model_Space
  1

  0
ENDBLK
  5
21
330
1F
100
AcDbEntity
  8
0
100
AcDbBlockEnd
  0
BLOCK
  5
1C
330
1B
100
AcDbEntity
 67
     1
  8
0
100
AcDbBlockBegin
  2
*Paper_Space
 70
     0
 10
0.0
 20
0.0
 30
0.0
  3
*Paper_Space
  1

  0
ENDBLK
  5
1D
330
1B
100
AcDbEntity
 67
     1
  8
0
100
AcDbBlockEnd
  0
BLOCK
  5
24
330
23
100
AcDbEntity
 67
     1
  8
0
100
AcDbBlockBegin
  2
*Paper_Space0
 70
     0
 10
0.0
 20
0.0
 30
0.0
  3
*Paper_Space0
  1

  0
ENDBLK
  5
25
330
23
100
AcDbEntity
 67
     1
  8
0
100
AcDbBlockEnd
  0
BLOCK
  5
40
330
2E
100
AcDbEntity
  8
0
100
AcDbBlockBegin
  2
direct
 70
     2
 10
0.0
 20
0.0
 30
0.0
  3
direct
  1

  0
ATTDEF
  5
2F
330
2E
100
AcDbEntity
  8
ASHADE
  6
Continuous
 62
     1
100
AcDbText
 10
0.0
 20
-0.1
 30
0.0
 40
0.2
  1

  7
ASHADE
 72
     1
 11
0.0
 21
-0.1
 31
0.0
100
AcDbAttributeDefinition
280
     0
  3
Light Name
  2
SNAME
 70
     0
280
     0
  0
ARC
  5
30
330
2E
100
AcDbEntity
  8
ASHADE
  6
Continuous
 62
     7
100
AcDbCircle
 10
0.0
 20
0.0
 30
0.0
 40
0.3
100
AcDbArc
 50
205.6792886194569
 51
334.3207113805431
  0
ARC
  5
31
330
2E
100
AcDbEntity
  8
ASHADE
  6
Continuous
 62
     7
100
AcDbCircle
 10
0.0
 20
0.0
 30
0.0
 40
0.3
100
AcDbArc
 50
25.67928861945685
 51
154.3207113805431
  0
LINE
  5
32
330
2E
100
AcDbEntity
  8
ASHADE
  6
Continuous
 62
     7
100
AcDbLine
 10
-0.21
 20
0.2142428528562855
 30
0.0
 11
-0.21
 21
0.5
 31
0.0
  0
LINE
  5
33
330
2E
100
AcDbEntity
  8
ASHADE
  6
Continuous
 62
     7
100
AcDbLine
 10
-0.11
 20
0.2791057147390572
 30
0.0
 11
-0.11
 21
0.5
 31
0.0
  0
LINE
  5
34
330
2E
100
AcDbEntity
  8
ASHADE
  6
Continuous
 62
     7
100
AcDbLine
 10
0.21
 20
0.2142428528562855
 30
0.0
 11
0.21
 21
0.5
 31
0.0
  0
ATTDEF
  5
35
330
2E
100
AcDbEntity
  8
ASHADE
  6
Continuous
 62
     7
100
AcDbText
 10
0.0
 20
0.25
 30
0.0
 40
0.01
  1

100
AcDbAttributeDefinition
280
     0
  3
Look-at Y
  2
LAY
 70
     1
280
     0
  0
ATTDEF
  5
36
330
2E
100
AcDbEntity
  8
ASHADE
  6
Continuous
 62
     7
100
AcDbText
 10
0.0
 20
0.22
 30
0.0
 40
0.01
  1
1
100
AcDbAttributeDefinition
280
     0
  3
Light Intensity
  2
INTENSITY
 70
     1
280
     0
  0
ATTDEF
  5
37
330
2E
100
AcDbEntity
  8
ASHADE
  6
Continuous
 62
     7
100
AcDbText
 10
0.0
 20
0.16
 30
0.0
 40
0.01
  1
-1
100
AcDbAttributeDefinition
280
     0
  3
*not used*
  2
BEAMD
 70
     1
280
     0
  0
ATTDEF
  5
38
330
2E
100
AcDbEntity
  8
ASHADE
  6
Continuous
 62
     7
100
AcDbText
 10
0.0
 20
0.175
 30
0.0
 40
0.01
  1
-1
100
AcDbAttributeDefinition
280
     0
  3
*not used*
  2
CONED
 70
     1
280
     0
  0
ATTDEF
  5
39
330
2E
100
AcDbEntity
  8
ASHADE
  6
Continuous
 62
     7
100
AcDbText
 10
0.0
 20
0.19
 30
0.0
 40
0.01
  1
0
100
AcDbAttributeDefinition
280
     0
  3
Depth Map Size
  2
CONEA
 70
     1
280
     0
  0
ATTDEF
  5
3A
330
2E
100
AcDbEntity
  8
ASHADE
  6
Continuous
 62
     7
100
AcDbText
 10
0.0
 20
0.2050000000000001
 30
0.0
 40
0.01
  1
1,1,1
100
AcDbAttributeDefinition
280
     0
  3
Light Color (RGB)
  2
COLOR
 70
     1
280
     0
  0
ATTDEF
  5
3B
330
2E
100
AcDbEntity
  8
ASHADE
  6
Continuous
 62
     7
100
AcDbText
 10
0.0
 20
0.235
 30
0.0
 40
0.01
  1

100
AcDbAttributeDefinition
280
     0
  3
Look-at Z
  2
LAZ
 70
     1
280
     0
  0
LINE
  5
3C
330
2E
100
AcDbEntity
  8
ASHADE
  6
Continuous
 62
     7
100
AcDbLine
 10
0.0
 20
0.3
 30
0.0
 11
0.0
 21
0.5
 31
0.0
  0
LINE
  5
3D
330
2E
100
AcDbEntity
  8
ASHADE
  6
Continuous
 62
     7
100
AcDbLine
 10
0.11
 20
0.2791057147390572
 30
0.0
 11
0.11
 21
0.5
 31
0.0
  0
ATTDEF
  5
3E
330
2E
100
AcDbEntity
  8
ASHADE
  6
Continuous
 62
     7
100
AcDbText
 10
0.0
 20
0.265
 30
0.0
 40
0.01
  1

100
AcDbAttributeDefinition
280
     0
  3
Look-at X
  2
LAX
 70
     1
280
     0
  0
ATTDEF
  5
3F
330
2E
100
AcDbEntity
  8
ASHADE
  6
Continuous
 62
     7
100
AcDbText
 10
0.0
 20
0.28
 30
0.0
 40
0.01
  1

100
AcDbAttributeDefinition
280
     0
  3

  2
GNAME
 70
     1
280
     0
  0
ENDBLK
  5
41
330
2E
100
AcDbEntity
  8
0
100
AcDbBlockEnd
  0
BLOCK
  5
5D
330
42
100
AcDbEntity
  8
0
100
AcDbBlockBegin
  2
overhead
 70
     2
 10
0.0
 20
0.0
 30
0.0
  3
overhead
  1

  0
ATTDEF
  5
43
330
42
100
AcDbEntity
  8
ASHADE
  6
Continuous
 62
     1
100
AcDbText
 10
0.0
 20
-0.1
 30
0.0
 40
0.2
  1

  7
ASHADE
 72
     1
 11
0.0
 21
-0.1
 31
0.0
100
AcDbAttributeDefinition
280
     0
  3
Light Name
  2
SNAME
 70
     0
280
     0
  0
ARC
  5
44
330
42
100
AcDbEntity
  8
ASHADE
  6
Continuous
 62
     7
100
AcDbCircle
 10
0.0
 20
0.0
 30
0.0
 40
0.3
100
AcDbArc
 50
205.6792886194569
 51
334.3207113805431
  0
LINE
  5
45
330
42
100
AcDbEntity
  8
ASHADE
  6
Continuous
 62
     7
100
AcDbLine
 10
-0.2041413561583015
 20
-0.2198324514393848
 30
0.0
 11
-0.2721884748777353
 21
-0.2931099352525131
 31
0.0
  0
LINE
  5
46
330
42
100
AcDbEntity
  8
ASHADE
  6
Continuous
 62
     7
100
AcDbLine
 10
-0.1096591641591904
 20
-0.2792398032442862
 30
0.0
 11
-0.1279356915190555
 21
-0.3257797704516673
 31
0.0
  0
LINE
  5
47
330
42
100
AcDbEntity
  8
ASHADE
  6
Continuous
 62
     7
100
AcDbLine
 10
0.0
 20
-0.2999999999999999
 30
0.0
 11
0.0
 21
-0.4
 31
0.0
  0
LINE
  5
48
330
42
100
AcDbEntity
  8
ASHADE
  6
Continuous
 62
     7
100
AcDbLine
 10
0.1096591641591904
 20
-0.2792398032442862
 30
0.0
 11
0.1279356915190555
 21
-0.3257797704516673
 31
0.0
  0
LINE
  5
49
330
42
100
AcDbEntity
  8
ASHADE
  6
Continuous
 62
     7
100
AcDbLine
 10
0.2041413561583015
 20
-0.2198324514393848
 30
0.0
 11
0.2721884748777353
 21
-0.2931099352525131
 31
0.0
  0
ARC
  5
4A
330
42
100
AcDbEntity
  8
ASHADE
  6
Continuous
 62
     7
100
AcDbCircle
 10
0.0
 20
0.0
 30
0.0
 40
0.3
100
AcDbArc
 50
25.67928861945685
 51
154.3207113805431
  0
LINE
  5
4B
330
42
100
AcDbEntity
  8
ASHADE
  6
Continuous
 62
     7
100
AcDbLine
 10
-0.2703701166919155
 20
0.13
 30
0.0
 11
-0.3154318028072347
 21
0.1516666666666666
 31
0.0
  0
LINE
  5
4C
330
42
100
AcDbEntity
  8
ASHADE
  6
Continuous
 62
     7
100
AcDbLine
 10
-0.2703701166919155
 20
-0.13
 30
0.0
 11
-0.3154318028072347
 21
-0.1516666666666666
 31
0.0
  0
LINE
  5
4D
330
42
100
AcDbEntity
  8
ASHADE
  6
Continuous
 62
     7
100
AcDbLine
 10
-0.2041413561583015
 20
0.2198324514393849
 30
0.0
 11
-0.2721884748777353
 21
0.2931099352525131
 31
0.0
  0
LINE
  5
4E
330
42
100
AcDbEntity
  8
ASHADE
  6
Continuous
 62
     7
100
AcDbLine
 10
-0.1096591641591904
 20
0.2792398032442862
 30
0.0
 11
-0.1279356915190555
 21
0.3257797704516674
 31
0.0
  0
LINE
  5
4F
330
42
100
AcDbEntity
  8
ASHADE
  6
Continuous
 62
     7
100
AcDbLine
 10
0.2703701166919155
 20
-0.13
 30
0.0
 11
0.3154318028072347
 21
-0.1516666666666666
 31
0.0
  0
LINE
  5
50
330
42
100
AcDbEntity
  8
ASHADE
  6
Continuous
 62
     7
100
AcDbLine
 10
0.2703701166919155
 20
0.13
 30
0.0
 11
0.3154318028072347
 21
0.1516666666666666
 31
0.0
  0
LINE
  5
51
330
42
100
AcDbEntity
  8
ASHADE
  6
Continuous
 62
     7
100
AcDbLine
 10
0.0
 20
0.3
 30
0.0
 11
0.0
 21
0.4
 31
0.0
  0
ATTDEF
  5
52
330
42
100
AcDbEntity
  8
ASHADE
  6
Continuous
 62
     7
100
AcDbText
 10
0.0
 20
0.22
 30
0.0
 40
0.01
  1
1
100
AcDbAttributeDefinition
280
     0
  3
Light Intensity
  2
INTENSITY
 70
     1
280
     0
  0
ATTDEF
  5
53
330
42
100
AcDbEntity
  8
ASHADE
  6
Continuous
 62
     7
100
AcDbText
 10
0.0
 20
0.16
 30
0.0
 40
0.01
  1
-1
100
AcDbAttributeDefinition
280
     0
  3
*not used*
  2
BEAMD
 70
     1
280
     0
  0
ATTDEF
  5
54
330
42
100
AcDbEntity
  8
ASHADE
  6
Continuous
 62
     7
100
AcDbText
 10
0.0
 20
0.175
 30
0.0
 40
0.01
  1
-1
100
AcDbAttributeDefinition
280
     0
  3
*not used*
  2
CONED
 70
     1
280
     0
  0
ATTDEF
  5
55
330
42
100
AcDbEntity
  8
ASHADE
  6
Continuous
 62
     7
100
AcDbText
 10
0.0
 20
0.19
 30
0.0
 40
0.01
  1
0
100
AcDbAttributeDefinition
280
     0
  3
Depth Map Size
  2
CONEA
 70
     1
280
     0
  0
ATTDEF
  5
56
330
42
100
AcDbEntity
  8
ASHADE
  6
Continuous
 62
     7
100
AcDbText
 10
0.0
 20
0.2050000000000001
 30
0.0
 40
0.01
  1
1,1,1
100
AcDbAttributeDefinition
280
     0
  3
Light Color (RGB)
  2
COLOR
 70
     1
280
     0
  0
ATTDEF
  5
57
330
42
100
AcDbEntity
  8
ASHADE
  6
Continuous
 62
     7
100
AcDbText
 10
0.0
 20
0.235
 30
0.0
 40
0.01
  1

100
AcDbAttributeDefinition
280
     0
  3
Look-at Z
  2
LAZ
 70
     1
280
     0
  0
ATTDEF
  5
58
330
42
100
AcDbEntity
  8
ASHADE
  6
Continuous
 62
     7
100
AcDbText
 10
0.0
 20
0.25
 30
0.0
 40
0.01
  1

100
AcDbAttributeDefinition
280
     0
  3
Look-at Y
  2
LAY
 70
     1
280
     0
  0
ATTDEF
  5
59
330
42
100
AcDbEntity
  8
ASHADE
  6
Continuous
 62
     7
100
AcDbText
 10
0.0
 20
0.265
 30
0.0
 40
0.01
  1

100
AcDbAttributeDefinition
280
     0
  3
Look-at X
  2
LAX
 70
     1
280
     0
  0
ATTDEF
  5
5A
330
42
100
AcDbEntity
  8
ASHADE
  6
Continuous
 62
     7
100
AcDbText
 10
0.0
 20
0.28
 30
0.0
 40
0.01
  1

100
AcDbAttributeDefinition
280
     0
  3

  2
GNAME
 70
     1
280
     0
  0
LINE
  5
5B
330
42
100
AcDbEntity
  8
ASHADE
  6
Continuous
 62
     7
100
AcDbLine
 10
0.1096591641591904
 20
0.2792398032442862
 30
0.0
 11
0.1279356915190555
 21
0.3257797704516674
 31
0.0
  0
LINE
  5
5C
330
42
100
AcDbEntity
  8
ASHADE
  6
Continuous
 62
     7
100
AcDbLine
 10
0.2041413561583015
 20
0.2198324514393849
 30
0.0
 11
0.2721884748777353
 21
0.2931099352525131
 31
0.0
  0
ENDBLK
  5
5E
330
42
100
AcDbEntity
  8
0
100
AcDbBlockEnd
  0
BLOCK
  5
85
330
5F
100
AcDbEntity
  8
0
100
AcDbBlockBegin
  2
sh_spot
 70
     2
 10
0.0
 20
0.0
 30
0.0
  3
sh_spot
  1

  0
LINE
  5
60
330
5F
100
AcDbEntity
  8
ASHADE
  6
Continuous
 62
     7
100
AcDbLine
 10
0.25
 20
0.26
 30
0.0
 11
-0.25
 21
0.26
 31
0.0
  0
LINE
  5
61
330
5F
100
AcDbEntity
  8
ASHADE
  6
Continuous
 62
     7
100
AcDbLine
 10
-0.25
 20
-0.3399999999999999
 30
0.0
 11
0.25
 21
-0.3399999999999999
 31
0.0
  0
ATTDEF
  5
62
330
5F
100
AcDbEntity
  8
ASHADE
  6
Continuous
 62
     1
100
AcDbText
 10
0.0
 20
-0.1
 30
0.0
 40
0.2
  1

  7
ASHADE
 72
     1
 11
0.0
 21
-0.1
 31
0.0
100
AcDbAttributeDefinition
280
     0
  3
Light Name
  2
SNAME
 70
     0
280
     0
  0
LINE
  5
63
330
5F
100
AcDbEntity
  8
ASHADE
  6
Continuous
 62
     7
100
AcDbLine
 10
-0.25
 20
-0.13
 30
0.0
 11
-0.25
 21
-0.3399999999999999
 31
0.0
  0
LINE
  5
64
330
5F
100
AcDbEntity
  8
ASHADE
  6
Continuous
 62
     7
100
AcDbLine
 10
-0.25
 20
-0.18
 30
0.0
 11
-0.29
 21
-0.18
 31
0.0
  0
LINE
  5
65
330
5F
100
AcDbEntity
  8
ASHADE
  6
Continuous
 62
     7
100
AcDbLine
 10
-0.29
 20
-0.22
 30
0.0
 11
-0.25
 21
-0.22
 31
0.0
  0
LINE
  5
66
330
5F
100
AcDbEntity
  8
ASHADE
  6
Continuous
 62
     7
100
AcDbLine
 10
-0.29
 20
-0.18
 30
0.0
 11
-0.29
 21
-0.22
 31
0.0
  0
LINE
  5
67
330
5F
100
AcDbEntity
  8
ASHADE
  6
Continuous
 62
     7
100
AcDbLine
 10
-0.1045454545454545
 20
0.26
 30
0.0
 11
-0.15
 21
0.46
 31
0.0
  0
LINE
  5
68
330
5F
100
AcDbEntity
  8
ASHADE
  6
Continuous
 62
     7
100
AcDbLine
 10
-0.21
 20
0.26
 30
0.0
 11
-0.301304347826087
 21
0.46
 31
0.0
  0
LINE
  5
69
330
5F
100
AcDbEntity
  8
ASHADE
  6
Continuous
 62
     7
100
AcDbLine
 10
-0.25
 20
0.26
 30
0.0
 11
-0.25
 21
0.13
 31
0.0
  0
LINE
  5
6A
330
5F
100
AcDbEntity
  8
ASHADE
  6
Continuous
 62
     7
100
AcDbLine
 10
-0.25
 20
0.22
 30
0.0
 11
-0.29
 21
0.22
 31
0.0
  0
LINE
  5
6B
330
5F
100
AcDbEntity
  8
ASHADE
  6
Continuous
 62
     7
100
AcDbLine
 10
-0.29
 20
0.1799999999999999
 30
0.0
 11
-0.25
 21
0.1799999999999999
 31
0.0
  0
LINE
  5
6C
330
5F
100
AcDbEntity
  8
ASHADE
  6
Continuous
 62
     7
100
AcDbLine
 10
-0.29
 20
0.22
 30
0.0
 11
-0.29
 21
0.1799999999999999
 31
0.0
  0
ATTDEF
  5
6D
330
5F
100
AcDbEntity
  8
ASHADE
  6
Continuous
 62
     7
100
AcDbText
 10
0.0
 20
-0.24
 30
0.0
 40
0.01
  1
0
100
AcDbAttributeDefinition
280
     0
  3
Depth Map Size
  2
ZSIZE
 70
     1
280
     0
  0
ATTDEF
  5
6E
330
5F
100
AcDbEntity
  8
ASHADE
  6
Continuous
 62
     7
100
AcDbText
 10
0.0
 20
-0.3300000000000001
 30
0.0
 40
0.01
  1
0,0,0
100
AcDbAttributeDefinition
280
     0
  3
Look-from XYZ
  2
LFXYZ
 70
     1
280
     0
  0
ATTDEF
  5
6F
330
5F
100
AcDbEntity
  8
ASHADE
  6
Continuous
 62
     7
100
AcDbText
 10
0.0
 20
-0.315
 30
0.0
 40
0.01
  1
0.0
100
AcDbAttributeDefinition
280
     0
  3
Beam Distribution
  2
BEAMDI
 70
     1
280
     0
  0
ATTDEF
  5
70
330
5F
100
AcDbEntity
  8
ASHADE
  6
Continuous
 62
     7
100
AcDbText
 10
0.0
 20
-0.3
 30
0.0
 40
0.01
  1
0.0
100
AcDbAttributeDefinition
280
     0
  3
Cone Delta
  2
CONEDE
 70
     1
280
     0
  0
ATTDEF
  5
71
330
5F
100
AcDbEntity
  8
ASHADE
  6
Continuous
 62
     7
100
AcDbText
 10
0.0
 20
-0.2850000000000001
 30
0.0
 40
0.01
  1
10.0
100
AcDbAttributeDefinition
280
     0
  3
Cone Angle
  2
CONEAN
 70
     1
280
     0
  0
ATTDEF
  5
72
330
5F
100
AcDbEntity
  8
ASHADE
  6
Continuous
 62
     7
100
AcDbText
 10
0.0
 20
-0.27
 30
0.0
 40
0.01
  1
-1
100
AcDbAttributeDefinition
280
     0
  3
*not used*
  2
BIASMAX
 70
     1
280
     0
  0
ATTDEF
  5
73
330
5F
100
AcDbEntity
  8
ASHADE
  6
Continuous
 62
     7
100
AcDbText
 10
0.0
 20
-0.255
 30
0.0
 40
0.01
  1
-1
100
AcDbAttributeDefinition
280
     0
  3
*not used*
  2
BIASMIN
 70
     1
280
     0
  0
ATTDEF
  5
74
330
5F
100
AcDbEntity
  8
ASHADE
  6
Continuous
 62
     7
100
AcDbText
 10
0.0
 20
-0.225
 30
0.0
 40
0.01
  1
1,1,1
100
AcDbAttributeDefinition
280
     0
  3
Light Color (RGB)
  2
COLOR
 70
     1
280
     0
  0
ATTDEF
  5
75
330
5F
100
AcDbEntity
  8
ASHADE
  6
Continuous
 62
     7
100
AcDbText
 10
0.0
 20
-0.21
 30
0.0
 40
0.01
  1
1
100
AcDbAttributeDefinition
280
     0
  3
Light Intensity
  2
INTENSITY
 70
     1
280
     0
  0
ATTDEF
  5
76
330
5F
100
AcDbEntity
  8
ASHADE
  6
Continuous
 62
     7
100
AcDbText
 10
0.0
 20
-0.15
 30
0.0
 40
0.01
  1

100
AcDbAttributeDefinition
280
     0
  3

  2
GNAME
 70
     1
280
     0
  0
ATTDEF
  5
77
330
5F
100
AcDbEntity
  8
ASHADE
  6
Continuous
 62
     7
100
AcDbText
 10
0.0
 20
-0.195
 30
0.0
 40
0.01
  1

100
AcDbAttributeDefinition
280
     0
  3
Look-at Z
  2
LAZ
 70
     1
280
     0
  0
ATTDEF
  5
78
330
5F
100
AcDbEntity
  8
ASHADE
  6
Continuous
 62
     7
100
AcDbText
 10
0.0
 20
-0.18
 30
0.0
 40
0.01
  1

100
AcDbAttributeDefinition
280
     0
  3
Look-at Y
  2
LAY
 70
     1
280
     0
  0
ATTDEF
  5
79
330
5F
100
AcDbEntity
  8
ASHADE
  6
Continuous
 62
     7
100
AcDbText
 10
0.0
 20
-0.165
 30
0.0
 40
0.01
  1

100
AcDbAttributeDefinition
280
     0
  3
Look-at X
  2
LAX
 70
     1
280
     0
  0
LINE
  5
7A
330
5F
100
AcDbEntity
  8
ASHADE
  6
Continuous
 62
     7
100
AcDbLine
 10
0.25
 20
-0.3399999999999999
 30
0.0
 11
0.25
 21
-0.13
 31
0.0
  0
LINE
  5
7B
330
5F
100
AcDbEntity
  8
ASHADE
  6
Continuous
 62
     7
100
AcDbLine
 10
0.25
 20
-0.18
 30
0.0
 11
0.29
 21
-0.18
 31
0.0
  0
LINE
  5
7C
330
5F
100
AcDbEntity
  8
ASHADE
  6
Continuous
 62
     7
100
AcDbLine
 10
0.29
 20
-0.22
 30
0.0
 11
0.25
 21
-0.22
 31
0.0
  0
LINE
  5
7D
330
5F
100
AcDbEntity
  8
ASHADE
  6
Continuous
 62
     7
100
AcDbLine
 10
0.29
 20
-0.18
 30
0.0
 11
0.29
 21
-0.22
 31
0.0
  0
LINE
  5
7E
330
5F
100
AcDbEntity
  8
ASHADE
  6
Continuous
 62
     7
100
AcDbLine
 10
0.21
 20
0.26
 30
0.0
 11
0.301304347826087
 21
0.46
 31
0.0
  0
LINE
  5
7F
330
5F
100
AcDbEntity
  8
ASHADE
  6
Continuous
 62
     7
100
AcDbLine
 10
0.1045454545454545
 20
0.26
 30
0.0
 11
0.15
 21
0.46
 31
0.0
  0
LINE
  5
80
330
5F
100
AcDbEntity
  8
ASHADE
  6
Continuous
 62
     7
100
AcDbLine
 10
0.0
 20
0.26
 30
0.0
 11
0.0
 21
0.46
 31
0.0
  0
LINE
  5
81
330
5F
100
AcDbEntity
  8
ASHADE
  6
Continuous
 62
     7
100
AcDbLine
 10
0.25
 20
0.13
 30
0.0
 11
0.25
 21
0.26
 31
0.0
  0
LINE
  5
82
330
5F
100
AcDbEntity
  8
ASHADE
  6
Continuous
 62
     7
100
AcDbLine
 10
0.25
 20
0.22
 30
0.0
 11
0.29
 21
0.22
 31
0.0
  0
LINE
  5
83
330
5F
100
AcDbEntity
  8
ASHADE
  6
Continuous
 62
     7
100
AcDbLine
 10
0.29
 20
0.1799999999999999
 30
0.0
 11
0.25
 21
0.1799999999999999
 31
0.0
  0
LINE
  5
84
330
5F
100
AcDbEntity
  8
ASHADE
  6
Continuous
 62
     7
100
AcDbLine
 10
0.29
 20
0.22
 30
0.0
 11
0.29
 21
0.1799999999999999
 31
0.0
  0
ENDBLK
  5
86
330
5F
100
AcDbEntity
  8
0
100
AcDbBlockEnd
  0
BLOCK
  5
92
330
91
100
AcDbEntity
  8
ASHADE
100
AcDbBlockBegin
  2
AVE_RENDER
 70
     0
 10
0.0
 20
0.0
 30
0.0
  3
AVE_RENDER
  1
AVE_RENDER
  0
ENDBLK
  5
93
330
91
100
AcDbEntity
  8
0
100
AcDbBlockEnd
  0
BLOCK
  5
A0
330
9F
100
AcDbEntity
  8
ASHADE
100
AcDbBlockBegin
  2
AVE_GLOBAL
 70
     0
 10
0.0
 20
0.0
 30
0.0
  3
AVE_GLOBAL
  1
AVE_GLOBAL
  0
ENDBLK
  5
A1
330
9F
100
AcDbEntity
  8
0
100
AcDbBlockEnd
  0
ENDSEC
  0
SECTION
  2
ENTITIES
  0
INSERT
  5
94
330
1F
100
AcDbEntity
  8
ASHADE
 62
     1
100
AcDbBlockReference
  2
AVE_RENDER
 10
0.0
 20
0.0
 30
0.0
1001
AVE_RENDER
1002
{
1070
     7
1000
Pref
1070
    30
1070
    20
1070
     1
1070
     0
1000

1070
    10
1070
     1
1070
    10
1040
1.0
1070
     1
1040
0.3
1040
0.7
1040
0.0
1040
10.0
1010
-1.0
1020
-1.0
1030
-1.0
1040
0.3
1070
    49
1070
     0
1070
     0
1010
1.0
1020
1.0
1030
1.0
1040
45.0
1070
     1
1070
     0
1000
WCS
1040
0.0
1070
     0
1040
10.0
1002
}
  0
INSERT
  5
95
330
1F
100
AcDbEntity
  8
ASHADE
 62
     3
100
AcDbBlockReference
  2
AVE_RENDER
 10
0.0
 20
0.0
 30
0.0
1001
AVE_RENDER
1002
{
1070
     0
1000
Full Opt
1070
     0
1070
     1
1070
     1
1070
     1
1070
     0
1070
     0
1070
     0
1070
     1
1070
     1
1040
0.0001
1040
0.0001
1002
}
  0
INSERT
  5
96
330
1F
100
AcDbEntity
  8
ASHADE
 62
     4
100
AcDbBlockReference
  2
AVE_RENDER
 10
0.0
 20
0.0
 30
0.0
1001
AVE_RENDER
1002
{
1070
     0
1000
Quick Opt
1070
     0
1070
     1
1070
     1
1070
     1
1070
     0
1070
     0
1070
     1
1002
}
  0
INSERT
  5
97
330
1F
100
AcDbEntity
  8
ASHADE
 62
     5
100
AcDbBlockReference
  2
AVE_RENDER
 10
0.0
 20
0.0
 30
0.0
1001
AVE_RENDER
1002
{
1070
     1
1000
Scanl Opt
1070
     2
1070
     0
1070
     2
1040
2.0
1040
4.0
1070
     0
1070
     1
1070
     0
1040
0.03
1002
}
  0
INSERT
  5
98
330
1F
100
AcDbEntity
  8
ASHADE
 62
     6
100
AcDbBlockReference
  2
AVE_RENDER
 10
0.0
 20
0.0
 30
0.0
1001
AVE_RENDER
1002
{
1070
     2
1000
Raytr Opt
1070
     2
1070
     0
1070
     2
1040
2.0
1040
4.0
1070
     0
1070
     1
1070
     1
1040
0.03
1070
     3
1040
0.03
1002
}
  0
INSERT
  5
99
330
1F
100
AcDbEntity
  8
ASHADE
 62
     7
100
AcDbBlockReference
  2
AVE_RENDER
 10
0.0
 20
0.0
 30
0.0
1001
AVE_RENDER
1002
{
1070
     0
1000
RFile Opt
1070
     1
1070
   640
1070
   480
1070
 10000
1070
     1
1070
     8
1070
     8
1070
     0
1070
     0
1070
     0
1070
     0
1070
     0
1070
     0
1070
     0
1002
}
  0
INSERT
  5
9A
330
1F
100
AcDbEntity
  8
ASHADE
 62
     8
100
AcDbBlockReference
  2
AVE_RENDER
 10
0.0
 20
0.0
 30
0.0
1001
AVE_RENDER
1002
{
1070
     0
1000
Fog Opt
1070
     0
1070
     0
1040
0.0
1040
1.0
1040
0.0
1040
1.0
1010
0.5
1020
0.5
1030
0.5
1002
}
  0
INSERT
  5
9B
330
1F
100
AcDbEntity
  8
ASHADE
 62
     9
100
AcDbBlockReference
  2
AVE_RENDER
 10
0.0
 20
0.0
 30
0.0
1001
AVE_RENDER
1002
{
1070
     0
1000
BG Opt
1070
     0
1070
     1
1010
0.0
1020
0.0
1030
0.0
1010
1.0
1020
0.0
1030
0.0
1010
0.0
1020
1.0
1030
0.0
1010
0.0
1020
0.0
1030
1.0
1040
0.5
1040
0.33
1040
0.0
1000

1070
     1
1000

1070
     1
1070
     1
1040
1.0
1040
1.0
1040
0.0
1040
0.0
1070
     0
1002
}
  0
INSERT
  5
A2
330
1F
100
AcDbEntity
  8
ASHADE
 62
     1
100
AcDbBlockReference
  2
AVE_GLOBAL
 10
0.0
 20
0.0
 30
0.0
1001
AVE_MATERIAL
1002
{
1000
*GLOBAL*
1000
2
1000
Global finish.
1002
{
1002
}
1002
{
1070
    63
1002
{
1002
{
1010
-1.0
1020
-1.0
1030
-1.0
1002
}
1040
0.1000000014901161
1000

1040
0.0
1002
{
1002
}
1040
0.0
1002
{
1002
}
1040
0.0
1002
}
1002
{
1002
{
1010
-1.0
1020
-1.0
1030
-1.0
1002
}
1040
0.6999999880790711
1000

1040
0.0
1002
{
1002
}
1040
0.0
1002
{
1002
}
1040
0.0
1002
}
1002
{
1002
{
1010
-1.0
1020
-1.0
1030
-1.0
1002
}
1040
0.2000000029802322
1000

1040
0.0
1002
{
1002
}
1040
0.0
1002
{
1002
}
1040
0.0
1002
}
1002
{
1070
     0
1002
{
1070
     1
1002
{
1040
1.0
1040
1.0
1000

1040
0.0
1002
{
1002
}
1040
0.0
1002
{
1002
}
1040
0.0
1002
}
1002
}
1040
1.0
1040
0.0
1040
0.0
1002
}
1002
{
1040
1.0
1040
1.0
1000

1040
0.0
1002
{
1002
}
1040
0.0
1002
{
1002
}
1040
0.0
1002
}
1002
{
1040
0.5
1040
1.0
1000

1040
0.0
1002
{
1002
}
1040
0.0
1002
{
1002
}
1040
0.0
1002
}
1002
{
1070
     0
1040
0.0
1002
{
1002
}
1040
1.0
1002
{
1002
}
1040
0.0
1002
}
1002
{
1040
0.0
1002
{
1002
{
1010
0.0
1020
0.0
1030
0.0
1002
}
1040
1.0
1000

1040
0.0
1002
{
1002
}
1040
0.0
1002
{
1002
}
1040
0.0
1002
}
1002
}
1002
{
1002
{
1070
     1
1002
{
1040
0.0
1040
1.0
1000

1040
0.0
1002
{
1002
}
1040
0.0
1002
{
1002
}
1040
0.0
1002
}
1002
}
1040
0.0
1002
{
1002
}
1010
1.0
1020
0.0
1030
0.0
1010
0.0
1020
1.0
1030
0.0
1010
0.0
1020
0.0
1030
1.0
1070
     0
1002
}
1002
{
1002
{
1040
1.0
1040
1.0
1002
{
1070
     1
1002
{
1040
1.0
1040
1.0
1000

1040
0.0
1002
{
1002
}
1040
0.0
1002
{
1002
}
1040
0.0
1002
}
1002
}
1002
}
1070
     0
1040
0.0
1002
{
1002
}
1002
}
1002
{
1002
}
1002
}
1002
{
1071
        3
1070
     3
1070
     0
1002
{
1070
     2
1070
     0
1070
     0
1040
0.0
1002
}
1070
     0
1070
     2
1002
{
1002
}
1002
}
1002
{
1040
8030.0
1040
190.3000030517578
1040
0.3050000071525574
1040
228.0
1040
545.0
1040
14.0
1040
17.39999961853027
1040
0.4560000002384186
1002
}
1002
}
  0
MESH
  5
F9
330
1F
100
AcDbEntity
  8
OracDecor_cornice_mouldings
 62
    53
420
 13033815
160
             50840
310
98C60000840500000C00000013000000020000003C000000060000000200000000000060FF3F8F40000000E000E060C0000000000000E03E00000060FF3F8F40000000E000E060C0000000007C3214C00C000000130000000A0000003C000000060000000200000000000060FF3F8F40000000E000E060C0000000000000E0
310
3E0000000000408FC0000000E000E060C0000000000000E03E0C00000013000000120000003C00000006000000020000000000000000408FC0000000E000E060C0000000007C3214C00000000000408FC0000000E000E060C0000000000000E03E0C000000130000001A0000003C000000060000000200000000000060FF3F
310
8F40000000E000E060C0000000007C3214C00000000000408FC0000000E000E060C0000000007C3214C00C00000013000000220000003C000000060000000200000000000060FF3F8F40000000E000E060C0000000000000E03E00000060FF3F8F4000000080FEFD5DC0000000000000E03E0C000000130000002A0000003C
310
000000060000000200000000000060FF3F8F4000000080FEFD5DC0000000000000E03E0000000000408FC0000000A0FEFD5DC0000000000000E03E0C00000013000000320000003C00000006000000020000000000000000408FC0000000E000E060C0000000000000E03E0000000000408FC0000000A0FEFD5DC000000000
310
0000E03E0C000000130000003A0000003C000000060000000200000000000060FF3F8F400000004083E15DC0000000005075E8BF00000060FF3F8F4000000080FEFD5DC0000000000000E03E0C00000013000000420000003C00000006000000020000000000000000408FC00000004083E15DC0000000005075E8BF000000
310
60FF3F8F400000004083E15DC0000000005075E8BF0C000000130000004A0000003C00000006000000020000000000000000408FC00000004083E15DC0000000005075E8BF0000000000408FC0000000A0FEFD5DC0000000000000E03E0C00000013000000520000003C000000060000000200000000000060FF3F8F400000
310
00801EB95DC000000000F8FEF2BF00000060FF3F8F400000004083E15DC0000000005075E8BF0C000000130000005A0000003C00000006000000020000000000000000408FC0000000A01EB95DC000000000F8FEF2BF00000060FF3F8F40000000801EB95DC000000000F8FEF2BF0C00000013000000620000003C00000006
310
000000020000000000000000408FC00000004083E15DC0000000005075E8BF0000000000408FC0000000A01EB95DC000000000F8FEF2BF0C000000130000006A0000003C000000060000000200000000000060FF3F8F40000000C046895DC000000000E8F7F4BF00000060FF3F8F40000000801EB95DC000000000F8FEF2BF
310
0C00000013000000720000003C00000006000000020000000000000000408FC0000000C046895DC000000000E8F7F4BF00000060FF3F8F40000000C046895DC000000000E8F7F4BF0C000000130000007A0000003C00000006000000020000000000000000408FC0000000A01EB95DC000000000F8FEF2BF0000000000408F
310
C0000000C046895DC000000000E8F7F4BF0C00000013000000820000003C000000060000000200000000000060FF3F8F4000000040765A5DC00000000048CCF1BF00000060FF3F8F40000000C046895DC000000000E8F7F4BF0C000000130000008A0000003C00000006000000020000000000000000408FC000000060765A
310
5DC00000000048CCF1BF00000060FF3F8F4000000040765A5DC00000000048CCF1BF0C00000013000000920000003C00000006000000020000000000000000408FC0000000C046895DC000000000E8F7F4BF0000000000408FC000000060765A5DC00000000048CCF1BF0C000000130000009A0000003C0000000600000002
310
00000000000060FF3F8F4000000040765A5DC00000000048CCF1BF00000060FF3F8F40000000400DD15CC0000000000000E03E0C00000013000000A20000003C00000006000000020000000000000000408FC0000000600DD15CC0000000000000E03E00000060FF3F8F40000000400DD15CC0000000000000E03E0C000000
310
13000000AA0000003C00000006000000020000000000000000408FC000000060765A5DC00000000048CCF1BF0000000000408FC0000000600DD15CC0000000000000E03E0C00000013000000B20000003C000000060000000200000000000060FF3F8F40000000400DD15CC0000000000000E03E00000060FF3F8F40000000
310
C0234B59C0000000000000E03E0C00000013000000BA0000003C000000060000000200000000000060FF3F8F40000000C0234B59C0000000000000E03E0000000000408FC0000000C0234B59C0000000000000E03E0C00000013000000C20000003C00000006000000020000000000000000408FC0000000600DD15CC00000
310
00000000E03E0000000000408FC0000000C0234B59C0000000000000E03E0C00000013000000CA0000003C000000060000000200000000000060FF3F8F4000000040C5C158C00000000020C31EC000000060FF3F8F40000000C0234B59C0000000000000E03E0C00000013000000D20000003C000000060000000200000000
310
00000000408FC000000040C5C158C00000000020C31EC000000060FF3F8F4000000040C5C158C00000000020C31EC00C00000013000000DA0000003C00000006000000020000000000000000408FC000000040C5C158C00000000020C31EC00000000000408FC0000000C0234B59C0000000000000E03E0C00000013000000
310
E20000003C000000060000000200000000000060FF3F8F4000000040C5C158C00000000020C31EC000000060FF3F8F40000000C0019358C000000000CFBD22C00C00000013000000EA0000003C000000060000000200000000000060FF3F8F40000000C0019358C000000000CFBD22C00000000000408FC0000000C0019358
310
C000000000CFBD22C00C00000013000000F20000003C00000006000000020000000000000000408FC000000040C5C158C00000000020C31EC00000000000408FC0000000C0019358C000000000CFBD22C00C00000013000000FA0000003C000000060000000200000000000060FF3F8F4000000000814658C0000000008E81
310
25C000000060FF3F8F40000000C0019358C000000000CFBD22C00C00000013000000020100003C000000060000000200000000000060FF3F8F4000000000814658C0000000008E8125C00000000000408FC000000000814658C0000000008E8125C00C000000130000000A0100003C00000006000000020000000000000000
310
408FC0000000C0019358C000000000CFBD22C00000000000408FC000000000814658C0000000008E8125C00C00000013000000120100003C000000060000000200000000000060FF3F8F400000004048E357C000000000CD6B27C000000060FF3F8F4000000000814658C0000000008E8125C00C000000130000001A010000
310
3C000000060000000200000000000060FF3F8F400000004048E357C000000000CD6B27C00000000000408FC00000004048E357C000000000CE6B27C00C00000013000000220100003C00000006000000020000000000000000408FC000000000814658C0000000008E8125C00000000000408FC00000004048E357C0000000
310
00CE6B27C00C000000130000002A0100003C000000060000000200000000000060FF3F8F4000000040747257C000000000914F28C000000060FF3F8F400000004048E357C000000000CD6B27C00C00000013000000320100003C000000060000000200000000000060FF3F8F4000000040747257C000000000914F28C00000
310
000000408FC000000040747257C000000000904F28C00C000000130000003A0100003C00000006000000020000000000000000408FC000000040747257C000000000904F28C00000000000408FC00000004048E357C000000000CE6B27C00C00000013000000420100003C000000060000000200000000000060FF3F8F4000
310
000000F05755C00000000001932BC000000060FF3F8F4000000040747257C000000000914F28C00C000000130000004A0100003C000000060000000200000000000060FF3F8F4000000000F05755C00000000001932BC00000000000408FC000000000F05755C00000000000932BC00C00000013000000520100003C000000
310
06000000020000000000000000408FC000000040747257C000000000904F28C00000000000408FC000000000F05755C00000000000932BC00C000000130000005A0100003C000000060000000200000000000060FF3F8F4000000080645B53C0000000804B0631C000000060FF3F8F4000000000F05755C00000000001932B
310
C00C00000013000000620100003C000000060000000200000000000060FF3F8F4000000080645B53C0000000804B0631C00000000000408FC000000080645B53C0000000004C0631C00C000000130000006A0100003C00000006000000020000000000000000408FC000000000F05755C00000000000932BC0000000000040
310
8FC000000080645B53C0000000004C0631C00C00000013000000720100003C000000060000000200000000000060FF3F8F4000000080E08F51C0000000801EBF35C000000060FF3F8F4000000080645B53C0000000804B0631C00C000000130000007A0100003C000000060000000200000000000060FF3F8F4000000080E0
310
8F51C0000000801EBF35C00000000000408FC000000080E08F51C0000000001FBF35C00C00000013000000820100003C00000006000000020000000000000000408FC000000080645B53C0000000004C0631C00000000000408FC000000080E08F51C0000000001FBF35C00C000000130000008A0100003C00000006000000
310
0200000000000060FF3F8F4000000040990650C000000080ACC63BC000000060FF3F8F4000000080E08F51C0000000801EBF35C00C00000013000000920100003C000000060000000200000000000060FF3F8F4000000040990650C000000080ACC63BC00000000000408FC000000040990650C000000000ADC63BC00C0000
310
00130000009A0100003C00000006000000020000000000000000408FC000000080E08F51C0000000001FBF35C00000000000408FC000000040990650C000000000ADC63BC00C00000013000000A20100003C000000060000000200000000000060FF3F8F40000000007E9C4DC0000000C0A77141C000000060FF3F8F400000
310
0040990650C000000080ACC63BC00C00000013000000AA0100003C000000060000000200000000000060FF3F8F40000000007E9C4DC0000000C0A77141C00000000000408FC0000000007E9C4DC000000080A77141C00C00000013000000B20100003C00000006000000020000000000000000408FC000000040990650C000
310
000000ADC63BC00000000000408FC0000000007E9C4DC000000080A77141C00C00000013000000BA0100003C000000060000000200000000000060FF3F8F40000000400CE54BC0000000C06C6845C000000060FF3F8F40000000007E9C4DC0000000C0A77141C00C00000013000000C20100003C0000000600000002000000
310
00000060FF3F8F40000000400CE54BC0000000C06C6845C00000000000408FC0000000400CE54BC0000000006D6845C00C00000013000000CA0100003C00000006000000020000000000000000408FC0000000007E9C4DC000000080A77141C00000000000408FC0000000400CE54BC0000000006D6845C00C000000130000
310
00D20100003C000000060000000200000000000060FF3F8F400000000053F74AC0000000C09DA149C000000060FF3F8F40000000400CE54BC0000000C06C6845C00C00000013000000DA0100003C000000060000000200000000000060FF3F8F400000000053F74AC0000000C09DA149C00000000000408FC00000000053F7
310
4AC0000000009EA149C00C00000013000000E20100003C00000006000000020000000000000000408FC0000000400CE54BC0000000006D6845C00000000000408FC00000000053F74AC0000000009EA149C00C00000013000000EA0100003C000000060000000200000000000060FF3F8F400000000053F74AC0000000C09D
310
A149C000000060FF3F8F400000004004AA4AC00000006009E14AC00C00000013000000F20100003C00000006000000020000000000000000408FC00000004004AA4AC00000006009E14AC000000060FF3F8F400000004004AA4AC00000006009E14AC00C00000013000000FA0100003C000000060000000200000000000000
310
00408FC00000000053F74AC0000000009EA149C00000000000408FC00000004004AA4AC00000006009E14AC00C00000013000000020200003C000000060000000200000000000060FF3F8F40000000C09FE349C0000000E0A4654CC000000060FF3F8F400000004004AA4AC00000006009E14AC00C000000130000000A0200
310
003C00000006000000020000000000000000408FC0000000C09FE349C0000000E0A4654CC000000060FF3F8F40000000C09FE349C0000000E0A4654CC00C00000013000000120200003C00000006000000020000000000000000408FC00000004004AA4AC00000006009E14AC00000000000408FC0000000C09FE349C00000
310
00E0A4654CC00C000000130000001A0200003C000000060000000200000000000060FF3F8F400000000085B948C000000000AEA24DC000000060FF3F8F40000000C09FE349C0000000E0A4654CC00C00000013000000220200003C00000006000000020000000000000000408FC00000000085B948C000000000AEA24DC000
310
000060FF3F8F400000000085B948C000000000AEA24DC00C000000130000002A0200003C00000006000000020000000000000000408FC0000000C09FE349C0000000E0A4654CC00000000000408FC00000000085B948C000000000AEA24DC00C00000013000000320200003C000000060000000200000000000060FF3F8F40
310
0000000085B948C000000000AEA24DC000000060FF3F8F4000000040494C47C000000060DFDE4EC00C000000130000003A0200003C000000060000000200000000000060FF3F8F4000000040494C47C000000060DFDE4EC00000000000408FC000000040494C47C000000060DFDE4EC00C00000013000000420200003C0000
310
0006000000020000000000000000408FC00000000085B948C000000000AEA24DC00000000000408FC000000040494C47C000000060DFDE4EC00C000000130000004A0200003C000000060000000200000000000060FF3F8F4000000040AF7746C0000000C0D00950C000000060FF3F8F4000000040494C47C000000060DFDE
310
4EC00C00000013000000520200003C000000060000000200000000000060FF3F8F4000000040AF7746C0000000C0D00950C00000000000408FC000000040AF7746C0000000C0D00950C00C000000130000005A0200003C00000006000000020000000000000000408FC000000040494C47C000000060DFDE4EC00000000000
310
408FC000000040AF7746C0000000C0D00950C00C00000013000000620200003C000000060000000200000000000060FF3F8F4000000000E9F245C0000000C07DB950C000000060FF3F8F4000000040AF7746C0000000C0D00950C00C000000130000006A0200003C000000060000000200000000000060FF3F8F4000000000
310
E9F245C0000000C07DB950C00000000000408FC000000000E9F245C0000000C07DB950C00C00000013000000720200003C00000006000000020000000000000000408FC000000040AF7746C0000000C0D00950C00000000000408FC000000000E9F245C0000000C07DB950C00C000000130000007A0200003C000000060000
310
000200000000000060FF3F8F4000000080C4C545C000000040237451C000000060FF3F8F4000000000E9F245C0000000C07DB950C00C00000013000000820200003C000000060000000200000000000060FF3F8F4000000080C4C545C000000040237451C00000000000408FC000000080C4C545C000000040237451C00C00
310
0000130000008A0200003C00000006000000020000000000000000408FC000000000E9F245C0000000C07DB950C00000000000408FC000000080C4C545C000000040237451C00C00000013000000920200003C000000060000000200000000000060FF3F8F4000000080C4C545C000000040237451C000000060FF3F8F4000
310
00004050B145C0000000409F5A52C00C000000130000009A0200003C000000060000000200000000000060FF3F8F400000004050B145C0000000409F5A52C00000000000408FC00000004050B145C0000000409F5A52C00C00000013000000A20200003C00000006000000020000000000000000408FC000000080C4C545C0
310
00000040237451C00000000000408FC00000004050B145C0000000409F5A52C00C00000013000000AA0200003C000000060000000200000000000060FF3F8F400000004050B145C0000000409F5A52C000000060FF3F8F40000000003B2645C000000000BF0E53C00C00000013000000B20200003C00000006000000020000
310
000000000000408FC0000000003B2645C000000000BF0E53C000000060FF3F8F40000000003B2645C000000000BF0E53C00C00000013000000BA0200003C00000006000000020000000000000000408FC00000004050B145C0000000409F5A52C00000000000408FC0000000003B2645C000000000BF0E53C00C0000001300
310
0000C20200003C000000060000000200000000000060FF3F8F40000000C0F6F943C0000000E0B38653C000000060FF3F8F40000000003B2645C000000000BF0E53C00C00000013000000CA0200003C00000006000000020000000000000000408FC0000000C0F6F943C0000000E0B38653C000000060FF3F8F40000000C0F6
310
F943C0000000E0B38653C00C00000013000000D20200003C00000006000000020000000000000000408FC0000000003B2645C000000000BF0E53C00000000000408FC0000000C0F6F943C0000000E0B38653C00C00000013000000DA0200003C000000060000000200000000000060FF3F8F40000000C0F6F943C0000000E0
310
B38653C000000060FF3F8F40000000809C8C40C000000000094454C00C00000013000000E20200003C000000060000000200000000000060FF3F8F40000000809C8C40C000000000094454C00000000000408FC0000000809C8C40C000000000094454C00C00000013000000EA0200003C0000000600000002000000000000
310
0000408FC0000000C0F6F943C0000000E0B38653C00000000000408FC0000000809C8C40C000000000094454C00C00000013000000F20200003C000000060000000200000000000060FF3F8F400000008048BF3BC0000000E0732C55C000000060FF3F8F40000000809C8C40C000000000094454C00C00000013000000FA02
310
00003C000000060000000200000000000060FF3F8F400000008048BF3BC0000000E0732C55C00000000000408FC00000008048BF3BC0000000E0732C55C00C00000013000000020300003C00000006000000020000000000000000408FC0000000809C8C40C000000000094454C00000000000408FC00000008048BF3BC000
310
0000E0732C55C00C000000130000000A0300003C000000060000000200000000000060FF3F8F4000000040EC3237C0000000C0CA5356C000000060FF3F8F400000008048BF3BC0000000E0732C55C00C00000013000000120300003C000000060000000200000000000060FF3F8F4000000040EC3237C0000000C0CA5356C0
310
0000000000408FC000000040EC3237C0000000C0CA5356C00C000000130000001A0300003C00000006000000020000000000000000408FC00000008048BF3BC0000000E0732C55C00000000000408FC000000040EC3237C0000000C0CA5356C00C00000013000000220300003C000000060000000200000000000060FF3F8F
310
4000000040EC3237C0000000C0CA5356C000000060FF3F8F400000000000001DBF00000020F77E5DC00C000000130000002A0300003C000000060000000200000000000060FF3F8F400000000000001DBF00000020F77E5DC00000000000408FC00000000000001DBF00000020F77E5DC00C00000013000000320300003C00
310
000006000000020000000000000000408FC000000040EC3237C0000000C0CA5356C00000000000408FC00000000000001DBF00000020F77E5DC00C000000130000003A0300003C000000060000000200000000000060FF3F8F400000000000001DBF00000020F77E5DC000000060FF3F8F400000000000001EBF000000805F
310
0460C00C00000013000000420300003C000000060000000200000000000060FF3F8F400000000000001EBF000000805F0460C00000000000408FC00000000000001EBF000000805F0460C00C000000130000004A0300003C00000006000000020000000000000000408FC00000000000001DBF00000020F77E5DC000000000
310
00408FC00000000000001EBF000000805F0460C00C00000013000000520300003C000000060000000200000000000060FF3F8F400000000050BFECBF00000040561960C000000060FF3F8F400000000000001EBF000000805F0460C00C000000130000005A0300003C00000006000000020000000000000000408FC0000000
310
0050BFECBF00000040561960C000000060FF3F8F400000000050BFECBF00000040561960C00C00000013000000620300003C00000006000000020000000000000000408FC00000000050BFECBF00000040561960C00000000000408FC00000000000001EBF000000805F0460C00C000000130000006A0300003C0000000600
310
00000200000000000060FF3F8F40000000008C82F3BF00000020BE2C60C000000060FF3F8F400000000050BFECBF00000040561960C00C00000013000000720300003C00000006000000020000000000000000408FC0000000008C82F3BF00000020BE2C60C000000060FF3F8F40000000008C82F3BF00000020BE2C60C00C
310
000000130000007A0300003C00000006000000020000000000000000408FC00000000050BFECBF00000040561960C00000000000408FC0000000008C82F3BF00000020BE2C60C00C00000013000000820300003C000000060000000200000000000060FF3F8F4000000000A8B5F4BF000000C09C4260C000000060FF3F8F40
310
000000008C82F3BF00000020BE2C60C00C000000130000008A0300003C00000006000000020000000000000000408FC000000000A8B5F4BF000000C09C4260C000000060FF3F8F4000000000A8B5F4BF000000C09C4260C00C00000013000000920300003C00000006000000020000000000000000408FC0000000008C82F3
310
BF00000020BE2C60C00000000000408FC000000000A8B5F4BF000000C09C4260C00C000000130000009A0300003C000000060000000200000000000060FF3F8F400000000030CDF1BF00000040D15760C000000060FF3F8F4000000000A8B5F4BF000000C09C4260C00C00000013000000A20300003C000000060000000200
310
00000000000000408FC00000000030CDF1BF00000040D15760C000000060FF3F8F400000000030CDF1BF00000040D15760C00C00000013000000AA0300003C00000006000000020000000000000000408FC000000000A8B5F4BF000000C09C4260C00000000000408FC00000000030CDF1BF00000040D15760C00C00000013
310
000000B20300003C000000060000000200000000000060FF3F8F40000000000067E6BF00000000536960C000000060FF3F8F400000000030CDF1BF00000040D15760C00C00000013000000BA0300003C00000006000000020000000000000000408FC0000000000067E6BF00000000536960C000000060FF3F8F4000000000
310
0067E6BF00000000536960C00C00000013000000C20300003C00000006000000020000000000000000408FC00000000030CDF1BF00000040D15760C00000000000408FC0000000000067E6BF00000000536960C00C00000013000000CA0300003C000000060000000200000000000060FF3F8F40000000000067E6BF000000
310
00536960C000000060FF3F8F400000000000001EBF000000E0FC7560C00C00000013000000D20300003C00000006000000020000000000000000408FC00000000000001EBF000000E0FC7560C000000060FF3F8F400000000000001EBF000000E0FC7560C00C00000013000000DA0300003C00000006000000020000000000
310
000000408FC0000000000067E6BF00000000536960C00000000000408FC00000000000001EBF000000E0FC7560C00C00000013000000E20300003C000000060000000200000000000060FF3F8F400000000000001EBF000000E0FC7560C000000060FF3F8F400000000000001EBF00000040289C61C00C00000013000000EA
310
0300003C000000060000000200000000000060FF3F8F400000000000001EBF00000040289C61C00000000000408FC00000000000001EBF00000040289C61C00C00000013000000F20300003C00000006000000020000000000000000408FC00000000000001EBF000000E0FC7560C00000000000408FC00000000000001EBF
310
00000040289C61C00C00000013000000FA0300003C000000060000000200000000000060FF3F8F40000000004C5906C0000000C089CE61C000000060FF3F8F400000000000001EBF00000040289C61C00C00000013000000020400003C000000060000000200000000000060FF3F8F40000000004C5906C0000000C089CE61
310
C00000000000408FC0000000004C5906C0000000C089CE61C00C000000130000000A0400003C00000006000000020000000000000000408FC0000000004C5906C0000000C089CE61C00000000000408FC00000000000001EBF00000040289C61C00C00000013000000120400003C000000060000000200000000000060FF3F
310
8F40000000004C5906C0000000C089CE61C000000060FF3F8F40000000007A4310C0000000E041ED61C00C000000130000001A0400003C000000060000000200000000000060FF3F8F40000000007A4310C0000000E041ED61C00000000000408FC0000000007A4310C0000000E041ED61C00C00000013000000220400003C
310
00000006000000020000000000000000408FC0000000004C5906C0000000C089CE61C00000000000408FC0000000007A4310C0000000E041ED61C00C000000130000002A0400003C000000060000000200000000000060FF3F8F40000000002E2D14C0000000E0AE1562C000000060FF3F8F40000000007A4310C0000000E0
310
41ED61C00C00000013000000320400003C000000060000000200000000000060FF3F8F40000000002E2D14C0000000E0AE1562C00000000000408FC0000000002E2D14C0000000E0AE1562C00C000000130000003A0400003C00000006000000020000000000000000408FC0000000007A4310C0000000E041ED61C0000000
310
0000408FC0000000002E2D14C0000000E0AE1562C00C00000013000000420400003C000000060000000200000000000060FF3F8F4000000000BFA316C000000060FC4462C000000060FF3F8F40000000002E2D14C0000000E0AE1562C00C000000130000004A0400003C000000060000000200000000000060FF3F8F400000
310
0000BFA316C000000060FC4462C00000000000408FC000000000BFA316C000000060FC4462C00C00000013000000520400003C00000006000000020000000000000000408FC0000000002E2D14C0000000E0AE1562C00000000000408FC000000000BFA316C000000060FC4462C00C000000130000005A0400003C00000006
310
0000000200000000000060FF3F8F4000000000FF7A17C0000000A0DB7762C000000060FF3F8F4000000000BFA316C000000060FC4462C00C00000013000000620400003C000000060000000200000000000060FF3F8F4000000000FF7A17C0000000A0DB7762C00000000000408FC000000000FF7A17C0000000A0DB7762C0
310
0C000000130000006A0400003C00000006000000020000000000000000408FC000000000FF7A17C0000000A0DB7762C00000000000408FC000000000BFA316C000000060FC4462C00C00000013000000720400003C000000060000000200000000000060FF3F8F4000000000FF7A17C0000000A0DB7762C000000060FF3F8F
310
40000000004CF417C000000020032E69C00C000000130000007A0400003C000000060000000200000000000060FF3F8F40000000004CF417C000000020032E69C00000000000408FC0000000004CF417C000000020032E69C00C00000013000000820400003C00000006000000020000000000000000408FC000000000FF7A
310
17C0000000A0DB7762C00000000000408FC0000000004CF417C000000020032E69C00C000000130000008A0400003C000000060000000200000000000060FF3F8F40000000004CF417C000000020032E69C000000060FF3F8F4000000000AA2D19C0000000003EA869C00C00000013000000920400003C0000000600000002
310
0000000000000000408FC000000000AA2D19C0000000003EA869C000000060FF3F8F4000000000AA2D19C0000000003EA869C00C000000130000009A0400003C00000006000000020000000000000000408FC0000000004CF417C000000020032E69C00000000000408FC000000000AA2D19C0000000003EA869C00C000000
310
13000000A20400003C000000060000000200000000000060FF3F8F4000000000355D17C0000000E09F106AC000000060FF3F8F4000000000AA2D19C0000000003EA869C00C00000013000000AA0400003C00000006000000020000000000000000408FC000000000355D17C0000000E09F106AC000000060FF3F8F40000000
310
00355D17C0000000E09F106AC00C00000013000000B20400003C00000006000000020000000000000000408FC000000000AA2D19C0000000003EA869C00000000000408FC000000000355D17C0000000E09F106AC00C00000013000000BA0400003C000000060000000200000000000060FF3F8F400000000065E012C00000
310
00A099736AC000000060FF3F8F4000000000355D17C0000000E09F106AC00C00000013000000C20400003C00000006000000020000000000000000408FC00000000065E012C0000000A099736AC000000060FF3F8F400000000065E012C0000000A099736AC00C00000013000000CA0400003C000000060000000200000000
310
00000000408FC000000000355D17C0000000E09F106AC00000000000408FC00000000065E012C0000000A099736AC00C00000013000000D20400003C000000060000000200000000000060FF3F8F4000000000A8D407C000000020C2CC6AC000000060FF3F8F400000000065E012C0000000A099736AC00C00000013000000
310
DA0400003C00000006000000020000000000000000408FC000000000A8D407C000000020C2CC6AC000000060FF3F8F4000000000A8D407C000000020C2CC6AC00C00000013000000E20400003C00000006000000020000000000000000408FC00000000065E012C0000000A099736AC00000000000408FC000000000A8D407
310
C000000020C2CC6AC00C00000013000000EA0400003C000000060000000200000000000060FF3F8F4000000000A8D407C000000020C2CC6AC000000060FF3F8F4000000000CE6704C0000000C0E6D86AC00C00000013000000F20400003C00000006000000020000000000000000408FC000000000CE6704C0000000C0E6D8
310
6AC000000060FF3F8F4000000000CE6704C0000000C0E6D86AC00C00000013000000FA0400003C00000006000000020000000000000000408FC000000000A8D407C000000020C2CC6AC00000000000408FC000000000CE6704C0000000C0E6D86AC00C00000013000000020500003C000000060000000200000000000060FF
310
3F8F40000000007E2200C00000004053DF6AC000000060FF3F8F4000000000CE6704C0000000C0E6D86AC00C000000130000000A0500003C00000006000000020000000000000000408FC0000000007E2200C00000004053DF6AC000000060FF3F8F40000000007E2200C00000004053DF6AC00C0000001300000012050000
310
3C00000006000000020000000000000000408FC000000000CE6704C0000000C0E6D86AC00000000000408FC0000000007E2200C00000004053DF6AC00C000000130000001A0500003C000000060000000200000000000060FF3F8F40000000007E2200C00000004053DF6AC000000060FF3F8F400000000000001EBF000000
310
E0C0F06AC00C00000013000000220500003C000000060000000200000000000060FF3F8F400000000000001EBF000000E0C0F06AC00000000000408FC00000000000001EBF000000E0C0F06AC00C000000130000002A0500003C00000006000000020000000000000000408FC0000000007E2200C00000004053DF6AC00000
310
000000408FC00000000000001EBF000000E0C0F06AC00C00000013000000320500003C000000060000000200000000000060FF3F8F400000000000001FBF0000006014406DC000000060FF3F8F400000000000001EBF000000E0C0F06AC00C000000130000003A0500003C000000060000000200000000000060FF3F8F4000
310
00000000001FBF0000006014406DC00000000000408FC00000000000001FBF0000006014406DC00C00000013000000420500003C00000006000000020000000000000000408FC00000000000001FBF0000006014406DC00000000000408FC00000000000001EBF000000E0C0F06AC00C000000130000004A0500003C000000
310
060000000200000000000060FF3F8F400000000058BFECBF000000000B556DC000000060FF3F8F400000000000001FBF0000006014406DC00C00000013000000520500003C00000006000000020000000000000000408FC00000000058BFECBF000000000B556DC000000060FF3F8F400000000058BFECBF000000000B556D
310
C00C000000130000005A0500003C00000006000000020000000000000000408FC00000000058BFECBF000000000B556DC00000000000408FC00000000000001FBF0000006014406DC00C00000013000000620500003C000000060000000200000000000060FF3F8F40000000009082F3BF0000000073686DC000000060FF3F
310
8F400000000058BFECBF000000000B556DC00C000000130000006A0500003C00000006000000020000000000000000408FC0000000009082F3BF0000000073686DC000000060FF3F8F40000000009082F3BF0000000073686DC00C00000013000000720500003C00000006000000020000000000000000408FC00000000058
310
BFECBF000000000B556DC00000000000408FC0000000009082F3BF0000000073686DC00C000000130000007A0500003C000000060000000200000000000060FF3F8F4000000000B0B5F4BF000000A0517E6DC000000060FF3F8F40000000009082F3BF0000000073686DC00C00000013000000820500003C00000006000000
310
020000000000000000408FC000000000B0B5F4BF000000A0517E6DC000000060FF3F8F4000000000B0B5F4BF000000A0517E6DC00C000000130000008A0500003C00000006000000020000000000000000408FC0000000009082F3BF0000000073686DC00000000000408FC000000000B0B5F4BF000000A0517E6DC00C0000
310
0013000000920500003C000000060000000200000000000060FF3F8F400000000034CDF1BF0000002086936DC000000060FF3F8F4000000000B0B5F4BF000000A0517E6DC00C000000130000009A0500003C00000006000000020000000000000000408FC00000000034CDF1BF0000002086936DC000000060FF3F8F400000
310
000034CDF1BF0000002086936DC00C00000013000000A20500003C00000006000000020000000000000000408FC000000000B0B5F4BF000000A0517E6DC00000000000408FC00000000034CDF1BF0000002086936DC00C00000013000000AA0500003C000000060000000200000000000060FF3F8F40000000001067E6BF00
310
0000E007A56DC000000060FF3F8F400000000034CDF1BF0000002086936DC00C00000013000000B20500003C00000006000000020000000000000000408FC0000000001067E6BF000000E007A56DC000000060FF3F8F40000000001067E6BF000000E007A56DC00C00000013000000BA0500003C0000000600000002000000
310
0000000000408FC00000000034CDF1BF0000002086936DC00000000000408FC0000000001067E6BF000000E007A56DC00C00000013000000C20500003C000000060000000200000000000060FF3F8F40000000001067E6BF000000E007A56DC000000060FF3F8F400000000000001FBF000000C0B1B16DC00C000000130000
310
00CA0500003C00000006000000020000000000000000408FC00000000000001FBF000000C0B1B16DC000000060FF3F8F400000000000001FBF000000C0B1B16DC00C00000013000000D20500003C00000006000000020000000000000000408FC0000000001067E6BF000000E007A56DC00000000000408FC0000000000000
310
1FBF000000C0B1B16DC00C00000013000000DA0500003C000000060000000200000000000060FF3F8F400000000000001FBF000000C0B1B16DC000000060FF3F8F400000000000001FBF00000000FCFF6FC00C00000013000000E20500003C00000006000000020000000000000000408FC00000000000001FBF00000020FC
310
FF6FC000000060FF3F8F400000000000001FBF00000000FCFF6FC00C00000013000000EA0500003C00000006000000020000000000000000408FC00000000000001FBF000000C0B1B16DC00000000000408FC00000000000001FBF00000020FCFF6FC00C00000013000000F20500003C000000060000000200000000000060
310
FF3F8F40000000001F0018C000000000FCFF6FC000000060FF3F8F400000000000001FBF00000000FCFF6FC00C00000013000000FA0500003C000000060000000200000000000060FF3F8F40000000001F0018C000000000FCFF6FC00000000000408FC000000000200018C000000020FCFF6FC00C00000013000000020600
310
003C00000006000000020000000000000000408FC000000000200018C000000020FCFF6FC00000000000408FC00000000000001FBF00000020FCFF6FC00C000000130000000A0600003C000000060000000200000000000060FF3F8F40000000001F0018C000000040EB2C6FC000000060FF3F8F40000000001F0018C00000
310
0000FCFF6FC00C00000013000000120600003C000000060000000200000000000060FF3F8F40000000001F0018C000000040EB2C6FC00000000000408FC0000000001F0018C000000060EB2C6FC00C000000130000001A0600003C00000006000000020000000000000000408FC000000000200018C000000020FCFF6FC000
310
00000000408FC0000000001F0018C000000060EB2C6FC00C00000013000000220600003C000000060000000200000000000060FF3F8F40000000001F0018C000000040EB2C6FC000000060FF3F8F4000000000C43B18C0000000005A256FC00C000000130000002A0600003C00000006000000020000000000000000408FC0
310
00000000C43B18C0000000005A256FC000000060FF3F8F4000000000C43B18C0000000005A256FC00C00000013000000320600003C00000006000000020000000000000000408FC0000000001F0018C000000060EB2C6FC00000000000408FC000000000C43B18C0000000005A256FC00C000000130000003A0600003C0000
310
00060000000200000000000060FF3F8F4000000000ACE018C0000000808C1F6FC000000060FF3F8F4000000000C43B18C0000000005A256FC00C00000013000000420600003C00000006000000020000000000000000408FC000000000ACE018C0000000808C1F6FC000000060FF3F8F4000000000ACE018C0000000808C1F
310
6FC00C000000130000004A0600003C00000006000000020000000000000000408FC000000000C43B18C0000000005A256FC00000000000408FC000000000ACE018C0000000808C1F6FC00C00000013000000520600003C000000060000000200000000000060FF3F8F400000000098C819C000000040DB1C6FC000000060FF
310
3F8F4000000000ACE018C0000000808C1F6FC00C000000130000005A0600003C000000060000000200000000000060FF3F8F400000000098C819C000000040DB1C6FC00000000000408FC00000000098C819C000000060DB1C6FC00C00000013000000620600003C00000006000000020000000000000000408FC000000000
310
98C819C000000060DB1C6FC00000000000408FC000000000ACE018C0000000808C1F6FC00C000000130000006A0600003C000000060000000200000000000060FF3F8F4000000000F9281BC0000000803F1B6FC000000060FF3F8F400000000098C819C000000040DB1C6FC00C00000013000000720600003C000000060000
310
000200000000000060FF3F8F4000000000F9281BC0000000803F1B6FC00000000000408FC000000000F9281BC0000000803F1B6FC00C000000130000007A0600003C00000006000000020000000000000000408FC00000000098C819C000000060DB1C6FC00000000000408FC000000000F9281BC0000000803F1B6FC00C00
310
000013000000820600003C000000060000000200000000000060FF3F8F400000000004191FC000000000C3106FC000000060FF3F8F4000000000F9281BC0000000803F1B6FC00C000000130000008A0600003C000000060000000200000000000060FF3F8F400000000004191FC000000000C3106FC00000000000408FC000
310
00000004191FC000000020C3106FC00C00000013000000920600003C00000006000000020000000000000000408FC000000000F9281BC0000000803F1B6FC00000000000408FC00000000004191FC000000020C3106FC00C000000130000009A0600003C000000060000000200000000000060FF3F8F400000008081BB22C0
310
00000000CFEF6EC000000060FF3F8F400000000004191FC000000000C3106FC00C00000013000000A20600003C000000060000000200000000000060FF3F8F400000008081BB22C000000000CFEF6EC00000000000408FC00000008081BB22C000000020CFEF6EC00C00000013000000AA0600003C00000006000000020000
310
000000000000408FC00000000004191FC000000020C3106FC00000000000408FC00000008081BB22C000000020CFEF6EC00C00000013000000B20600003C000000060000000200000000000060FF3F8F4000000000D56B24C0000000007CCC6EC000000060FF3F8F400000008081BB22C000000000CFEF6EC00C0000001300
310
0000BA0600003C000000060000000200000000000060FF3F8F4000000000D56B24C0000000007CCC6EC00000000000408FC000000000D56B24C0000000207CCC6EC00C00000013000000C20600003C00000006000000020000000000000000408FC00000008081BB22C000000020CFEF6EC00000000000408FC000000000D5
310
6B24C0000000207CCC6EC00C00000013000000CA0600003C000000060000000200000000000060FF3F8F4000000080CA7025C000000040FFA26EC000000060FF3F8F4000000000D56B24C0000000007CCC6EC00C00000013000000D20600003C000000060000000200000000000060FF3F8F4000000080CA7025C000000040
310
FFA26EC00000000000408FC000000080CA7025C000000060FFA26EC00C00000013000000DA0600003C00000006000000020000000000000000408FC000000000D56B24C0000000207CCC6EC00000000000408FC000000080CA7025C000000060FFA26EC00C00000013000000E20600003C0000000600000002000000000000
310
60FF3F8F400000000012B625C00000008093766EC000000060FF3F8F4000000080CA7025C000000040FFA26EC00C00000013000000EA0600003C000000060000000200000000000060FF3F8F400000000012B625C00000008093766EC00000000000408FC00000000012B625C0000000A093766EC00C00000013000000F206
310
00003C00000006000000020000000000000000408FC000000080CA7025C000000060FFA26EC00000000000408FC00000000012B625C0000000A093766EC00C00000013000000FA0600003C000000060000000200000000000060FF3F8F40000000804D3625C0000000C0AC4A6EC000000060FF3F8F400000000012B625C000
310
00008093766EC00C00000013000000020700003C000000060000000200000000000060FF3F8F40000000804D3625C0000000C0AC4A6EC00000000000408FC0000000004D3625C0000000E0AC4A6EC00C000000130000000A0700003C00000006000000020000000000000000408FC00000000012B625C0000000A093766EC0
310
0000000000408FC0000000004D3625C0000000E0AC4A6EC00C00000013000000120700003C000000060000000200000000000060FF3F8F400000000067FB23C000000000B5226EC000000060FF3F8F40000000804D3625C0000000C0AC4A6EC00C000000130000001A0700003C000000060000000200000000000060FF3F8F
310
400000000067FB23C000000000B5226EC00000000000408FC00000000067FB23C000000000B5226EC00C00000013000000220700003C00000006000000020000000000000000408FC0000000004D3625C0000000E0AC4A6EC00000000000408FC00000000067FB23C000000000B5226EC00C000000130000002A0700003C00
310
0000060000000200000000000060FF3F8F4000000000E11D22C000000060C8016EC000000060FF3F8F400000000067FB23C000000000B5226EC00C00000013000000320700003C000000060000000200000000000060FF3F8F4000000000E11D22C000000060C8016EC00000000000408FC000000000E11D22C000000060C8
310
016EC00C000000130000003A0700003C00000006000000020000000000000000408FC00000000067FB23C000000000B5226EC00000000000408FC000000000E11D22C000000060C8016EC00C00000013000000420700003C000000060000000200000000000060FF3F8F4000000000D1851FC0000000A076EA6DC000000060
310
FF3F8F4000000000E11D22C000000060C8016EC00C000000130000004A0700003C000000060000000200000000000060FF3F8F4000000000D1851FC0000000A076EA6DC00000000000408FC000000000D1851FC0000000A076EA6DC00C00000013000000520700003C00000006000000020000000000000000408FC0000000
310
00E11D22C000000060C8016EC00000000000408FC000000000D1851FC0000000A076EA6DC00C000000130000005A0700003C000000060000000200000000000060FF3F8F40000000003E411CC0000000E020E16DC000000060FF3F8F4000000000D1851FC0000000A076EA6DC00C00000013000000620700003C0000000600
310
00000200000000000060FF3F8F40000000003E411CC0000000E020E16DC00000000000408FC0000000003E411CC0000000E020E16DC00C000000130000006A0700003C00000006000000020000000000000000408FC000000000D1851FC0000000A076EA6DC00000000000408FC0000000003E411CC0000000E020E16DC00C
310
00000013000000720700003C000000060000000200000000000060FF3F8F40000000003E411CC0000000E020E16DC000000060FF3F8F400000000062761BC0000000A0F9DD6DC00C000000130000007A0700003C00000006000000020000000000000000408FC00000000062761BC0000000A0F9DD6DC000000060FF3F8F40
310
0000000062761BC0000000A0F9DD6DC00C00000013000000820700003C00000006000000020000000000000000408FC0000000003E411CC0000000E020E16DC00000000000408FC00000000062761BC0000000A0F9DD6DC00C000000130000008A0700003C000000060000000200000000000060FF3F8F400000000062EA1A
310
C0000000E05FD86DC000000060FF3F8F400000000062761BC0000000A0F9DD6DC00C00000013000000920700003C00000006000000020000000000000000408FC00000000062EA1AC0000000E05FD86DC000000060FF3F8F400000000062EA1AC0000000E05FD86DC00C000000130000009A0700003C000000060000000200
310
00000000000000408FC00000000062761BC0000000A0F9DD6DC00000000000408FC00000000062EA1AC0000000E05FD86DC00C00000013000000A20700003C000000060000000200000000000060FF3F8F400000000071B81AC0000000206AD16DC000000060FF3F8F400000000062EA1AC0000000E05FD86DC00C00000013
310
000000AA0700003C000000060000000200000000000060FF3F8F400000000071B81AC0000000206AD16DC00000000000408FC00000000071B81AC0000000206AD16DC00C00000013000000B20700003C00000006000000020000000000000000408FC00000000071B81AC0000000206AD16DC00000000000408FC000000000
310
62EA1AC0000000E05FD86DC00C00000013000000BA0700003C000000060000000200000000000060FF3F8F400000000071B81AC000000080D6786DC000000060FF3F8F400000000071B81AC0000000206AD16DC00C00000013000000C20700003C000000060000000200000000000060FF3F8F400000000071B81AC0000000
310
80D6786DC00000000000408FC00000000071B81AC000000080D6786DC00C00000013000000CA0700003C00000006000000020000000000000000408FC00000000071B81AC000000080D6786DC00000000000408FC00000000071B81AC0000000206AD16DC00C00000013000000D20700003C00000006000000020000000000
310
0060FF3F8F400000000071B81AC000000080D6786DC000000060FF3F8F40000000001DC21CC00000008036FB6CC00C00000013000000DA0700003C00000006000000020000000000000000408FC0000000001DC21CC00000008036FB6CC000000060FF3F8F40000000001DC21CC00000008036FB6CC00C00000013000000E2
310
0700003C00000006000000020000000000000000408FC00000000071B81AC000000080D6786DC00000000000408FC0000000001DC21CC00000008036FB6CC00C00000013000000EA0700003C000000060000000200000000000060FF3F8F4000000000015E21C0000000C010866CC000000060FF3F8F40000000001DC21CC0
310
0000008036FB6CC00C00000013000000F20700003C00000006000000020000000000000000408FC000000000015E21C0000000C010866CC000000060FF3F8F4000000000015E21C0000000C010866CC00C00000013000000FA0700003C00000006000000020000000000000000408FC0000000001DC21CC00000008036FB6C
310
C00000000000408FC000000000015E21C0000000C010866CC00C00000013000000020800003C000000060000000200000000000060FF3F8F4000000080641F26C00000008050216CC000000060FF3F8F4000000000015E21C0000000C010866CC00C000000130000000A0800003C0000000600000002000000000000000040
310
8FC000000000641F26C00000008050216CC000000060FF3F8F4000000080641F26C00000008050216CC00C00000013000000120800003C00000006000000020000000000000000408FC000000000015E21C0000000C010866CC00000000000408FC000000000641F26C00000008050216CC00C000000130000001A0800003C
310
000000060000000200000000000060FF3F8F4000000000E5522CC000000020C5D36BC000000060FF3F8F4000000080641F26C00000008050216CC00C00000013000000220800003C000000060000000200000000000060FF3F8F4000000000E5522CC000000020C5D36BC00000000000408FC000000000E5522CC000000020
310
C5D36BC00C000000130000002A0800003C00000006000000020000000000000000408FC000000000E5522CC000000020C5D36BC00000000000408FC000000000641F26C00000008050216CC00C00000013000000320800003C000000060000000200000000000060FF3F8F40000000E0AFC935C000000080EE436BC0000000
310
60FF3F8F4000000000E5522CC000000020C5D36BC00C000000130000003A0800003C000000060000000200000000000060FF3F8F40000000E0AFC935C000000080EE436BC00000000000408FC0000000E0AFC935C000000080EE436BC00C00000013000000420800003C00000006000000020000000000000000408FC00000
310
00E0AFC935C000000080EE436BC00000000000408FC000000000E5522CC000000020C5D36BC00C000000130000004A0800003C000000060000000200000000000060FF3F8F40000000000FF037C000000000E80B6BC000000060FF3F8F40000000E0AFC935C000000080EE436BC00C00000013000000520800003C00000006
310
0000000200000000000060FF3F8F40000000000FF037C000000000E80B6BC00000000000408FC0000000000FF037C000000000E80B6BC00C000000130000005A0800003C00000006000000020000000000000000408FC0000000E0AFC935C000000080EE436BC00000000000408FC0000000000FF037C000000000E80B6BC0
310
0C00000013000000620800003C000000060000000200000000000060FF3F8F40000000A0597A39C000000020D1C16AC000000060FF3F8F40000000000FF037C000000000E80B6BC00C000000130000006A0800003C000000060000000200000000000060FF3F8F40000000A0597A39C000000020D1C16AC00000000000408F
310
C0000000A0597A39C000000020D1C16AC00C00000013000000720800003C00000006000000020000000000000000408FC0000000000FF037C000000000E80B6BC00000000000408FC0000000A0597A39C000000020D1C16AC00C000000130000007A0800003C000000060000000200000000000060FF3F8F40000000C02345
310
3AC000000040526C6AC000000060FF3F8F40000000A0597A39C000000020D1C16AC00C00000013000000820800003C000000060000000200000000000060FF3F8F40000000C023453AC000000040526C6AC00000000000408FC0000000C023453AC000000040526C6AC00C000000130000008A0800003C0000000600000002
310
0000000000000000408FC0000000A0597A39C000000020D1C16AC00000000000408FC0000000C023453AC000000040526C6AC00C00000013000000920800003C000000060000000200000000000060FF3F8F40000000A0483E3AC00000008011136AC000000060FF3F8F40000000C023453AC000000040526C6AC00C000000
310
130000009A0800003C000000060000000200000000000060FF3F8F40000000A0483E3AC00000008011136AC00000000000408FC0000000A0483E3AC00000008011136AC00C00000013000000A20800003C00000006000000020000000000000000408FC0000000C023453AC000000040526C6AC00000000000408FC0000000
310
A0483E3AC00000008011136AC00C00000013000000AA0800003C000000060000000200000000000060FF3F8F4000000000666639C0000000E015BE69C000000060FF3F8F40000000A0483E3AC00000008011136AC00C00000013000000B20800003C000000060000000200000000000060FF3F8F4000000000666639C00000
310
00E015BE69C00000000000408FC000000000666639C0000000E015BE69C00C00000013000000BA0800003C00000006000000020000000000000000408FC0000000A0483E3AC00000008011136AC00000000000408FC000000000666639C0000000E015BE69C00C00000013000000C20800003C000000060000000200000000
310
000060FF3F8F40000000C0CCD037C0000000A0F97469C000000060FF3F8F4000000000666639C0000000E015BE69C00C00000013000000CA0800003C000000060000000200000000000060FF3F8F40000000C0CCD037C0000000A0F97469C00000000000408FC0000000C0CCD037C0000000A0F97469C00C00000013000000
310
D20800003C00000006000000020000000000000000408FC000000000666639C0000000E015BE69C00000000000408FC0000000C0CCD037C0000000A0F97469C00C00000013000000DA0800003C000000060000000200000000000060FF3F8F4000000060FB1935C000000080BB3469C000000060FF3F8F40000000C0CCD037
310
C0000000A0F97469C00C00000013000000E20800003C000000060000000200000000000060FF3F8F4000000060FB1935C000000080BB3469C00000000000408FC000000060FB1935C000000080BB3469C00C00000013000000EA0800003C00000006000000020000000000000000408FC000000060FB1935C000000080BB34
310
69C00000000000408FC0000000C0CCD037C0000000A0F97469C00C00000013000000F20800003C000000060000000200000000000060FF3F8F4000000060FB1935C000000080BB3469C000000060FF3F8F4000000080F8E934C0000000C0CD2E69C00C00000013000000FA0800003C00000006000000020000000000000000
310
408FC000000080F8E934C0000000C0CD2E69C000000060FF3F8F4000000080F8E934C0000000C0CD2E69C00C00000013000000020900003C00000006000000020000000000000000408FC000000060FB1935C000000080BB3469C00000000000408FC000000080F8E934C0000000C0CD2E69C00C000000130000000A090000
310
3C000000060000000200000000000060FF3F8F400000008059D834C0000000609F2669C000000060FF3F8F4000000080F8E934C0000000C0CD2E69C00C00000013000000120900003C000000060000000200000000000060FF3F8F400000008059D834C0000000609F2669C00000000000408FC00000008059D834C0000000
310
609F2669C00C000000130000001A0900003C00000006000000020000000000000000408FC00000008059D834C0000000609F2669C00000000000408FC000000080F8E934C0000000C0CD2E69C00C00000013000000220900003C000000060000000200000000000060FF3F8F400000008059D834C000000000D9AE68C00000
310
0060FF3F8F400000008059D834C0000000609F2669C00C000000130000002A0900003C000000060000000200000000000060FF3F8F400000008059D834C000000000D9AE68C00000000000408FC00000008059D834C000000000D9AE68C00C00000013000000320900003C00000006000000020000000000000000408FC000
310
00008059D834C000000000D9AE68C00000000000408FC00000008059D834C0000000609F2669C00C000000130000003A0900003C000000060000000200000000000060FF3F8F40000000E0612032C000000020D47D68C000000060FF3F8F400000008059D834C000000000D9AE68C00C00000013000000420900003C000000
310
060000000200000000000060FF3F8F40000000E0612032C000000020D47D68C00000000000408FC0000000E0612032C000000020D47D68C00C000000130000004A0900003C00000006000000020000000000000000408FC00000008059D834C000000000D9AE68C00000000000408FC0000000E0612032C000000020D47D68
310
C00C00000013000000520900003C000000060000000200000000000060FF3F8F40000000E0612032C000000020D47D68C000000060FF3F8F40000000005FF031C000000060E67768C00C000000130000005A0900003C00000006000000020000000000000000408FC0000000005FF031C000000060E67768C000000060FF3F
310
8F40000000005FF031C000000060E67768C00C00000013000000620900003C00000006000000020000000000000000408FC0000000E0612032C000000020D47D68C00000000000408FC0000000005FF031C000000060E67768C00C000000130000006A0900003C000000060000000200000000000060FF3F8F4000000020C0
310
DE31C000000000B86F68C000000060FF3F8F40000000005FF031C000000060E67768C00C00000013000000720900003C000000060000000200000000000060FF3F8F4000000020C0DE31C000000000B86F68C00000000000408FC000000020C0DE31C000000000B86F68C00C000000130000007A0900003C00000006000000
310
020000000000000000408FC000000020C0DE31C000000000B86F68C00000000000408FC0000000005FF031C000000060E67768C00C00000013000000820900003C000000060000000200000000000060FF3F8F40000000C0BFDE31C0000000C078E35CC000000060FF3F8F4000000020C0DE31C000000000B86F68C00C0000
310
00130000008A0900003C000000060000000200000000000060FF3F8F40000000C0BFDE31C0000000C078E35CC00000000000408FC0000000C0BFDE31C0000000C078E35CC00C00000013000000920900003C00000006000000020000000000000000408FC000000020C0DE31C000000000B86F68C00000000000408FC00000
310
00C0BFDE31C0000000C078E35CC00C000000130000009A0900003C000000060000000200000000000060FF3F8F40000000C0BFDE31C0000000C078E35CC000000060FF3F8F40000000C0E5EF31C00000006050D35CC00C00000013000000A20900003C00000006000000020000000000000000408FC0000000C0E5EF31C000
310
00006050D35CC000000060FF3F8F40000000C0E5EF31C00000006050D35CC00C00000013000000AA0900003C00000006000000020000000000000000408FC0000000C0BFDE31C0000000C078E35CC00000000000408FC0000000C0E5EF31C00000006050D35CC00C00000013000000B20900003C0000000600000002000000
310
00000060FF3F8F40000000C0BF1E32C0000000407CC75CC000000060FF3F8F40000000C0E5EF31C00000006050D35CC00C00000013000000BA0900003C00000006000000020000000000000000408FC0000000C0BF1E32C0000000407CC75CC000000060FF3F8F40000000C0BF1E32C0000000407CC75CC00C000000130000
310
00C20900003C00000006000000020000000000000000408FC0000000C0E5EF31C00000006050D35CC00000000000408FC0000000C0BF1E32C0000000407CC75CC00C00000013000000CA0900003C000000060000000200000000000060FF3F8F40000000C0BF5E32C00000000028C35CC000000060FF3F8F40000000C0BF1E
310
32C0000000407CC75CC00C00000013000000D20900003C000000060000000200000000000060FF3F8F40000000C0BF5E32C00000000028C35CC00000000000408FC0000000C0BF5E32C00000000028C35CC00C00000013000000DA0900003C00000006000000020000000000000000408FC0000000C0BF5E32C00000000028
310
C35CC00000000000408FC0000000C0BF1E32C0000000407CC75CC00C00000013000000E20900003C000000060000000200000000000060FF3F8F400000006034F236C00000000028C35CC000000060FF3F8F40000000C0BF5E32C00000000028C35CC00C00000013000000EA0900003C000000060000000200000000000060
310
FF3F8F400000006034F236C00000000028C35CC00000000000408FC00000006034F236C00000000028C35CC00C00000013000000F20900003C00000006000000020000000000000000408FC00000006034F236C00000000028C35CC00000000000408FC0000000C0BF5E32C00000000028C35CC00C00000013000000FA0900
310
003C000000060000000200000000000060FF3F8F400000006034F236C00000008000B75BC000000060FF3F8F400000006034F236C00000000028C35CC00C00000013000000020A00003C000000060000000200000000000060FF3F8F400000006034F236C00000008000B75BC00000000000408FC00000006034F236C00000
310
008000B75BC00C000000130000000A0A00003C00000006000000020000000000000000408FC00000006034F236C00000000028C35CC00000000000408FC00000006034F236C00000008000B75BC00C00000013000000120A00003C000000060000000200000000000060FF3F8F400000006034F236C00000008000B75BC000
310
000060FF3F8F40000000805A0337C000000020D8A65BC00C000000130000001A0A00003C00000006000000020000000000000000408FC0000000805A0337C000000020D8A65BC000000060FF3F8F40000000805A0337C000000020D8A65BC00C00000013000000220A00003C00000006000000020000000000000000408FC0
310
0000006034F236C00000008000B75BC00000000000408FC0000000805A0337C000000020D8A65BC00C000000130000002A0A00003C000000060000000200000000000060FF3F8F4000000060343237C000000020049B5BC000000060FF3F8F40000000805A0337C000000020D8A65BC00C00000013000000320A00003C0000
310
0006000000020000000000000000408FC000000060343237C000000020049B5BC000000060FF3F8F4000000060343237C000000020049B5BC00C000000130000003A0A00003C00000006000000020000000000000000408FC0000000805A0337C000000020D8A65BC00000000000408FC000000060343237C000000020049B
310
5BC00C00000013000000420A00003C000000060000000200000000000060FF3F8F4000000060347237C0000000C0AF965BC000000060FF3F8F4000000060343237C000000020049B5BC00C000000130000004A0A00003C000000060000000200000000000060FF3F8F4000000060347237C0000000C0AF965BC00000000000
310
408FC000000060347237C0000000C0AF965BC00C00000013000000520A00003C00000006000000020000000000000000408FC000000060347237C0000000C0AF965BC00000000000408FC000000060343237C000000020049B5BC00C000000130000005A0A00003C000000060000000200000000000060FF3F8F4000000000
310
A3C43BC0000000C0AF965BC000000060FF3F8F4000000060347237C0000000C0AF965BC00C00000013000000620A00003C000000060000000200000000000060FF3F8F4000000000A3C43BC0000000C0AF965BC00000000000408FC000000000A3C43BC0000000C0AF965BC00C000000130000006A0A00003C000000060000
310
00020000000000000000408FC000000000A3C43BC0000000C0AF965BC00000000000408FC000000060347237C0000000C0AF965BC00C00000013000000720A00003C000000060000000200000000000060FF3F8F4000000000A3C43BC0000000C0AF965BC000000060FF3F8F4000000020DD3C3CC0000000C0AD795AC00C00
310
0000130000007A0A00003C00000006000000020000000000000000408FC000000020DD3C3CC0000000C0AD795AC000000060FF3F8F4000000020DD3C3CC0000000C0AD795AC00C00000013000000820A00003C00000006000000020000000000000000408FC000000000A3C43BC0000000C0AF965BC00000000000408FC000
310
000020DD3C3CC0000000C0AD795AC00C000000130000008A0A00003C000000060000000200000000000060FF3F8F400000002027A03DC0000000E0746959C000000060FF3F8F4000000020DD3C3CC0000000C0AD795AC00C00000013000000920A00003C00000006000000020000000000000000408FC00000002027A03DC0
310
000000E0746959C000000060FF3F8F400000002027A03DC0000000E0746959C00C000000130000009A0A00003C00000006000000020000000000000000408FC000000020DD3C3CC0000000C0AD795AC00000000000408FC00000002027A03DC0000000E0746959C00C00000013000000A20A00003C00000006000000020000
310
0000000060FF3F8F40000000A090DE3FC0000000403B7258C000000060FF3F8F400000002027A03DC0000000E0746959C00C00000013000000AA0A00003C00000006000000020000000000000000408FC0000000A090DE3FC0000000403B7258C000000060FF3F8F40000000A090DE3FC0000000403B7258C00C0000001300
310
0000B20A00003C00000006000000020000000000000000408FC00000002027A03DC0000000E0746959C00000000000408FC0000000A090DE3FC0000000403B7258C00C00000013000000BA0A00003C000000060000000200000000000060FF3F8F40000000C02A6F41C000000020189F57C000000060FF3F8F40000000A090
310
DE3FC0000000403B7258C00C00000013000000C20A00003C00000006000000020000000000000000408FC0000000C02A6F41C000000020189F57C000000060FF3F8F40000000C02A6F41C000000020189F57C00C00000013000000CA0A00003C00000006000000020000000000000000408FC0000000A090DE3FC000000040
310
3B7258C00000000000408FC0000000C02A6F41C000000020189F57C00C00000013000000D20A00003C000000060000000200000000000060FF3F8F40000000C0813E43C00000004084F956C000000060FF3F8F40000000C02A6F41C000000020189F57C00C00000013000000DA0A00003C0000000600000002000000000000
310
0000408FC0000000C0813E43C00000004084F956C000000060FF3F8F40000000C0813E43C00000004084F956C00C00000013000000E20A00003C00000006000000020000000000000000408FC0000000C02A6F41C000000020189F57C00000000000408FC0000000C0813E43C00000004084F956C00C00000013000000EA0A
310
00003C000000060000000200000000000060FF3F8F40000000C0844845C000000000ED8856C000000060FF3F8F40000000C0813E43C00000004084F956C00C00000013000000F20A00003C000000060000000200000000000060FF3F8F40000000C0844845C000000000ED8856C00000000000408FC0000000C0844845C000
310
000000ED8856C00C00000013000000FA0A00003C00000006000000020000000000000000408FC0000000C0844845C000000000ED8856C00000000000408FC0000000C0813E43C00000004084F956C00C00000013000000020B00003C000000060000000200000000000060FF3F8F4000000040496046C0000000C08C5356C0
310
00000060FF3F8F40000000C0844845C000000000ED8856C00C000000130000000A0B00003C000000060000000200000000000060FF3F8F4000000040496046C0000000C08C5356C00000000000408FC000000040496046C0000000C08C5356C00C00000013000000120B00003C00000006000000020000000000000000408F
310
C0000000C0844845C000000000ED8856C00000000000408FC000000040496046C0000000C08C5356C00C000000130000001A0B00003C000000060000000200000000000060FF3F8F4000000000566847C0000000A0AD0C56C000000060FF3F8F4000000040496046C0000000C08C5356C00C00000013000000220B00003C00
310
0000060000000200000000000060FF3F8F4000000000566847C0000000A0AD0C56C00000000000408FC000000000566847C0000000A0AD0C56C00C000000130000002A0B00003C00000006000000020000000000000000408FC000000040496046C0000000C08C5356C00000000000408FC000000000566847C0000000A0AD
310
0C56C00C00000013000000320B00003C000000060000000200000000000060FF3F8F4000000000715C48C00000006072B555C000000060FF3F8F4000000000566847C0000000A0AD0C56C00C000000130000003A0B00003C000000060000000200000000000060FF3F8F4000000000715C48C00000006072B555C000000000
310
00408FC000000000715C48C00000006072B555C00C00000013000000420B00003C00000006000000020000000000000000408FC000000000566847C0000000A0AD0C56C00000000000408FC000000000715C48C00000006072B555C00C000000130000004A0B00003C000000060000000200000000000060FF3F8F40000000
310
00A83849C000000040424F55C000000060FF3F8F4000000000715C48C00000006072B555C00C00000013000000520B00003C000000060000000200000000000060FF3F8F4000000000A83849C000000040424F55C00000000000408FC000000000A83849C000000040424F55C00C000000130000005A0B00003C0000000600
310
0000020000000000000000408FC000000000715C48C00000006072B555C00000000000408FC000000000A83849C000000040424F55C00C00000013000000620B00003C000000060000000200000000000060FF3F8F40000000C05CF949C0000000C0CBDB54C000000060FF3F8F4000000000A83849C000000040424F55C00C
310
000000130000006A0B00003C000000060000000200000000000060FF3F8F40000000C05CF949C0000000C0CBDB54C00000000000408FC0000000C05CF949C0000000C0CBDB54C00C00000013000000720B00003C00000006000000020000000000000000408FC000000000A83849C000000040424F55C00000000000408FC0
310
000000C05CF949C0000000C0CBDB54C00C000000130000007A0B00003C000000060000000200000000000060FF3F8F40000000007A9B4AC0000000C0E95C54C000000060FF3F8F40000000C05CF949C0000000C0CBDB54C00C00000013000000820B00003C000000060000000200000000000060FF3F8F40000000007A9B4A
310
C0000000C0E95C54C00000000000408FC0000000007A9B4AC0000000C0E95C54C00C000000130000008A0B00003C00000006000000020000000000000000408FC0000000C05CF949C0000000C0CBDB54C00000000000408FC0000000007A9B4AC0000000C0E95C54C00C00000013000000920B00003C000000060000000200
310
000000000060FF3F8F4000000040631C4BC0000000C0A4D453C000000060FF3F8F40000000007A9B4AC0000000C0E95C54C00C000000130000009A0B00003C000000060000000200000000000060FF3F8F4000000040631C4BC0000000C0A4D453C00000000000408FC000000040631C4BC0000000C0A4D453C00C00000013
310
000000A20B00003C00000006000000020000000000000000408FC0000000007A9B4AC0000000C0E95C54C00000000000408FC000000040631C4BC0000000C0A4D453C00C00000013000000AA0B00003C000000060000000200000000000060FF3F8F40000000C0F9794BC0000000003A4553C000000060FF3F8F4000000040
310
631C4BC0000000C0A4D453C00C00000013000000B20B00003C000000060000000200000000000060FF3F8F40000000C0F9794BC0000000003A4553C00000000000408FC0000000C0F9794BC0000000003A4553C00C00000013000000BA0B00003C00000006000000020000000000000000408FC000000040631C4BC0000000
310
C0A4D453C00000000000408FC0000000C0F9794BC0000000003A4553C00C00000013000000C20B00003C000000060000000200000000000060FF3F8F4000000040BDB24BC0000000C0FAB052C000000060FF3F8F40000000C0F9794BC0000000003A4553C00C00000013000000CA0B00003C00000006000000020000000000
310
0060FF3F8F4000000040BDB24BC0000000C0FAB052C00000000000408FC000000040BDB24BC0000000C0FAB052C00C00000013000000D20B00003C00000006000000020000000000000000408FC0000000C0F9794BC0000000003A4553C00000000000408FC000000040BDB24BC0000000C0FAB052C00C00000013000000DA
310
0B00003C000000060000000200000000000060FF3F8F4000000080C4C54BC000000060461A52C000000060FF3F8F4000000040BDB24BC0000000C0FAB052C00C00000013000000E20B00003C000000060000000200000000000060FF3F8F4000000080C4C54BC000000060461A52C00000000000408FC000000080C4C54BC0
310
00000060461A52C00C00000013000000EA0B00003C00000006000000020000000000000000408FC000000080C4C54BC000000060461A52C00000000000408FC000000040BDB24BC0000000C0FAB052C00C00000013000000F20B00003C000000060000000200000000000060FF3F8F4000000080C4C54BC000000020749451
310
C000000060FF3F8F4000000080C4C54BC000000060461A52C00C00000013000000FA0B00003C000000060000000200000000000060FF3F8F4000000080C4C54BC000000020749451C00000000000408FC000000080C4C54BC000000020749451C00C00000013000000020C00003C0000000600000002000000000000000040
310
8FC000000080C4C54BC000000060461A52C00000000000408FC000000080C4C54BC000000020749451C00C000000130000000A0C00003C000000060000000200000000000060FF3F8F4000000080C4C54BC000000020749451C000000060FF3F8F400000008057CE4BC0000000C04B8451C00C00000013000000120C00003C
310
00000006000000020000000000000000408FC00000008057CE4BC0000000C04B8451C000000060FF3F8F400000008057CE4BC0000000C04B8451C00C000000130000001A0C00003C00000006000000020000000000000000408FC000000080C4C54BC000000020749451C00000000000408FC00000008057CE4BC0000000C0
310
4B8451C00C00000013000000220C00003C000000060000000200000000000060FF3F8F4000000080C4E54BC0000000A0777851C000000060FF3F8F400000008057CE4BC0000000C04B8451C00C000000130000002A0C00003C00000006000000020000000000000000408FC000000080C4E54BC0000000A0777851C0000000
310
60FF3F8F4000000080C4E54BC0000000A0777851C00C00000013000000320C00003C00000006000000020000000000000000408FC00000008057CE4BC0000000C04B8451C00000000000408FC000000080C4E54BC0000000A0777851C00C000000130000003A0C00003C000000060000000200000000000060FF3F8F400000
310
0080C4054CC000000040237451C000000060FF3F8F4000000080C4E54BC0000000A0777851C00C00000013000000420C00003C000000060000000200000000000060FF3F8F4000000080C4054CC000000040237451C00000000000408FC000000080C4054CC000000040237451C00C000000130000004A0C00003C00000006
310
000000020000000000000000408FC000000080C4054CC000000040237451C00000000000408FC000000080C4E54BC0000000A0777851C00C00000013000000520C00003C000000060000000200000000000060FF3F8F40000000C07E4F4EC000000040237451C000000060FF3F8F4000000080C4054CC000000040237451C0
310
0C000000130000005A0C00003C000000060000000200000000000060FF3F8F40000000C07E4F4EC000000040237451C00000000000408FC0000000C07E4F4EC000000040237451C00C00000013000000620C00003C00000006000000020000000000000000408FC0000000C07E4F4EC000000040237451C00000000000408F
310
C000000080C4054CC000000040237451C00C000000130000006A0C00003C000000060000000200000000000060FF3F8F40000000C07E4F4EC0000000A0D23150C000000060FF3F8F40000000C07E4F4EC000000040237451C00C00000013000000720C00003C000000060000000200000000000060FF3F8F40000000C07E4F
310
4EC0000000A0D23150C00000000000408FC0000000C07E4F4EC0000000A0D23150C00C000000130000007A0C00003C00000006000000020000000000000000408FC0000000C07E4F4EC000000040237451C00000000000408FC0000000C07E4F4EC0000000A0D23150C00C00000013000000820C00003C0000000600000002
310
00000000000060FF3F8F40000000C07E4F4EC0000000A0D23150C000000060FF3F8F400000000012584EC000000040AA2150C00C000000130000008A0C00003C00000006000000020000000000000000408FC00000000012584EC000000040AA2150C000000060FF3F8F400000000012584EC000000040AA2150C00C000000
310
13000000920C00003C00000006000000020000000000000000408FC0000000C07E4F4EC0000000A0D23150C00000000000408FC00000000012584EC000000040AA2150C00C000000130000009A0C00003C000000060000000200000000000060FF3F8F40000000C07E6F4EC000000040D61550C000000060FF3F8F40000000
310
0012584EC000000040AA2150C00C00000013000000A20C00003C00000006000000020000000000000000408FC0000000C07E6F4EC000000040D61550C000000060FF3F8F40000000C07E6F4EC000000040D61550C00C00000013000000AA0C00003C00000006000000020000000000000000408FC00000000012584EC00000
310
0040AA2150C00000000000408FC0000000C07E6F4EC000000040D61550C00C00000013000000B20C00003C000000060000000200000000000060FF3F8F40000000C07E8F4EC0000000E0811150C000000060FF3F8F40000000C07E6F4EC000000040D61550C00C00000013000000BA0C00003C000000060000000200000000
310
000060FF3F8F40000000C07E8F4EC0000000E0811150C00000000000408FC0000000C07E8F4EC0000000E0811150C00C00000013000000C20C00003C00000006000000020000000000000000408FC0000000C07E8F4EC0000000E0811150C00000000000408FC0000000C07E6F4EC000000040D61550C00C00000013000000
310
CA0C00003C000000060000000200000000000060FF3F8F40000000809C6C50C0000000E0811150C000000060FF3F8F40000000C07E8F4EC0000000E0811150C00C00000013000000D20C00003C000000060000000200000000000060FF3F8F40000000809C6C50C0000000E0811150C00000000000408FC0000000809C6C50
310
C0000000E0811150C00C00000013000000DA0C00003C00000006000000020000000000000000408FC0000000809C6C50C0000000E0811150C00000000000408FC0000000C07E8F4EC0000000E0811150C00C00000013000000E20C00003C000000060000000200000000000060FF3F8F40000000809C6C50C000000020E192
310
4DC000000060FF3F8F40000000809C6C50C0000000E0811150C00C00000013000000EA0C00003C000000060000000200000000000060FF3F8F40000000809C6C50C000000020E1924DC00000000000408FC0000000809C6C50C000000020E1924DC00C00000013000000F20C00003C00000006000000020000000000000000
310
408FC0000000809C6C50C000000020E1924DC00000000000408FC0000000809C6C50C0000000E0811150C00C00000013000000FA0C00003C000000060000000200000000000060FF3F8F40000000809C6C50C000000020E1924DC000000060FF3F8F40000000803E7850C0000000A0D6394AC00C00000013000000020D0000
310
3C00000006000000020000000000000000408FC0000000803E7850C0000000A0D6394AC000000060FF3F8F40000000803E7850C0000000A0D6394AC00C000000130000000A0D00003C00000006000000020000000000000000408FC0000000809C6C50C000000020E1924DC00000000000408FC0000000803E7850C0000000
310
A0D6394AC00C00000013000000120D00003C000000060000000200000000000060FF3F8F40000000C056DA50C0000000C0AAF746C000000060FF3F8F40000000803E7850C0000000A0D6394AC00C000000130000001A0D00003C00000006000000020000000000000000408FC0000000C056DA50C000000000ABF746C00000
310
0060FF3F8F40000000C056DA50C0000000C0AAF746C00C00000013000000220D00003C00000006000000020000000000000000408FC0000000803E7850C0000000A0D6394AC00000000000408FC0000000C056DA50C000000000ABF746C00C000000130000002A0D00003C000000060000000200000000000060FF3F8F4000
310
000080C28E51C00000004092EF43C000000060FF3F8F40000000C056DA50C0000000C0AAF746C00C00000013000000320D00003C00000006000000020000000000000000408FC000000080C28E51C00000008092EF43C000000060FF3F8F4000000080C28E51C00000004092EF43C00C000000130000003A0D00003C000000
310
06000000020000000000000000408FC0000000C056DA50C000000000ABF746C00000000000408FC000000080C28E51C00000008092EF43C00C00000013000000420D00003C000000060000000200000000000060FF3F8F40000000C0E48D52C0000000C04E4241C000000060FF3F8F4000000080C28E51C00000004092EF43
310
C00C000000130000004A0D00003C00000006000000020000000000000000408FC0000000C0E48D52C0000000004F4241C000000060FF3F8F40000000C0E48D52C0000000C04E4241C00C00000013000000520D00003C00000006000000020000000000000000408FC000000080C28E51C00000008092EF43C0000000000040
310
8FC0000000C0E48D52C0000000004F4241C00C000000130000005A0D00003C000000060000000200000000000060FF3F8F4000000040F9CC53C00000008099193EC000000060FF3F8F40000000C0E48D52C0000000C04E4241C00C00000013000000620D00003C00000006000000020000000000000000408FC000000040F9
310
CC53C00000000099193EC000000060FF3F8F4000000040F9CC53C00000008099193EC00C000000130000006A0D00003C00000006000000020000000000000000408FC0000000C0E48D52C0000000004F4241C00000000000408FC000000040F9CC53C00000000099193EC00C00000013000000720D00003C00000006000000
310
0200000000000060FF3F8F4000000040883E55C000000080D1CD3AC000000060FF3F8F4000000040F9CC53C00000008099193EC00C000000130000007A0D00003C00000006000000020000000000000000408FC000000040883E55C000000000D2CD3AC000000060FF3F8F4000000040883E55C000000080D1CD3AC00C0000
310
0013000000820D00003C00000006000000020000000000000000408FC000000040F9CC53C00000000099193EC00000000000408FC000000040883E55C000000000D2CD3AC00C000000130000008A0D00003C000000060000000200000000000060FF3F8F40000000C0F8D256C000000080E2C438C000000060FF3F8F400000
310
0040883E55C000000080D1CD3AC00C00000013000000920D00003C00000006000000020000000000000000408FC0000000C0F8D256C000000000E3C438C000000060FF3F8F40000000C0F8D256C000000080E2C438C00C000000130000009A0D00003C00000006000000020000000000000000408FC000000040883E55C000
310
000000D2CD3AC00000000000408FC0000000C0F8D256C000000000E3C438C00C00000013000000A20D00003C000000060000000200000000000060FF3F8F4000000000397958C000000080C41438C000000060FF3F8F40000000C0F8D256C000000080E2C438C00C00000013000000AA0D00003C0000000600000002000000
310
00000060FF3F8F4000000000397958C000000080C41438C00000000000408FC000000000397958C000000000C41438C00C00000013000000B20D00003C00000006000000020000000000000000408FC000000000397958C000000000C41438C00000000000408FC0000000C0F8D256C000000000E3C438C00C000000130000
310
00BA0D00003C000000060000000200000000000060FF3F8F40000000C0866B59C000000080C41438C000000060FF3F8F4000000000397958C000000080C41438C00C00000013000000C20D00003C000000060000000200000000000060FF3F8F40000000C0866B59C000000080C41438C00000000000408FC0000000C0866B
310
59C000000000C41438C00C00000013000000CA0D00003C00000006000000020000000000000000408FC0000000C0866B59C000000000C41438C00000000000408FC000000000397958C000000000C41438C00C00000013000000D20D00003C000000060000000200000000000060FF3F8F40000000C0866B59C000000080C7
310
C334C000000060FF3F8F40000000C0866B59C000000080C41438C00C00000013000000DA0D00003C000000060000000200000000000060FF3F8F40000000C0866B59C000000080C7C334C00000000000408FC0000000C0866B59C000000000C8C334C00C00000013000000E20D00003C000000060000000200000000000000
310
00408FC0000000C0866B59C000000000C41438C00000000000408FC0000000C0866B59C000000000C8C334C00C00000013000000EA0D00003C000000060000000200000000000060FF3F8F40000000C0866B59C000000080C7C334C000000060FF3F8F40000000C0D56F59C000000080FF8234C00C00000013000000F20D00
310
003C00000006000000020000000000000000408FC0000000C0D56F59C000000000008334C000000060FF3F8F40000000C0D56F59C000000080FF8234C00C00000013000000FA0D00003C00000006000000020000000000000000408FC0000000C0866B59C000000000C8C334C00000000000408FC0000000C0D56F59C00000
310
0000008334C00C00000013000000020E00003C000000060000000200000000000060FF3F8F40000000009A7B59C000000080A95334C000000060FF3F8F40000000C0D56F59C000000080FF8234C00C000000130000000A0E00003C00000006000000020000000000000000408FC0000000009A7B59C000000000AA5334C000
310
000060FF3F8F40000000009A7B59C000000080A95334C00C00000013000000120E00003C00000006000000020000000000000000408FC0000000C0D56F59C000000000008334C00000000000408FC0000000009A7B59C000000000AA5334C00C000000130000001A0E00003C000000060000000200000000000060FF3F8F40
310
00000000A88B59C000000080844234C000000060FF3F8F40000000009A7B59C000000080A95334C00C00000013000000220E00003C000000060000000200000000000060FF3F8F4000000000A88B59C000000080844234C00000000000408FC000000000A88B59C000000000854234C00C000000130000002A0E00003C0000
310
0006000000020000000000000000408FC000000000A88B59C000000000854234C00000000000408FC0000000009A7B59C000000000AA5334C00C00000013000000320E00003C000000060000000200000000000060FF3F8F400000004087645AC000000080104634C000000060FF3F8F4000000000A88B59C0000000808442
310
34C00C000000130000003A0E00003C000000060000000200000000000060FF3F8F400000004087645AC000000080104634C00000000000408FC00000004087645AC000000000114634C00C00000013000000420E00003C00000006000000020000000000000000408FC00000004087645AC000000000114634C00000000000
310
408FC000000000A88B59C000000000854234C00C000000130000004A0E00003C000000060000000200000000000060FF3F8F40000000C015175BC000000000BAE633C000000060FF3F8F400000004087645AC000000080104634C00C00000013000000520E00003C000000060000000200000000000060FF3F8F40000000C0
310
15175BC000000000BAE633C00000000000408FC0000000C015175BC000000000BAE633C00C000000130000005A0E00003C00000006000000020000000000000000408FC00000004087645AC000000000114634C00000000000408FC0000000C015175BC000000000BAE633C00C00000013000000620E00003C000000060000
310
000200000000000060FF3F8F4000000080D2BC5BC000000080CEC932C000000060FF3F8F40000000C015175BC000000000BAE633C00C000000130000006A0E00003C000000060000000200000000000060FF3F8F4000000080D2BC5BC000000080CEC932C00000000000408FC000000080D2BC5BC000000080CEC932C00C00
310
000013000000720E00003C00000006000000020000000000000000408FC0000000C015175BC000000000BAE633C00000000000408FC000000080D2BC5BC000000080CEC932C00C000000130000007A0E00003C000000060000000200000000000060FF3F8F4000000080A2495CC000000080190431C000000060FF3F8F4000
310
000080D2BC5BC000000080CEC932C00C00000013000000820E00003C000000060000000200000000000060FF3F8F4000000080A2495CC000000080190431C00000000000408FC0000000A0A2495CC000000080190431C00C000000130000008A0E00003C00000006000000020000000000000000408FC000000080D2BC5BC0
310
00000080CEC932C00000000000408FC0000000A0A2495CC000000080190431C00C00000013000000920E00003C000000060000000200000000000060FF3F8F40000000403EB35CC0000000007F6D2DC000000060FF3F8F4000000080A2495CC000000080190431C00C000000130000009A0E00003C00000006000000020000
310
0000000060FF3F8F40000000403EB35CC0000000007F6D2DC00000000000408FC0000000403EB35CC0000000007F6D2DC00C00000013000000A20E00003C00000006000000020000000000000000408FC0000000A0A2495CC000000080190431C00000000000408FC0000000403EB35CC0000000007F6D2DC00C0000001300
310
0000AA0E00003C000000060000000200000000000060FF3F8F40000000403EB35CC0000000007F6D2DC000000060FF3F8F40000000403A115DC000000000685329C00C00000013000000B20E00003C00000006000000020000000000000000408FC0000000403A115DC000000000685329C000000060FF3F8F40000000403A
310
115DC000000000685329C00C00000013000000BA0E00003C00000006000000020000000000000000408FC0000000403EB35CC0000000007F6D2DC00000000000408FC0000000403A115DC000000000685329C00C00000013000000C20E00003C000000060000000200000000000060FF3F8F4000000000788E5DC000000000
310
D12926C000000060FF3F8F40000000403A115DC000000000685329C00C00000013000000CA0E00003C00000006000000020000000000000000408FC000000020788E5DC000000000D12926C000000060FF3F8F4000000000788E5DC000000000D12926C00C00000013000000D20E00003C0000000600000002000000000000
310
0000408FC0000000403A115DC000000000685329C00000000000408FC000000020788E5DC000000000D12926C00C00000013000000DA0E00003C000000060000000200000000000060FF3F8F4000000000E6215EC0000000005B2B24C000000060FF3F8F4000000000788E5DC000000000D12926C00C00000013000000E20E
310
00003C00000006000000020000000000000000408FC000000020E6215EC0000000005B2B24C000000060FF3F8F4000000000E6215EC0000000005B2B24C00C00000013000000EA0E00003C00000006000000020000000000000000408FC000000020788E5DC000000000D12926C00000000000408FC000000020E6215EC000
310
0000005B2B24C00C00000013000000F20E00003C000000060000000200000000000060FF3F8F40000000C0D6C05EC000000000FF7C23C000000060FF3F8F4000000000E6215EC0000000005B2B24C00C00000013000000FA0E00003C000000060000000200000000000060FF3F8F40000000C0D6C05EC000000000FF7C23C0
310
0000000000408FC0000000C0D6C05EC000000000FF7C23C00C00000013000000020F00003C00000006000000020000000000000000408FC0000000C0D6C05EC000000000FF7C23C00000000000408FC000000020E6215EC0000000005B2B24C00C000000130000000A0F00003C000000060000000200000000000060FF3F8F
310
40000000E0001060C000000000007D23C000000060FF3F8F40000000C0D6C05EC000000000FF7C23C00C00000013000000120F00003C000000060000000200000000000060FF3F8F40000000E0001060C000000000007D23C00000000000408FC0000000E0001060C000000000007D23C00C000000130000001A0F00003C00
310
000006000000020000000000000000408FC0000000E0001060C000000000007D23C00000000000408FC0000000C0D6C05EC000000000FF7C23C00C00000013000000220F00003C000000060000000200000000000060FF3F8F40000000E0001060C000000000883716C000000060FF3F8F40000000E0001060C00000000000
310
7D23C00C000000130000002A0F00003C000000060000000200000000000060FF3F8F40000000E0001060C000000000883716C00000000000408FC0000000E0001060C000000000883716C00C00000013000000320F00003C00000006000000020000000000000000408FC0000000E0001060C000000000007D23C000000000
310
00408FC0000000E0001060C000000000883716C00C000000130000003A0F00003C000000060000000200000000000060FF3F8F40000000E0001060C000000000883716C000000060FF3F8F40000000A0251260C000000000023515C00C00000013000000420F00003C00000006000000020000000000000000408FC0000000
310
A0251260C000000000023515C000000060FF3F8F40000000A0251260C000000000023515C00C000000130000004A0F00003C00000006000000020000000000000000408FC0000000E0001060C000000000883716C00000000000408FC0000000A0251260C000000000023515C00C00000013000000520F00003C0000000600
310
00000200000000000060FF3F8F40000000E0001860C000000000C07714C000000060FF3F8F40000000A0251260C000000000023515C00C000000130000005A0F00003C00000006000000020000000000000000408FC0000000E0001860C000000000C07714C000000060FF3F8F40000000E0001860C000000000C07714C00C
310
00000013000000620F00003C00000006000000020000000000000000408FC0000000A0251260C000000000023515C00000000000408FC0000000E0001860C000000000C07714C00C000000130000006A0F00003C000000060000000200000000000060FF3F8F40000000E0002060C0000000007C3214C000000060FF3F8F40
310
000000E0001860C000000000C07714C00C00000013000000720F00003C000000060000000200000000000060FF3F8F40000000E0002060C0000000007C3214C00000000000408FC0000000E0002060C0000000007C3214C00C000000130000007A0F00003C00000006000000020000000000000000408FC0000000E0002060
310
C0000000007C3214C00000000000408FC0000000E0001860C000000000C07714C00C00000013000000820F00003C000000060000000200000000000060FF3F8F40000000E000E060C0000000007C3214C000000060FF3F8F40000000E0002060C0000000007C3214C00C000000130000008A0F00003C000000060000000200
310
00000000000000408FC0000000E000E060C0000000007C3214C00000000000408FC0000000E0002060C0000000007C3214C00C00000013000000920F00003C00000006000000020000000000000000408FC00000004087645AC000000000114634C00000000000408FC0000000C0019358C000000000CFBD22C00C00000013
310
0000009A0F00003C00000006000000020000000000000000408FC000000000A88B59C000000000854234C00000000000408FC000000000814658C0000000008E8125C00C00000013000000A20F00003C00000006000000020000000000000000408FC0000000E0002060C0000000007C3214C00000000000408FC0000000A0
310
FEFD5DC0000000000000E03E0C00000013000000AA0F00003C00000006000000020000000000000000408FC0000000A0FEFD5DC0000000000000E03E0000000000408FC0000000E0001860C000000000C07714C00C00000013000000B20F00003C00000006000000020000000000000000408FC0000000E0001060C0000000
310
00883716C00000000000408FC0000000A0FEFD5DC0000000000000E03E0C00000013000000BA0F00003C00000006000000020000000000000000408FC0000000E0001060C000000000007D23C00000000000408FC00000004083E15DC0000000005075E8BF0C00000013000000C20F00003C00000006000000020000000000
310
000000408FC0000000A0FEFD5DC0000000000000E03E0000000000408FC0000000A0251260C000000000023515C00C00000013000000CA0F00003C00000006000000020000000000000000408FC0000000C0D6C05EC000000000FF7C23C00000000000408FC0000000A01EB95DC000000000F8FEF2BF0C00000013000000D2
310
0F00003C00000006000000020000000000000000408FC000000020E6215EC0000000005B2B24C00000000000408FC0000000C046895DC000000000E8F7F4BF0C00000013000000DA0F00003C00000006000000020000000000000000408FC000000020788E5DC000000000D12926C00000000000408FC000000060765A5DC0
310
0000000048CCF1BF0C00000013000000E20F00003C00000006000000020000000000000000408FC000000040C5C158C00000000020C31EC00000000000408FC000000060765A5DC00000000048CCF1BF0C00000013000000EA0F00003C00000006000000020000000000000000408FC0000000403A115DC000000000685329
310
C00000000000408FC000000040C5C158C00000000020C31EC00C00000013000000F20F00003C00000006000000020000000000000000408FC0000000403EB35CC0000000007F6D2DC00000000000408FC000000040C5C158C00000000020C31EC00C00000013000000FA0F00003C0000000600000002000000000000000040
310
8FC0000000A0A2495CC000000080190431C00000000000408FC0000000C0019358C000000000CFBD22C00C00000013000000021000003C00000006000000020000000000000000408FC000000080D2BC5BC000000080CEC932C00000000000408FC0000000C0019358C000000000CFBD22C00C000000130000000A1000003C
310
00000006000000020000000000000000408FC0000000C015175BC000000000BAE633C00000000000408FC0000000C0019358C000000000CFBD22C00C00000013000000121000003C00000006000000020000000000000000408FC0000000009A7B59C000000000AA5334C00000000000408FC000000000814658C000000000
310
8E8125C00C000000130000001A1000003C00000006000000020000000000000000408FC000000000397958C000000000C41438C00000000000408FC000000040747257C000000000904F28C00C00000013000000221000003C00000006000000020000000000000000408FC0000000C0866B59C000000000C41438C0000000
310
0000408FC000000040747257C000000000904F28C00C000000130000002A1000003C00000006000000020000000000000000408FC0000000C0866B59C000000000C8C334C00000000000408FC00000004048E357C000000000CE6B27C00C00000013000000321000003C00000006000000020000000000000000408FC00000
310
00C0D56F59C000000000008334C00000000000408FC00000004048E357C000000000CE6B27C00C000000130000003A1000003C00000006000000020000000000000000408FC0000000C0F8D256C000000000E3C438C00000000000408FC000000000F05755C00000000000932BC00C00000013000000421000003C00000006
310
000000020000000000000000408FC000000040883E55C000000000D2CD3AC00000000000408FC000000080645B53C0000000004C0631C00C000000130000004A1000003C00000006000000020000000000000000408FC000000040F9CC53C00000000099193EC00000000000408FC000000080E08F51C0000000001FBF35C0
310
0C00000013000000521000003C00000006000000020000000000000000408FC0000000C0E48D52C0000000004F4241C00000000000408FC000000040990650C000000000ADC63BC00C000000130000005A1000003C00000006000000020000000000000000408FC000000080C28E51C00000008092EF43C00000000000408F
310
C0000000007E9C4DC000000080A77141C00C00000013000000621000003C00000006000000020000000000000000408FC0000000C056DA50C000000000ABF746C00000000000408FC0000000400CE54BC0000000006D6845C00C000000130000006A1000003C00000006000000020000000000000000408FC0000000803E78
310
50C0000000A0D6394AC00000000000408FC00000000053F74AC0000000009EA149C00C00000013000000721000003C00000006000000020000000000000000408FC0000000809C6C50C000000020E1924DC00000000000408FC00000004004AA4AC00000006009E14AC00C000000130000007A1000003C0000000600000002
310
0000000000000000408FC0000000809C6C50C0000000E0811150C00000000000408FC0000000C09FE349C0000000E0A4654CC00C00000013000000821000003C00000006000000020000000000000000408FC0000000C07E8F4EC0000000E0811150C00000000000408FC0000000C09FE349C0000000E0A4654CC00C000000
310
130000008A1000003C00000006000000020000000000000000408FC0000000C09FE349C0000000E0A4654CC00000000000408FC00000000012584EC000000040AA2150C00C00000013000000921000003C00000006000000020000000000000000408FC0000000C09FE349C0000000E0A4654CC00000000000408FC0000000
310
C07E6F4EC000000040D61550C00C000000130000009A1000003C00000006000000020000000000000000408FC000000080C4054CC000000040237451C00000000000408FC000000040494C47C000000060DFDE4EC00C00000013000000A21000003C00000006000000020000000000000000408FC0000000C07E4F4EC00000
310
0040237451C00000000000408FC00000000085B948C000000000AEA24DC00C00000013000000AA1000003C00000006000000020000000000000000408FC0000000C07E4F4EC0000000A0D23150C00000000000408FC0000000C09FE349C0000000E0A4654CC00C00000013000000B21000003C000000060000000200000000
310
00000000408FC000000040494C47C000000060DFDE4EC00000000000408FC000000080C4E54BC0000000A0777851C00C00000013000000BA1000003C00000006000000020000000000000000408FC000000080C4C54BC000000060461A52C00000000000408FC000000000E9F245C0000000C07DB950C00C00000013000000
310
C21000003C00000006000000020000000000000000408FC000000080C4C54BC000000020749451C00000000000408FC000000040AF7746C0000000C0D00950C00C00000013000000CA1000003C00000006000000020000000000000000408FC000000040AF7746C0000000C0D00950C00000000000408FC00000008057CE4B
310
C0000000C04B8451C00C00000013000000D21000003C00000006000000020000000000000000408FC000000040BDB24BC0000000C0FAB052C00000000000408FC000000000E9F245C0000000C07DB950C00C00000013000000DA1000003C00000006000000020000000000000000408FC0000000C0F9794BC0000000003A45
310
53C00000000000408FC000000080C4C545C000000040237451C00C00000013000000E21000003C00000006000000020000000000000000408FC0000000007A9B4AC0000000C0E95C54C00000000000408FC00000004050B145C0000000409F5A52C00C00000013000000EA1000003C00000006000000020000000000000000
310
408FC000000040631C4BC0000000C0A4D453C00000000000408FC000000080C4C545C000000040237451C00C00000013000000F21000003C00000006000000020000000000000000408FC0000000C05CF949C0000000C0CBDB54C00000000000408FC00000004050B145C0000000409F5A52C00C00000013000000FA100000
310
3C00000006000000020000000000000000408FC000000000A83849C000000040424F55C00000000000408FC0000000003B2645C000000000BF0E53C00C00000013000000021100003C00000006000000020000000000000000408FC000000000715C48C00000006072B555C00000000000408FC0000000003B2645C0000000
310
00BF0E53C00C000000130000000A1100003C00000006000000020000000000000000408FC000000000566847C0000000A0AD0C56C00000000000408FC0000000C0F6F943C0000000E0B38653C00C00000013000000121100003C00000006000000020000000000000000408FC000000040496046C0000000C08C5356C00000
310
000000408FC0000000C0F6F943C0000000E0B38653C00C000000130000001A1100003C00000006000000020000000000000000408FC0000000C0844845C000000000ED8856C00000000000408FC0000000C0F6F943C0000000E0B38653C00C00000013000000221100003C00000006000000020000000000000000408FC000
310
0000C0813E43C00000004084F956C00000000000408FC0000000809C8C40C000000000094454C00C000000130000002A1100003C00000006000000020000000000000000408FC0000000C02A6F41C000000020189F57C00000000000408FC00000008048BF3BC0000000E0732C55C00C00000013000000321100003C000000
310
06000000020000000000000000408FC0000000A090DE3FC0000000403B7258C00000000000408FC000000040EC3237C0000000C0CA5356C00C000000130000003A1100003C00000006000000020000000000000000408FC000000020DD3C3CC0000000C0AD795AC00000000000408FC000000040EC3237C0000000C0CA5356
310
C00C00000013000000421100003C00000006000000020000000000000000408FC00000002027A03DC0000000E0746959C00000000000408FC000000040EC3237C0000000C0CA5356C00C000000130000004A1100003C00000006000000020000000000000000408FC000000060347237C0000000C0AF965BC0000000000040
310
8FC000000040EC3237C0000000C0CA5356C00C00000013000000521100003C00000006000000020000000000000000408FC000000040EC3237C0000000C0CA5356C00000000000408FC000000060343237C000000020049B5BC00C000000130000005A1100003C00000006000000020000000000000000408FC00000006034
310
F236C00000008000B75BC00000000000408FC0000000C0BF5E32C00000000028C35CC00C00000013000000621100003C00000006000000020000000000000000408FC000000040EC3237C0000000C0CA5356C00000000000408FC0000000805A0337C000000020D8A65BC00C000000130000006A1100003C00000006000000
310
020000000000000000408FC0000000C0BFDE31C0000000C078E35CC00000000000408FC00000000050BFECBF00000040561960C00C00000013000000721100003C00000006000000020000000000000000408FC0000000C0BFDE31C0000000C078E35CC00000000000408FC00000000000001DBF00000020F77E5DC00C0000
310
00130000007A1100003C00000006000000020000000000000000408FC00000000000001DBF00000020F77E5DC00000000000408FC0000000C0E5EF31C00000006050D35CC00C00000013000000821100003C00000006000000020000000000000000408FC00000000000001DBF00000020F77E5DC00000000000408FC00000
310
00C0BF1E32C0000000407CC75CC00C000000130000008A1100003C00000006000000020000000000000000408FC0000000805A0337C000000020D8A65BC00000000000408FC0000000C0BF1E32C0000000407CC75CC00C00000013000000921100003C00000006000000020000000000000000408FC0000000C0BFDE31C000
310
0000C078E35CC00000000000408FC000000000A8B5F4BF000000C09C4260C00C000000130000009A1100003C00000006000000020000000000000000408FC0000000C0BFDE31C0000000C078E35CC00000000000408FC0000000008C82F3BF00000020BE2C60C00C00000013000000A21100003C0000000600000002000000
310
0000000000408FC0000000004C5906C0000000C089CE61C00000000000408FC0000000000067E6BF00000000536960C00C00000013000000AA1100003C00000006000000020000000000000000408FC00000000030CDF1BF00000040D15760C00000000000408FC0000000007A4310C0000000E041ED61C00C000000130000
310
00B21100003C00000006000000020000000000000000408FC0000000C0BFDE31C0000000C078E35CC00000000000408FC0000000007A4310C0000000E041ED61C00C00000013000000BA1100003C00000006000000020000000000000000408FC0000000C0BFDE31C0000000C078E35CC00000000000408FC0000000002E2D
310
14C0000000E0AE1562C00C00000013000000C21100003C00000006000000020000000000000000408FC0000000C0BFDE31C0000000C078E35CC00000000000408FC000000000BFA316C000000060FC4462C00C00000013000000CA1100003C00000006000000020000000000000000408FC0000000C0BFDE31C0000000C078
310
E35CC00000000000408FC000000000FF7A17C0000000A0DB7762C00C00000013000000D21100003C00000006000000020000000000000000408FC000000020C0DE31C000000000B86F68C00000000000408FC0000000004CF417C000000020032E69C00C00000013000000DA1100003C000000060000000200000000000000
310
00408FC0000000004CF417C000000020032E69C00000000000408FC0000000005FF031C000000060E67768C00C00000013000000E21100003C00000006000000020000000000000000408FC00000008059D834C000000000D9AE68C00000000000408FC0000000004CF417C000000020032E69C00C00000013000000EA1100
310
003C00000006000000020000000000000000408FC0000000E0612032C000000020D47D68C00000000000408FC0000000004CF417C000000020032E69C00C00000013000000F21100003C00000006000000020000000000000000408FC00000008059D834C0000000609F2669C00000000000408FC000000000AA2D19C00000
310
00003EA869C00C00000013000000FA1100003C00000006000000020000000000000000408FC000000060FB1935C000000080BB3469C00000000000408FC000000000AA2D19C0000000003EA869C00C00000013000000021200003C00000006000000020000000000000000408FC000000000AA2D19C0000000003EA869C000
310
00000000408FC000000080F8E934C0000000C0CD2E69C00C000000130000000A1200003C00000006000000020000000000000000408FC0000000C0CCD037C0000000A0F97469C00000000000408FC000000000355D17C0000000E09F106AC00C00000013000000121200003C00000006000000020000000000000000408FC0
310
000000A0483E3AC00000008011136AC00000000000408FC000000000355D17C0000000E09F106AC00C000000130000001A1200003C00000006000000020000000000000000408FC000000000666639C0000000E015BE69C00000000000408FC000000000355D17C0000000E09F106AC00C00000013000000221200003C0000
310
0006000000020000000000000000408FC0000000A0597A39C000000020D1C16AC00000000000408FC00000000065E012C0000000A099736AC00C000000130000002A1200003C00000006000000020000000000000000408FC0000000C023453AC000000040526C6AC00000000000408FC000000000355D17C0000000E09F10
310
6AC00C00000013000000321200003C00000006000000020000000000000000408FC0000000E0AFC935C000000080EE436BC00000000000408FC00000000065E012C0000000A099736AC00C000000130000003A1200003C00000006000000020000000000000000408FC0000000000FF037C000000000E80B6BC00000000000
310
408FC00000000065E012C0000000A099736AC00C00000013000000421200003C00000006000000020000000000000000408FC000000000E5522CC000000020C5D36BC00000000000408FC000000000A8D407C000000020C2CC6AC00C000000130000004A1200003C00000006000000020000000000000000408FC000000000
310
641F26C00000008050216CC00000000000408FC000000000CE6704C0000000C0E6D86AC00C00000013000000521200003C00000006000000020000000000000000408FC000000000015E21C0000000C010866CC00000000000408FC0000000007E2200C00000004053DF6AC00C000000130000005A1200003C000000060000
310
00020000000000000000408FC000000000015E21C0000000C010866CC00000000000408FC00000000000001FBF0000006014406DC00C00000013000000621200003C00000006000000020000000000000000408FC0000000001DC21CC00000008036FB6CC00000000000408FC00000000058BFECBF000000000B556DC00C00
310
0000130000006A1200003C00000006000000020000000000000000408FC0000000001DC21CC00000008036FB6CC00000000000408FC0000000009082F3BF0000000073686DC00C00000013000000721200003C00000006000000020000000000000000408FC00000000071B81AC000000080D6786DC00000000000408FC000
310
000000B0B5F4BF000000A0517E6DC00C000000130000007A1200003C00000006000000020000000000000000408FC00000000071B81AC0000000206AD16DC00000000000408FC00000000034CDF1BF0000002086936DC00C00000013000000821200003C00000006000000020000000000000000408FC0000000001067E6BF
310
000000E007A56DC00000000000408FC00000000062EA1AC0000000E05FD86DC00C000000130000008A1200003C00000006000000020000000000000000408FC00000000000001FBF000000C0B1B16DC00000000000408FC000000000C43B18C0000000005A256FC00C00000013000000921200003C00000006000000020000
310
000000000000408FC00000000062EA1AC0000000E05FD86DC00000000000408FC000000000C43B18C0000000005A256FC00C000000130000009A1200003C00000006000000020000000000000000408FC000000000D56B24C0000000207CCC6EC00000000000408FC0000000004D3625C0000000E0AC4A6EC00C0000001300
310
0000A21200003C00000006000000020000000000000000408FC00000008081BB22C000000020CFEF6EC00000000000408FC00000000067FB23C000000000B5226EC00C00000013000000AA1200003C00000006000000020000000000000000408FC00000000004191FC000000020C3106FC00000000000408FC000000000E1
310
1D22C000000060C8016EC00C00000013000000B21200003C00000006000000020000000000000000408FC000000000F9281BC0000000803F1B6FC00000000000408FC000000000D1851FC0000000A076EA6DC00C00000013000000BA1200003C00000006000000020000000000000000408FC00000000098C819C000000060
310
DB1C6FC00000000000408FC0000000003E411CC0000000E020E16DC00C00000013000000C21200003C00000006000000020000000000000000408FC00000000062761BC0000000A0F9DD6DC00000000000408FC000000000ACE018C0000000808C1F6FC00C00000013000000CA1200003C0000000600000002000000000000
310
0000408FC0000000001F0018C000000060EB2C6FC00000000000408FC00000000000001FBF00000020FCFF6FC00C00000013000000D21200003C000000060000000200000000000060FF3F8F4000000000A88B59C000000080844234C000000060FF3F8F4000000000814658C0000000008E8125C00C00000013000000DA12
310
00003C000000060000000200000000000060FF3F8F400000004087645AC000000080104634C000000060FF3F8F40000000C0019358C000000000CFBD22C00C00000013000000E21200003C000000060000000200000000000060FF3F8F40000000E0002060C0000000007C3214C000000060FF3F8F4000000080FEFD5DC000
310
0000000000E03E0C00000013000000EA1200003C000000060000000200000000000060FF3F8F4000000080FEFD5DC0000000000000E03E00000060FF3F8F40000000E0001860C000000000C07714C00C00000013000000F21200003C000000060000000200000000000060FF3F8F40000000E0001060C000000000007D23C0
310
00000060FF3F8F400000004083E15DC0000000005075E8BF0C00000013000000FA1200003C000000060000000200000000000060FF3F8F40000000E0001060C000000000883716C000000060FF3F8F4000000080FEFD5DC0000000000000E03E0C00000013000000021300003C000000060000000200000000000060FF3F8F
310
4000000080FEFD5DC0000000000000E03E00000060FF3F8F40000000A0251260C000000000023515C00C000000130000000A1300003C000000060000000200000000000060FF3F8F40000000C0D6C05EC000000000FF7C23C000000060FF3F8F40000000801EB95DC000000000F8FEF2BF0C00000013000000121300003C00
310
0000060000000200000000000060FF3F8F4000000000E6215EC0000000005B2B24C000000060FF3F8F40000000C046895DC000000000E8F7F4BF0C000000130000001A1300003C000000060000000200000000000060FF3F8F4000000000788E5DC000000000D12926C000000060FF3F8F4000000040765A5DC00000000048
310
CCF1BF0C00000013000000221300003C000000060000000200000000000060FF3F8F4000000040C5C158C00000000020C31EC000000060FF3F8F4000000040765A5DC00000000048CCF1BF0C000000130000002A1300003C000000060000000200000000000060FF3F8F40000000403A115DC000000000685329C000000060
310
FF3F8F4000000040C5C158C00000000020C31EC00C00000013000000321300003C000000060000000200000000000060FF3F8F40000000403EB35CC0000000007F6D2DC000000060FF3F8F4000000040C5C158C00000000020C31EC00C000000130000003A1300003C000000060000000200000000000060FF3F8F40000000
310
80A2495CC000000080190431C000000060FF3F8F40000000C0019358C000000000CFBD22C00C00000013000000421300003C000000060000000200000000000060FF3F8F4000000080D2BC5BC000000080CEC932C000000060FF3F8F40000000C0019358C000000000CFBD22C00C000000130000004A1300003C0000000600
310
00000200000000000060FF3F8F40000000C015175BC000000000BAE633C000000060FF3F8F40000000C0019358C000000000CFBD22C00C00000013000000521300003C000000060000000200000000000060FF3F8F40000000009A7B59C000000080A95334C000000060FF3F8F4000000000814658C0000000008E8125C00C
310
000000130000005A1300003C000000060000000200000000000060FF3F8F40000000C0866B59C000000080C41438C000000060FF3F8F4000000040747257C000000000914F28C00C00000013000000621300003C000000060000000200000000000060FF3F8F4000000000397958C000000080C41438C000000060FF3F8F40
310
00000040747257C000000000914F28C00C000000130000006A1300003C000000060000000200000000000060FF3F8F40000000C0866B59C000000080C7C334C000000060FF3F8F400000004048E357C000000000CD6B27C00C00000013000000721300003C000000060000000200000000000060FF3F8F40000000C0D56F59
310
C000000080FF8234C000000060FF3F8F400000004048E357C000000000CD6B27C00C000000130000007A1300003C000000060000000200000000000060FF3F8F40000000C0F8D256C000000080E2C438C000000060FF3F8F4000000000F05755C00000000001932BC00C00000013000000821300003C000000060000000200
310
000000000060FF3F8F4000000040883E55C000000080D1CD3AC000000060FF3F8F4000000080645B53C0000000804B0631C00C000000130000008A1300003C000000060000000200000000000060FF3F8F4000000040F9CC53C00000008099193EC000000060FF3F8F4000000080E08F51C0000000801EBF35C00C00000013
310
000000921300003C000000060000000200000000000060FF3F8F40000000C0E48D52C0000000C04E4241C000000060FF3F8F4000000040990650C000000080ACC63BC00C000000130000009A1300003C000000060000000200000000000060FF3F8F4000000080C28E51C00000004092EF43C000000060FF3F8F4000000000
310
7E9C4DC0000000C0A77141C00C00000013000000A21300003C000000060000000200000000000060FF3F8F40000000C056DA50C0000000C0AAF746C000000060FF3F8F40000000400CE54BC0000000C06C6845C00C00000013000000AA1300003C000000060000000200000000000060FF3F8F40000000803E7850C0000000
310
A0D6394AC000000060FF3F8F400000000053F74AC0000000C09DA149C00C00000013000000B21300003C000000060000000200000000000060FF3F8F40000000809C6C50C000000020E1924DC000000060FF3F8F400000004004AA4AC00000006009E14AC00C00000013000000BA1300003C00000006000000020000000000
310
0060FF3F8F40000000809C6C50C0000000E0811150C000000060FF3F8F40000000C09FE349C0000000E0A4654CC00C00000013000000C21300003C000000060000000200000000000060FF3F8F40000000C07E8F4EC0000000E0811150C000000060FF3F8F40000000C09FE349C0000000E0A4654CC00C00000013000000CA
310
1300003C000000060000000200000000000060FF3F8F40000000C09FE349C0000000E0A4654CC000000060FF3F8F40000000C07E6F4EC000000040D61550C00C00000013000000D21300003C000000060000000200000000000060FF3F8F40000000C09FE349C0000000E0A4654CC000000060FF3F8F400000000012584EC0
310
00000040AA2150C00C00000013000000DA1300003C000000060000000200000000000060FF3F8F40000000C07E4F4EC000000040237451C000000060FF3F8F400000000085B948C000000000AEA24DC00C00000013000000E21300003C000000060000000200000000000060FF3F8F4000000080C4054CC000000040237451
310
C000000060FF3F8F4000000040494C47C000000060DFDE4EC00C00000013000000EA1300003C000000060000000200000000000060FF3F8F40000000C07E4F4EC0000000A0D23150C000000060FF3F8F40000000C09FE349C0000000E0A4654CC00C00000013000000F21300003C000000060000000200000000000060FF3F
310
8F4000000040494C47C000000060DFDE4EC000000060FF3F8F4000000080C4E54BC0000000A0777851C00C00000013000000FA1300003C000000060000000200000000000060FF3F8F4000000080C4C54BC000000020749451C000000060FF3F8F4000000040AF7746C0000000C0D00950C00C00000013000000021400003C
310
000000060000000200000000000060FF3F8F4000000080C4C54BC000000060461A52C000000060FF3F8F4000000000E9F245C0000000C07DB950C00C000000130000000A1400003C000000060000000200000000000060FF3F8F4000000040AF7746C0000000C0D00950C000000060FF3F8F400000008057CE4BC0000000C0
310
4B8451C00C00000013000000121400003C000000060000000200000000000060FF3F8F4000000040BDB24BC0000000C0FAB052C000000060FF3F8F4000000000E9F245C0000000C07DB950C00C000000130000001A1400003C000000060000000200000000000060FF3F8F40000000C0F9794BC0000000003A4553C0000000
310
60FF3F8F4000000080C4C545C000000040237451C00C00000013000000221400003C000000060000000200000000000060FF3F8F4000000040631C4BC0000000C0A4D453C000000060FF3F8F4000000080C4C545C000000040237451C00C000000130000002A1400003C000000060000000200000000000060FF3F8F400000
310
00007A9B4AC0000000C0E95C54C000000060FF3F8F400000004050B145C0000000409F5A52C00C00000013000000321400003C000000060000000200000000000060FF3F8F40000000C05CF949C0000000C0CBDB54C000000060FF3F8F400000004050B145C0000000409F5A52C00C000000130000003A1400003C00000006
310
0000000200000000000060FF3F8F4000000000A83849C000000040424F55C000000060FF3F8F40000000003B2645C000000000BF0E53C00C00000013000000421400003C000000060000000200000000000060FF3F8F4000000000715C48C00000006072B555C000000060FF3F8F40000000003B2645C000000000BF0E53C0
310
0C000000130000004A1400003C000000060000000200000000000060FF3F8F4000000000566847C0000000A0AD0C56C000000060FF3F8F40000000C0F6F943C0000000E0B38653C00C00000013000000521400003C000000060000000200000000000060FF3F8F4000000040496046C0000000C08C5356C000000060FF3F8F
310
40000000C0F6F943C0000000E0B38653C00C000000130000005A1400003C000000060000000200000000000060FF3F8F40000000C0844845C000000000ED8856C000000060FF3F8F40000000C0F6F943C0000000E0B38653C00C00000013000000621400003C000000060000000200000000000060FF3F8F40000000C0813E
310
43C00000004084F956C000000060FF3F8F40000000809C8C40C000000000094454C00C000000130000006A1400003C000000060000000200000000000060FF3F8F40000000C02A6F41C000000020189F57C000000060FF3F8F400000008048BF3BC0000000E0732C55C00C00000013000000721400003C0000000600000002
310
00000000000060FF3F8F40000000A090DE3FC0000000403B7258C000000060FF3F8F4000000040EC3237C0000000C0CA5356C00C000000130000007A1400003C000000060000000200000000000060FF3F8F400000002027A03DC0000000E0746959C000000060FF3F8F4000000040EC3237C0000000C0CA5356C00C000000
310
13000000821400003C000000060000000200000000000060FF3F8F4000000020DD3C3CC0000000C0AD795AC000000060FF3F8F4000000040EC3237C0000000C0CA5356C00C000000130000008A1400003C000000060000000200000000000060FF3F8F4000000060347237C0000000C0AF965BC000000060FF3F8F40000000
310
40EC3237C0000000C0CA5356C00C00000013000000921400003C000000060000000200000000000060FF3F8F4000000040EC3237C0000000C0CA5356C000000060FF3F8F4000000060343237C000000020049B5BC00C000000130000009A1400003C000000060000000200000000000060FF3F8F400000006034F236C00000
310
008000B75BC000000060FF3F8F40000000C0BF5E32C00000000028C35CC00C00000013000000A21400003C000000060000000200000000000060FF3F8F4000000040EC3237C0000000C0CA5356C000000060FF3F8F40000000805A0337C000000020D8A65BC00C00000013000000AA1400003C000000060000000200000000
310
000060FF3F8F40000000C0BFDE31C0000000C078E35CC000000060FF3F8F400000000000001DBF00000020F77E5DC00C00000013000000B21400003C000000060000000200000000000060FF3F8F40000000C0BFDE31C0000000C078E35CC000000060FF3F8F400000000050BFECBF00000040561960C00C00000013000000
310
BA1400003C000000060000000200000000000060FF3F8F400000000000001DBF00000020F77E5DC000000060FF3F8F40000000C0E5EF31C00000006050D35CC00C00000013000000C21400003C000000060000000200000000000060FF3F8F400000000000001DBF00000020F77E5DC000000060FF3F8F40000000C0BF1E32
310
C0000000407CC75CC00C00000013000000CA1400003C000000060000000200000000000060FF3F8F40000000805A0337C000000020D8A65BC000000060FF3F8F40000000C0BF1E32C0000000407CC75CC00C00000013000000D21400003C000000060000000200000000000060FF3F8F40000000C0BFDE31C0000000C078E3
310
5CC000000060FF3F8F40000000008C82F3BF00000020BE2C60C00C00000013000000DA1400003C000000060000000200000000000060FF3F8F40000000C0BFDE31C0000000C078E35CC000000060FF3F8F4000000000A8B5F4BF000000C09C4260C00C00000013000000E21400003C000000060000000200000000000060FF
310
3F8F40000000004C5906C0000000C089CE61C000000060FF3F8F40000000000067E6BF00000000536960C00C00000013000000EA1400003C000000060000000200000000000060FF3F8F400000000030CDF1BF00000040D15760C000000060FF3F8F40000000007A4310C0000000E041ED61C00C00000013000000F2140000
310
3C000000060000000200000000000060FF3F8F40000000C0BFDE31C0000000C078E35CC000000060FF3F8F40000000007A4310C0000000E041ED61C00C00000013000000FA1400003C000000060000000200000000000060FF3F8F40000000C0BFDE31C0000000C078E35CC000000060FF3F8F40000000002E2D14C0000000
310
E0AE1562C00C00000013000000021500003C000000060000000200000000000060FF3F8F40000000C0BFDE31C0000000C078E35CC000000060FF3F8F4000000000BFA316C000000060FC4462C00C000000130000000A1500003C000000060000000200000000000060FF3F8F40000000C0BFDE31C0000000C078E35CC00000
310
0060FF3F8F4000000000FF7A17C0000000A0DB7762C00C00000013000000121500003C000000060000000200000000000060FF3F8F4000000020C0DE31C000000000B86F68C000000060FF3F8F40000000004CF417C000000020032E69C00C000000130000001A1500003C000000060000000200000000000060FF3F8F4000
310
0000004CF417C000000020032E69C000000060FF3F8F40000000005FF031C000000060E67768C00C00000013000000221500003C000000060000000200000000000060FF3F8F40000000E0612032C000000020D47D68C000000060FF3F8F40000000004CF417C000000020032E69C00C000000130000002A1500003C000000
310
060000000200000000000060FF3F8F400000008059D834C000000000D9AE68C000000060FF3F8F40000000004CF417C000000020032E69C00C00000013000000321500003C000000060000000200000000000060FF3F8F400000008059D834C0000000609F2669C000000060FF3F8F4000000000AA2D19C0000000003EA869
310
C00C000000130000003A1500003C000000060000000200000000000060FF3F8F4000000000AA2D19C0000000003EA869C000000060FF3F8F4000000080F8E934C0000000C0CD2E69C00C00000013000000421500003C000000060000000200000000000060FF3F8F4000000060FB1935C000000080BB3469C000000060FF3F
310
8F4000000000AA2D19C0000000003EA869C00C000000130000004A1500003C000000060000000200000000000060FF3F8F40000000C0CCD037C0000000A0F97469C000000060FF3F8F4000000000355D17C0000000E09F106AC00C00000013000000521500003C000000060000000200000000000060FF3F8F400000000066
310
6639C0000000E015BE69C000000060FF3F8F4000000000355D17C0000000E09F106AC00C000000130000005A1500003C000000060000000200000000000060FF3F8F40000000A0483E3AC00000008011136AC000000060FF3F8F4000000000355D17C0000000E09F106AC00C00000013000000621500003C00000006000000
310
0200000000000060FF3F8F40000000C023453AC000000040526C6AC000000060FF3F8F4000000000355D17C0000000E09F106AC00C000000130000006A1500003C000000060000000200000000000060FF3F8F40000000A0597A39C000000020D1C16AC000000060FF3F8F400000000065E012C0000000A099736AC00C0000
310
0013000000721500003C000000060000000200000000000060FF3F8F40000000000FF037C000000000E80B6BC000000060FF3F8F400000000065E012C0000000A099736AC00C000000130000007A1500003C000000060000000200000000000060FF3F8F40000000E0AFC935C000000080EE436BC000000060FF3F8F400000
310
000065E012C0000000A099736AC00C00000013000000821500003C000000060000000200000000000060FF3F8F4000000000E5522CC000000020C5D36BC000000060FF3F8F4000000000A8D407C000000020C2CC6AC00C000000130000008A1500003C000000060000000200000000000060FF3F8F4000000080641F26C000
310
00008050216CC000000060FF3F8F4000000000CE6704C0000000C0E6D86AC00C00000013000000921500003C000000060000000200000000000060FF3F8F4000000000015E21C0000000C010866CC000000060FF3F8F40000000007E2200C00000004053DF6AC00C000000130000009A1500003C0000000600000002000000
310
00000060FF3F8F4000000000015E21C0000000C010866CC000000060FF3F8F400000000000001FBF0000006014406DC00C00000013000000A21500003C000000060000000200000000000060FF3F8F40000000001DC21CC00000008036FB6CC000000060FF3F8F400000000058BFECBF000000000B556DC00C000000130000
310
00AA1500003C000000060000000200000000000060FF3F8F40000000001DC21CC00000008036FB6CC000000060FF3F8F40000000009082F3BF0000000073686DC00C00000013000000B21500003C000000060000000200000000000060FF3F8F400000000071B81AC000000080D6786DC000000060FF3F8F4000000000B0B5
310
F4BF000000A0517E6DC00C00000013000000BA1500003C000000060000000200000000000060FF3F8F400000000071B81AC0000000206AD16DC000000060FF3F8F400000000034CDF1BF0000002086936DC00C00000013000000C21500003C000000060000000200000000000060FF3F8F40000000001067E6BF000000E007
310
A56DC000000060FF3F8F400000000062EA1AC0000000E05FD86DC00C00000013000000CA1500003C000000060000000200000000000060FF3F8F400000000062EA1AC0000000E05FD86DC000000060FF3F8F4000000000C43B18C0000000005A256FC00C00000013000000D21500003C000000060000000200000000000060
310
FF3F8F400000000000001FBF000000C0B1B16DC000000060FF3F8F4000000000C43B18C0000000005A256FC00C00000013000000DA1500003C000000060000000200000000000060FF3F8F40000000804D3625C0000000C0AC4A6EC000000060FF3F8F4000000000D56B24C0000000007CCC6EC00C00000013000000E21500
310
003C000000060000000200000000000060FF3F8F400000000067FB23C000000000B5226EC000000060FF3F8F400000008081BB22C000000000CFEF6EC00C00000013000000EA1500003C000000060000000200000000000060FF3F8F4000000000E11D22C000000060C8016EC000000060FF3F8F400000000004191FC00000
310
0000C3106FC00C00000013000000F21500003C000000060000000200000000000060FF3F8F4000000000D1851FC0000000A076EA6DC000000060FF3F8F4000000000F9281BC0000000803F1B6FC00C00000013000000FA1500003C000000060000000200000000000060FF3F8F40000000003E411CC0000000E020E16DC000
310
000060FF3F8F400000000098C819C000000040DB1C6FC00C00000013000000021600003C000000060000000200000000000060FF3F8F400000000062761BC0000000A0F9DD6DC000000060FF3F8F4000000000ACE018C0000000808C1F6FC00C000000130000000A1600003C000000060000000200000000000060FF3F8F40
310
000000001F0018C000000040EB2C6FC000000060FF3F8F400000000000001FBF00000000FCFF6FC0
100
AcDbSubDMesh
 71
     2
 72
     0
 91
        0
 92
      332
 10
999.9996948242188
 20
-114.8006744384765
 30
-14.71385955810547
 10
999.9996948242188
 20
-113.1505432128906
 30
-17.01601409912109
 10
999.9996948242188
 20
-110.9503479003906
 30
-18.7883071899414
 10
999.9996948242188
 20
-108.3607025146484
 30
-19.90127563476562
 10
999.9996948242188
 20
-105.5707550048828
 30
-20.27368927001953
 10
-1000.0
 20
-105.5707550048828
 30
-20.27369689941406
 10
-1000.0
 20
-108.3607025146484
 30
-19.90127563476562
 10
-1000.0
 20
-110.9503479003906
 30
-18.7883071899414
 10
-1000.0
 20
-113.1505508422851
 30
-17.01601409912109
 10
-1000.0
 20
-114.8006744384765
 30
-14.71385955810547
 10
999.9996948242188
 20
-102.18212890625
 30
-20.25983428955078
 10
-1000.0
 20
-102.18212890625
 30
-20.25984191894531
 10
999.9996948242188
 20
-101.6800994873047
 30
-20.76476287841797
 10
999.9996948242188
 20
-101.6800994873047
 30
-24.08112335205078
 10
-1000.0
 20
-101.6800994873047
 30
-24.08111572265625
 10
-1000.0
 20
-101.6800994873047
 30
-20.7647705078125
 10
999.9996948242188
 20
-97.89410400390625
 30
-24.08112335205078
 10
-1000.0
 20
-97.89410400390625
 30
-24.08111572265625
 10
999.9996948242188
 20
-65.69705200195312
 30
-59.14749526977539
 10
-1000.0
 20
-65.69705200195312
 30
-59.14749526977539
 10
-1000.0
 20
-65.87881469726562
 30
-52.45186233520508
 10
-1000.0
 20
-67.41154479980469
 30
-45.93490600585937
 10
-1000.0
 20
-70.23062133789062
 30
-39.87165832519531
 10
-1000.0
 20
-74.21708679199219
 30
-34.51803588867188
 10
-1000.0
 20
-79.20271301269531
 30
-30.09999084472656
 10
-1000.0
 20
-84.97706604003907
 30
-26.80398559570313
 10
-1000.0
 20
-91.29643249511719
 30
-24.76908874511719
 10
999.9996948242188
 20
-91.29643249511719
 30
-24.76908111572266
 10
999.9996948242188
 20
-84.97706604003907
 30
-26.8039779663086
 10
999.9996948242188
 20
-79.20271301269531
 30
-30.09999847412109
 10
999.9996948242188
 20
-74.21708679199219
 30
-34.51802825927734
 10
999.9996948242188
 20
-70.23062133789062
 30
-39.87165069580078
 10
999.9996948242188
 20
-67.41154479980469
 30
-45.93489837646484
 10
999.9996948242188
 20
-65.87881469726562
 30
-52.45186233520508
 10
999.9996948242188
 20
-65.69705200195312
 30
-64.27355194091797
 10
-1000.0
 20
-65.69705200195312
 30
-64.27355194091797
 10
999.9996948242188
 20
-61.12105560302734
 30
-64.27355194091797
 10
-1000.0
 20
-61.12105560302734
 30
-64.27355194091797
 10
999.9996948242188
 20
-60.62105560302734
 30
-64.77848052978515
 10
999.9996948242188
 20
-60.62105560302734
 30
-69.81465148925781
 10
-1000.0
 20
-60.62105560302734
 30
-69.81465148925781
 10
-1000.0
 20
-60.62105560302734
 30
-64.77848052978515
 10
999.9996948242188
 20
-56.04505920410156
 30
-69.81465148925781
 10
-1000.0
 20
-56.04505920410156
 30
-69.81465148925781
 10
999.9996948242188
 20
-55.54505920410156
 30
-70.31958770751953
 10
999.9996948242188
 20
-55.54505920410156
 30
-72.41054534912109
 10
-1000.0
 20
-55.54505920410156
 30
-72.41054534912109
 10
-1000.0
 20
-55.54505920410156
 30
-70.31958770751953
 10
999.9996948242188
 20
-55.39640045166016
 30
-74.76530456542969
 10
999.9996948242188
 20
-54.95293426513672
 30
-77.0816650390625
 10
999.9996948242188
 20
-54.22177886962891
 30
-79.32255554199219
 10
999.9996948242188
 20
-53.21466064453125
 30
-81.45176696777344
 10
999.9996948242188
 20
-51.94814300537109
 30
-83.43431091308593
 10
999.9996948242188
 20
-50.442626953125
 30
-85.23841857910156
 10
999.9996948242188
 20
-48.72219848632813
 30
-86.8351058959961
 10
999.9996948242188
 20
-46.81512451171875
 30
-88.19809722900391
 10
999.9996948242188
 20
-44.75223541259765
 30
-89.30546569824219
 10
999.9996948242188
 20
-42.56655120849609
 30
-90.13946533203125
 10
-1000.0
 20
-42.56655120849609
 30
-90.13946533203125
 10
-1000.0
 20
-44.75223541259765
 30
-89.30546569824219
 10
-1000.0
 20
-46.81512451171875
 30
-88.19809722900391
 10
-1000.0
 20
-48.72219848632813
 30
-86.8351058959961
 10
-1000.0
 20
-50.442626953125
 30
-85.23841857910156
 10
-1000.0
 20
-51.94814300537109
 30
-83.43431091308593
 10
-1000.0
 20
-53.21466064453125
 30
-81.45176696777344
 10
-1000.0
 20
-54.22177886962891
 30
-79.32255554199219
 10
-1000.0
 20
-54.95293426513672
 30
-77.0816650390625
 10
-1000.0
 20
-55.39640045166016
 30
-74.76530456542969
 10
999.9996948242188
 20
-27.76811218261719
 30
-110.3544769287109
 10
-1000.0
 20
-27.76811218261719
 30
-110.3544769287109
 10
-1000.0
 20
-28.23774909973145
 30
-105.9012298583984
 10
-1000.0
 20
-29.62559700012207
 30
-101.6477584838867
 10
-1000.0
 20
-31.86939430236817
 30
-97.78486633300781
 10
-1000.0
 20
-34.86849212646485
 30
-94.48584747314454
 10
-1000.0
 20
-38.48833465576172
 30
-91.89869689941406
 10
999.9996948242188
 20
-38.48833465576172
 30
-91.89869689941406
 10
999.9996948242188
 20
-34.86849212646485
 30
-94.48584747314454
 10
999.9996948242188
 20
-31.86939430236817
 30
-97.78486633300781
 10
999.9996948242188
 20
-29.62559700012207
 30
-101.6477584838867
 10
999.9996948242188
 20
-28.23774909973145
 30
-105.9012298583984
 10
999.9996948242188
 20
-23.44611167907715
 30
-110.3544769287109
 10
-1000.0
 20
-23.44611167907715
 30
-110.3544769287109
 10
999.9996948242188
 20
-22.94611167907715
 30
-110.8594055175781
 10
999.9996948242188
 20
-22.94611167907715
 30
-115.04931640625
 10
-1000.0
 20
-22.94611167907715
 30
-115.04931640625
 10
-1000.0
 20
-22.94611167907715
 30
-110.8594055175781
 10
999.9996948242188
 20
-18.37011337280273
 30
-115.04931640625
 10
-1000.0
 20
-18.37011337280273
 30
-115.04931640625
 10
999.9996948242188
 20
-17.87011337280273
 30
-115.5542449951172
 10
999.9996948242188
 20
-17.87011909484863
 30
-195.4912109375
 10
-1000.0
 20
-17.87011909484863
 30
-195.4912109375
 10
-1000.0
 20
-17.87011337280273
 30
-115.5542449951172
 10
999.9996948242188
 20
-18.12649345397949
 30
-195.932144165039
 10
999.9996948242188
 20
-20.8451156616211
 30
-197.4639892578125
 10
-1000.0
 20
-20.8451156616211
 30
-197.4639892578125
 10
-1000.0
 20
-18.12649345397949
 30
-195.932144165039
 10
999.9996948242188
 20
-20.8451156616211
 30
-201.2069549560547
 10
-1000.0
 20
-20.8451156616211
 30
-201.2069549560547
 10
999.9996948242188
 20
-21.10149192810059
 30
-201.6478881835937
 10
-1000.0
 20
-21.10149192810059
 30
-201.6478881835937
 10
999.9996948242188
 20
-23.81562423706055
 30
-203.6554718017578
 10
999.9996948242188
 20
-25.39999389648438
 30
-205.9401702880859
 10
999.9996948242188
 20
-26.24329566955566
 30
-208.5958862304687
 10
999.9996948242188
 20
-26.27007675170899
 30
-211.3850402832031
 10
999.9996948242188
 20
-25.47793006896973
 30
-214.0567779541016
 10
999.9996948242188
 20
-23.93772888183594
 30
-216.3720703125
 10
999.9996948242188
 20
-21.78783988952637
 30
-218.1228637695312
 10
-1000.0
 20
-21.78783988952637
 30
-218.1228637695312
 10
-1000.0
 20
-23.93772888183594
 30
-216.3720703125
 10
-1000.0
 20
-25.47793006896973
 30
-214.0567779541016
 10
-1000.0
 20
-26.27007675170899
 30
-211.3850402832031
 10
-1000.0
 20
-26.24329566955566
 30
-208.5958862304687
 10
-1000.0
 20
-25.39999389648438
 30
-205.9401702880859
 10
-1000.0
 20
-23.81562423706055
 30
-203.6554718017578
 10
999.9996948242188
 20
-14.16190338134765
 30
-222.6178131103516
 10
-1000.0
 20
-14.16190338134765
 30
-222.6178131103516
 10
999.9996948242188
 20
-6.680118560791015
 30
-235.7761840820312
 10
-1000.0
 20
-6.680118560791015
 30
-235.7761840820312
 10
-1000.0
 20
-7.189563751220703
 30
-231.8504028320313
 10
-1000.0
 20
-8.683601379394531
 30
-228.1895446777344
 10
-1000.0
 20
-11.06130981445312
 30
-225.0410766601563
 10
999.9996948242188
 20
-11.06131362915039
 30
-225.0410766601563
 10
999.9996948242188
 20
-8.683601379394531
 30
-228.1895446777344
 10
999.9996948242188
 20
-7.189563751220703
 30
-231.8504028320313
 10
999.9996948242188
 20
-6.680118560791015
 30
-238.5442047119141
 10
-1000.0
 20
-6.680118560791015
 30
-238.5442047119141
 10
999.9996948242188
 20
-7.063713073730468
 30
-239.0352630615234
 10
999.9996948242188
 20
-7.880680084228515
 30
-239.3269805908203
 10
999.9996948242188
 20
-9.058357238769531
 30
-240.0557098388672
 10
999.9996948242188
 20
-9.991020202636718
 30
-241.0845947265625
 10
999.9996948242188
 20
-10.60606002807617
 30
-242.3335876464844
 10
999.9996948242188
 20
-10.85560607910156
 30
-243.7055053710937
 10
999.9996948242188
 20
-10.72029495239258
 30
-245.0936584472656
 10
999.9996948242188
 20
-10.21060943603515
 30
-246.39013671875
 10
999.9996948242188
 20
-9.366222381591796
 30
-247.4940185546875
 10
999.9996948242188
 20
-7.774429321289062
 30
-248.5238037109375
 10
999.9996948242188
 20
-6.79001235961914
 30
-248.8515014648438
 10
999.9996948242188
 20
-6.445892333984375
 30
-248.9017639160156
 10
-1000.0
 20
-6.445892333984375
 30
-248.9017791748047
 10
-1000.0
 20
-6.79001235961914
 30
-248.8515014648438
 10
-1000.0
 20
-7.774429321289062
 30
-248.5238189697266
 10
-1000.0
 20
-9.366222381591796
 30
-247.4940338134766
 10
-1000.0
 20
-10.21060943603515
 30
-246.3901519775391
 10
-1000.0
 20
-10.72029495239258
 30
-245.0936737060547
 10
-1000.0
 20
-10.85560607910156
 30
-243.7055206298828
 10
-1000.0
 20
-10.6060562133789
 30
-242.3336029052734
 10
-1000.0
 20
-9.991020202636718
 30
-241.0845947265625
 10
-1000.0
 20
-9.058357238769531
 30
-240.0557098388672
 10
-1000.0
 20
-7.880680084228515
 30
-239.3269805908203
 10
-1000.0
 20
-7.063713073730468
 30
-239.0352630615234
 10
999.9996948242188
 20
-6.000118255615234
 30
-249.4037170410156
 10
999.9996948242188
 20
-6.000118255615234
 30
-255.99951171875
 10
-1000.0
 20
-6.0001220703125
 30
-255.9995269775391
 10
-1000.0
 20
-6.000118255615234
 30
-249.4037322998047
 10
999.9996948242188
 20
-53.93222045898437
 30
-51.26262664794921
 10
999.9996948242188
 20
-55.78943634033203
 30
-42.81581878662109
 10
999.9996948242188
 20
-59.22259521484375
 30
-34.88793182373047
 10
999.9996948242188
 20
-64.10310363769531
 30
-27.77606964111328
 10
999.9996948242188
 20
-70.24807739257813
 30
-21.74655914306641
 10
999.9996948242188
 20
-77.42800903320312
 30
-17.02458953857422
 10
999.9996948242188
 20
-85.37402343750001
 30
-13.78711700439453
 10
999.9996948242188
 20
-93.78834533691406
 30
-12.15540313720703
 10
-1000.0
 20
-93.78834533691406
 30
-12.1553955078125
 10
-1000.0
 20
-85.37402343750001
 30
-13.787109375
 10
-1000.0
 20
-77.42800903320312
 30
-17.02459716796875
 10
-1000.0
 20
-70.24807739257813
 30
-21.74656677246094
 10
-1000.0
 20
-64.10310363769531
 30
-27.77607727050781
 10
-1000.0
 20
-59.22259521484375
 30
-34.88792419433594
 10
-1000.0
 20
-55.78943634033203
 30
-42.81582641601562
 10
-1000.0
 20
-53.93222045898437
 30
-51.26263427734375
 10
-1000.0
 20
-53.32825469970703
 30
-53.75809860229492
 10
-1000.0
 20
-51.77831268310547
 30
-56.79409408569336
 10
-1000.0
 20
-49.44937133789062
 30
-59.27093505859375
 10
999.9996948242188
 20
-49.44937133789062
 30
-59.27093505859375
 10
999.9996948242188
 20
-51.77831268310547
 30
-56.79409408569336
 10
999.9996948242188
 20
-53.32825469970703
 30
-53.75809860229492
 10
999.9996948242188
 20
-43.54505920410156
 30
-69.81465148925781
 10
999.9996948242188
 20
-43.89773559570312
 30
-66.89830017089843
 10
999.9996948242188
 20
-44.9350357055664
 30
-64.15336608886718
 10
999.9996948242188
 20
-46.59598541259765
 30
-61.74119186401367
 10
-1000.0
 20
-46.59598541259765
 30
-61.74119186401367
 10
-1000.0
 20
-44.9350357055664
 30
-64.15336608886718
 10
-1000.0
 20
-43.89773559570312
 30
-66.89830017089843
 10
-1000.0
 20
-43.54505920410156
 30
-69.81465148925781
 10
999.9996948242188
 20
-43.38526153564453
 30
-73.41596984863281
 10
-1000.0
 20
-43.38526153564453
 30
-73.41596984863281
 10
-1000.0
 20
-42.29867553710938
 30
-76.23040771484375
 10
-1000.0
 20
-39.95284271240235
 30
-78.10472869873047
 10
999.9996948242188
 20
-39.95284271240235
 30
-78.10472869873047
 10
999.9996948242188
 20
-42.29867553710938
 30
-76.23040771484375
 10
999.9996948242188
 20
-23.19891738891602
 30
-89.30924987792968
 10
999.9996948242188
 20
-27.74720001220703
 30
-84.69457244873046
 10
999.9996948242188
 20
-33.09852600097656
 30
-81.06304931640625
 10
-1000.0
 20
-33.09852600097656
 30
-81.06304931640625
 10
-1000.0
 20
-27.74720001220703
 30
-84.69457244873046
 10
-1000.0
 20
-23.19891738891602
 30
-89.30924987792968
 10
999.9996948242188
 20
-5.870113372802734
 30
-147.7455596923828
 10
-1000.0
 20
-5.870113372802734
 30
-147.7455596923828
 10
999.9996948242188
 20
-5.988571166992187
 30
-201.4378814697266
 10
-1000.0
 20
-5.988571166992187
 30
-201.4378814697266
 10
-1000.0
 20
-6.294593811035156
 30
-205.257568359375
 10
-1000.0
 20
-5.841022491455078
 30
-208.5195159912109
 10
-1000.0
 20
-4.719135284423828
 30
-211.6125030517578
 10
-1000.0
 20
-2.978836059570312
 30
-214.3986968994141
 10
999.9996948242188
 20
-2.978836059570312
 30
-214.3986968994141
 10
999.9996948242188
 20
-4.719135284423828
 30
-211.6125030517578
 10
999.9996948242188
 20
-5.841022491455078
 30
-208.5195159912109
 10
999.9996948242188
 20
-6.294593811035156
 30
-205.257568359375
 10
-1000.0
 20
-2.550685882568359
 30
-214.7781677246094
 10
-1000.0
 20
-2.016841888427734
 30
-214.9789123535156
 10
999.9996948242188
 20
-2.016841888427734
 30
-214.9789123535156
 10
999.9996948242188
 20
-2.550685882568359
 30
-214.7781677246094
 10
999.9996948242188
 20
-2.793601989746093
 30
-142.4543151855468
 10
-1000.0
 20
-2.793601989746093
 30
-142.4543151855468
 10
999.9996948242188
 20
-0.0001106262207031
 30
-117.9838333129882
 10
-1000.0
 20
-0.0001106262207031
 30
-117.9838333129882
 10
-1000.0
 20
-0.8983573913574218
 30
-234.6575927734375
 10
-1000.0
 20
-1.219375610351562
 30
-235.2640380859375
 10
-1000.0
 20
-1.294357299804687
 30
-235.9474639892578
 10
-1000.0
 20
-1.112598419189453
 30
-236.6101226806641
 10
-1000.0
 20
-0.7000808715820313
 30
-237.1572113037109
 10
999.9996948242188
 20
-0.7000808715820313
 30
-237.1572113037109
 10
999.9996948242188
 20
-1.112598419189453
 30
-236.6101226806641
 10
999.9996948242188
 20
-1.294357299804687
 30
-235.9474639892578
 10
999.9996948242188
 20
-1.219375610351562
 30
-235.2640380859375
 10
999.9996948242188
 20
-0.8983573913574218
 30
-234.6575927734375
 10
-1000.0
 20
-0.0001182556152344
 30
-237.5529479980469
 10
999.9996948242188
 20
-0.0001182556152344
 30
-237.5529479980469
 10
999.9996948242188
 20
-0.0001182556152344
 30
-234.0024871826172
 10
-1000.0
 20
-0.0001182556152344
 30
-234.0024871826172
 10
-1000.0
 20
-0.8983535766601562
 30
-128.7917785644531
 10
-1000.0
 20
-1.219371795654296
 30
-129.398208618164
 10
-1000.0
 20
-1.294349670410156
 30
-130.0816345214844
 10
-1000.0
 20
-1.112594604492187
 30
-130.7442932128906
 10
-1000.0
 20
-0.7000732421875
 30
-131.2913818359375
 10
999.9996948242188
 20
-0.7000732421875
 30
-131.2913818359375
 10
999.9996948242188
 20
-1.112594604492187
 30
-130.7442932128906
 10
999.9996948242188
 20
-1.294349670410156
 30
-130.0816345214844
 10
999.9996948242188
 20
-1.219371795654296
 30
-129.398208618164
 10
999.9996948242188
 20
-0.8983535766601562
 30
-128.7917785644531
 10
-1000.0
 20
-0.0001144409179688
 30
-131.6871185302734
 10
999.9996948242188
 20
-0.0001144409179688
 30
-131.6871185302734
 10
999.9996948242188
 20
-0.0001144409179688
 30
-128.1366577148437
 10
-1000.0
 20
-0.0001144409179688
 30
-128.1366577148437
 10
999.9996948242188
 20
-5.659908294677734
 30
-146.1558074951172
 10
999.9996948242188
 20
-5.044120788574218
 30
-144.6775970458984
 10
999.9996948242188
 20
-4.065895080566406
 30
-143.4142913818359
 10
-1000.0
 20
-4.065895080566406
 30
-143.4142913818359
 10
-1000.0
 20
-5.044120788574218
 30
-144.6775970458984
 10
-1000.0
 20
-5.659908294677734
 30
-146.1558074951172
 10
-1000.0
 20
-6.865608215332031
 30
-238.9367218017578
 10
-1000.0
 20
-6.728889465332031
 30
-238.7617034912109
 10
999.9996948242188
 20
-6.728889465332031
 30
-238.7617034912109
 10
999.9996948242188
 20
-6.865608215332031
 30
-238.9367218017578
 10
-1000.0
 20
-6.058364868164062
 30
-249.167236328125
 10
-1000.0
 20
-6.219406127929687
 30
-248.9859008789062
 10
999.9996948242188
 20
-6.219406127929687
 30
-248.9859008789062
 10
999.9996948242188
 20
-6.058364868164062
 30
-249.167236328125
 10
-1000.0
 20
-101.7474212646484
 30
-20.51171875
 10
-1000.0
 20
-101.9312744140625
 30
-20.32681274414063
 10
999.9996948242188
 20
-101.9312744140625
 30
-20.32680511474609
 10
999.9996948242188
 20
-101.7474212646484
 30
-20.51171112060547
 10
-1000.0
 20
-60.68804931640625
 30
-64.52601623535156
 10
-1000.0
 20
-60.87105560302735
 30
-64.34120178222656
 10
999.9996948242188
 20
-60.87105560302735
 30
-64.34120178222656
 10
999.9996948242188
 20
-60.68804931640625
 30
-64.52601623535156
 10
-1000.0
 20
-55.61204528808594
 30
-70.06712341308594
 10
-1000.0
 20
-55.79505920410156
 30
-69.8823013305664
 10
999.9996948242188
 20
-55.79505920410156
 30
-69.8823013305664
 10
999.9996948242188
 20
-55.61204528808594
 30
-70.06712341308594
 10
-1000.0
 20
-23.01309967041015
 30
-110.6069412231445
 10
-1000.0
 20
-23.19611167907715
 30
-110.4221267700195
 10
999.9996948242188
 20
-23.19611167907715
 30
-110.4221267700195
 10
999.9996948242188
 20
-23.01309967041015
 30
-110.6069412231445
 10
-1000.0
 20
-17.93709945678711
 30
-115.3017807006836
 10
-1000.0
 20
-18.12011337280273
 30
-115.116958618164
 10
999.9996948242188
 20
-18.12011337280273
 30
-115.116958618164
 10
999.9996948242188
 20
-17.93709945678711
 30
-115.3017807006836
 10
-1000.0
 20
-17.93894958496094
 30
-195.7468719482422
 10
999.9996948242188
 20
-17.93894958496094
 30
-195.7468719482422
 10
-1000.0
 20
-20.91394805908203
 30
-201.4626159667969
 10
999.9996948242188
 20
-20.91394805908203
 30
-201.4626159667969
 10
999.9996948242188
 20
-0.0001144409179688
 30
-140.8799133300781
 10
-1000.0
 20
-0.0001144409179688
 30
-140.8799133300781
 10
999.9996948242188
 20
-0.0001144409179688
 30
-215.5235443115234
 10
-1000.0
 20
-0.0001144409179688
 30
-215.5235443115234
 10
999.9996948242188
 20
-135.0001068115234
 30
0.0000076293945313
 10
999.9996948242188
 20
-135.0001068115234
 30
-5.049301147460937
 10
-1000.0
 20
-135.0001068115234
 30
-5.049301147460937
 10
-1000.0
 20
-135.0001068115234
 30
0.0000076293945313
 10
999.9996948242188
 20
-129.0001068115234
 30
-5.049301147460937
 10
-1000.0
 20
-129.0001068115234
 30
-5.049301147460937
 10
999.9996948242188
 20
-128.5001068115234
 30
-5.554229736328125
 10
999.9996948242188
 20
-128.5001068115234
 30
-9.744140625
 10
-1000.0
 20
-128.5001068115234
 30
-9.744140625
 10
-1000.0
 20
-128.5001068115234
 30
-5.554229736328125
 10
999.9996948242188
 20
-123.0131072998047
 30
-9.744132995605468
 10
-1000.0
 20
-123.0131072998047
 30
-9.744132995605468
 10
-1000.0
 20
-116.2691802978515
 30
-12.66290283203125
 10
-1000.0
 20
-118.2260818481445
 30
-11.08167266845703
 10
-1000.0
 20
-120.529670715332
 30
-10.08467864990234
 10
999.9996948242188
 20
-120.5296630859375
 30
-10.08467864990234
 10
999.9996948242188
 20
-118.22607421875
 30
-11.08167266845703
 10
999.9996948242188
 20
-116.2691802978515
 30
-12.66290283203125
 10
-1000.0
 20
-99.02766418457032
 30
-7.6905517578125
 10
999.9996948242188
 20
-99.02766418457032
 30
-7.6905517578125
 10
-1000.0
 20
-119.5236358642578
 30
-0.7643203735351563
 10
-1000.0
 20
-118.8924942016601
 30
-1.187248229980468
 10
-1000.0
 20
-118.1449432373047
 30
-1.310523986816406
 10
-1000.0
 20
-117.4134750366211
 30
-1.112373352050781
 10
999.9996948242188
 20
-117.4134674072265
 30
-1.112373352050781
 10
999.9996948242188
 20
-118.1449432373047
 30
-1.310523986816406
 10
999.9996948242188
 20
-118.8924865722656
 30
-1.187248229980468
 10
999.9996948242188
 20
-119.5236358642578
 30
-0.7643203735351563
 10
-1000.0
 20
-115.2664413452148
 30
0.0000076293945313
 10
999.9996948242188
 20
-115.2664337158203
 30
0.0000076293945313
 10
999.9996948242188
 20
-119.9686584472656
 30
0.0000076293945313
 10
-1000.0
 20
-119.9686660766601
 30
0.0000076293945313
 10
-1000.0
 20
-128.5670928955078
 30
-5.301765441894531
 10
-1000.0
 20
-128.7501068115234
 30
-5.116943359375
 10
999.9996948242188
 20
-128.7501068115234
 30
-5.116943359375
 10
999.9996948242188
 20
-128.5670928955078
 30
-5.301765441894531
 10
999.9996948242188
 20
-95.55128479003906
 30
-11.7105484008789
 10
999.9996948242188
 20
-97.10162353515626
 30
-10.75303649902344
 10
999.9996948242188
 20
-98.29698181152345
 30
-9.370719909667968
 10
-1000.0
 20
-98.29698181152345
 30
-9.370719909667968
 10
-1000.0
 20
-97.10162353515626
 30
-10.75303649902344
 10
-1000.0
 20
-95.55128479003906
 30
-11.71055603027344
 10
999.9996948242188
 20
-101.1740570068359
 30
0.0000076293945313
 10
-1000.0
 20
-101.1740570068359
 30
0.0000076293945313
 10
-1000.0
 20
-0.0001182556152344
 30
-255.9995269775391
 10
999.9996948242188
 20
-0.0001182556152344
 30
-255.99951171875
 93
     1788
 90
        4
 90
      287
 90
      286
 90
      289
 90
      288
 90
        4
 90
      286
 90
      316
 90
      317
 90
      289
 90
        4
 90
      316
 90
      313
 90
      306
 90
      317
 90
        4
 90
      313
 90
      312
 90
      307
 90
      306
 90
        4
 90
      312
 90
      311
 90
      308
 90
      307
 90
        4
 90
      311
 90
      310
 90
      309
 90
      308
 90
        4
 90
      310
 90
      315
 90
      314
 90
      309
 90
        4
 90
      315
 90
      328
 90
      329
 90
      314
 90
        4
 90
      328
 90
      305
 90
      304
 90
      329
 90
        4
 90
      305
 90
      324
 90
      325
 90
      304
 90
        4
 90
      324
 90
      323
 90
      326
 90
      325
 90
        4
 90
      323
 90
      322
 90
      327
 90
      326
 90
        4
 90
      322
 90
      161
 90
      162
 90
      327
 90
        4
 90
      161
 90
      160
 90
      163
 90
      162
 90
        4
 90
      160
 90
      159
 90
      164
 90
      163
 90
        4
 90
      159
 90
      158
 90
      165
 90
      164
 90
        4
 90
      158
 90
      157
 90
      166
 90
      165
 90
        4
 90
      157
 90
      156
 90
      167
 90
      166
 90
        4
 90
      156
 90
      155
 90
      168
 90
      167
 90
        4
 90
      155
 90
      154
 90
      169
 90
      168
 90
        4
 90
      154
 90
      175
 90
      170
 90
      169
 90
        4
 90
      175
 90
      174
 90
      171
 90
      170
 90
        4
 90
      174
 90
      173
 90
      172
 90
      171
 90
        4
 90
      173
 90
      179
 90
      180
 90
      172
 90
        4
 90
      179
 90
      178
 90
      181
 90
      180
 90
        4
 90
      178
 90
      177
 90
      182
 90
      181
 90
        4
 90
      177
 90
      176
 90
      183
 90
      182
 90
        4
 90
      176
 90
      184
 90
      185
 90
      183
 90
        4
 90
      184
 90
      189
 90
      186
 90
      185
 90
        4
 90
      189
 90
      188
 90
      187
 90
      186
 90
        4
 90
      188
 90
      192
 90
      193
 90
      187
 90
        4
 90
      192
 90
      191
 90
      194
 90
      193
 90
        4
 90
      191
 90
      190
 90
      195
 90
      194
 90
        4
 90
      190
 90
      214
 90
      215
 90
      195
 90
        4
 90
      214
 90
      242
 90
      243
 90
      215
 90
        4
 90
      242
 90
      239
 90
      230
 90
      243
 90
        4
 90
      239
 90
      238
 90
      231
 90
      230
 90
        4
 90
      238
 90
      237
 90
      232
 90
      231
 90
        4
 90
      237
 90
      236
 90
      233
 90
      232
 90
        4
 90
      236
 90
      235
 90
      234
 90
      233
 90
        4
 90
      235
 90
      241
 90
      240
 90
      234
 90
        4
 90
      241
 90
      282
 90
      283
 90
      240
 90
        4
 90
      282
 90
      212
 90
      213
 90
      283
 90
        4
 90
      212
 90
      246
 90
      247
 90
      213
 90
        4
 90
      246
 90
      245
 90
      248
 90
      247
 90
        4
 90
      245
 90
      244
 90
      249
 90
      248
 90
        4
 90
      244
 90
      196
 90
      197
 90
      249
 90
        4
 90
      196
 90
      198
 90
      199
 90
      197
 90
        4
 90
      198
 90
      207
 90
      200
 90
      199
 90
        4
 90
      207
 90
      206
 90
      201
 90
      200
 90
        4
 90
      206
 90
      205
 90
      202
 90
      201
 90
        4
 90
      205
 90
      204
 90
      203
 90
      202
 90
        4
 90
      204
 90
      211
 90
      208
 90
      203
 90
        4
 90
      211
 90
      210
 90
      209
 90
      208
 90
        4
 90
      210
 90
      284
 90
      285
 90
      209
 90
        4
 90
      284
 90
      228
 90
      229
 90
      285
 90
        4
 90
      228
 90
      225
 90
      216
 90
      229
 90
        4
 90
      225
 90
      224
 90
      217
 90
      216
 90
        4
 90
      224
 90
      223
 90
      218
 90
      217
 90
        4
 90
      223
 90
      222
 90
      219
 90
      218
 90
        4
 90
      222
 90
      221
 90
      220
 90
      219
 90
        4
 90
      221
 90
      227
 90
      226
 90
      220
 90
        4
 90
      227
 90
      331
 90
      330
 90
      226
 90
        4
 90
      331
 90
      151
 90
      152
 90
      330
 90
        4
 90
      151
 90
      150
 90
      153
 90
      152
 90
        4
 90
      150
 90
      257
 90
      254
 90
      153
 90
        4
 90
      257
 90
      256
 90
      255
 90
      254
 90
        4
 90
      256
 90
      137
 90
      138
 90
      255
 90
        4
 90
      137
 90
      136
 90
      139
 90
      138
 90
        4
 90
      136
 90
      135
 90
      140
 90
      139
 90
        4
 90
      135
 90
      134
 90
      141
 90
      140
 90
        4
 90
      134
 90
      133
 90
      142
 90
      141
 90
        4
 90
      133
 90
      132
 90
      143
 90
      142
 90
        4
 90
      132
 90
      131
 90
      144
 90
      143
 90
        4
 90
      131
 90
      130
 90
      145
 90
      144
 90
        4
 90
      130
 90
      129
 90
      146
 90
      145
 90
        4
 90
      129
 90
      128
 90
      147
 90
      146
 90
        4
 90
      128
 90
      127
 90
      148
 90
      147
 90
        4
 90
      127
 90
      126
 90
      149
 90
      148
 90
        4
 90
      126
 90
      253
 90
      250
 90
      149
 90
        4
 90
      253
 90
      252
 90
      251
 90
      250
 90
        4
 90
      252
 90
      124
 90
      125
 90
      251
 90
        4
 90
      124
 90
      116
 90
      117
 90
      125
 90
        4
 90
      116
 90
      123
 90
      118
 90
      117
 90
        4
 90
      123
 90
      122
 90
      119
 90
      118
 90
        4
 90
      122
 90
      121
 90
      120
 90
      119
 90
        4
 90
      121
 90
      114
 90
      115
 90
      120
 90
        4
 90
      114
 90
      106
 90
      107
 90
      115
 90
        4
 90
      106
 90
      105
 90
      108
 90
      107
 90
        4
 90
      105
 90
      104
 90
      109
 90
      108
 90
        4
 90
      104
 90
      103
 90
      110
 90
      109
 90
        4
 90
      103
 90
      102
 90
      111
 90
      110
 90
        4
 90
      102
 90
      101
 90
      112
 90
      111
 90
        4
 90
      101
 90
      100
 90
      113
 90
      112
 90
        4
 90
      100
 90
       98
 90
       99
 90
      113
 90
        4
 90
       98
 90
      281
 90
      280
 90
       99
 90
        4
 90
      281
 90
       96
 90
       97
 90
      280
 90
        4
 90
       96
 90
       93
 90
       94
 90
       97
 90
        4
 90
       93
 90
       92
 90
       95
 90
       94
 90
        4
 90
       92
 90
      279
 90
      278
 90
       95
 90
        4
 90
      279
 90
       89
 90
       90
 90
      278
 90
        4
 90
       89
 90
       88
 90
       91
 90
       90
 90
        4
 90
       88
 90
      277
 90
      274
 90
       91
 90
        4
 90
      277
 90
      276
 90
      275
 90
      274
 90
        4
 90
      276
 90
       86
 90
       87
 90
      275
 90
        4
 90
       86
 90
       83
 90
       84
 90
       87
 90
        4
 90
       83
 90
       82
 90
       85
 90
       84
 90
        4
 90
       82
 90
      273
 90
      270
 90
       85
 90
        4
 90
      273
 90
      272
 90
      271
 90
      270
 90
        4
 90
      272
 90
       80
 90
       81
 90
      271
 90
        4
 90
       80
 90
       68
 90
       69
 90
       81
 90
        4
 90
       68
 90
       79
 90
       70
 90
       69
 90
        4
 90
       79
 90
       78
 90
       71
 90
       70
 90
        4
 90
       78
 90
       77
 90
       72
 90
       71
 90
        4
 90
       77
 90
       76
 90
       73
 90
       72
 90
        4
 90
       76
 90
       75
 90
       74
 90
       73
 90
        4
 90
       75
 90
       57
 90
       58
 90
       74
 90
        4
 90
       57
 90
       56
 90
       59
 90
       58
 90
        4
 90
       56
 90
       55
 90
       60
 90
       59
 90
        4
 90
       55
 90
       54
 90
       61
 90
       60
 90
        4
 90
       54
 90
       53
 90
       62
 90
       61
 90
        4
 90
       53
 90
       52
 90
       63
 90
       62
 90
        4
 90
       52
 90
       51
 90
       64
 90
       63
 90
        4
 90
       51
 90
       50
 90
       65
 90
       64
 90
        4
 90
       50
 90
       49
 90
       66
 90
       65
 90
        4
 90
       49
 90
       48
 90
       67
 90
       66
 90
        4
 90
       48
 90
       45
 90
       46
 90
       67
 90
        4
 90
       45
 90
       44
 90
       47
 90
       46
 90
        4
 90
       44
 90
      269
 90
      266
 90
       47
 90
        4
 90
      269
 90
      268
 90
      267
 90
      266
 90
        4
 90
      268
 90
       42
 90
       43
 90
      267
 90
        4
 90
       42
 90
       39
 90
       40
 90
       43
 90
        4
 90
       39
 90
       38
 90
       41
 90
       40
 90
        4
 90
       38
 90
      265
 90
      262
 90
       41
 90
        4
 90
      265
 90
      264
 90
      263
 90
      262
 90
        4
 90
      264
 90
       36
 90
       37
 90
      263
 90
        4
 90
       36
 90
       34
 90
       35
 90
       37
 90
        4
 90
       34
 90
       18
 90
       19
 90
       35
 90
        4
 90
       18
 90
       33
 90
       20
 90
       19
 90
        4
 90
       33
 90
       32
 90
       21
 90
       20
 90
        4
 90
       32
 90
       31
 90
       22
 90
       21
 90
        4
 90
       31
 90
       30
 90
       23
 90
       22
 90
        4
 90
       30
 90
       29
 90
       24
 90
       23
 90
        4
 90
       29
 90
       28
 90
       25
 90
       24
 90
        4
 90
       28
 90
       27
 90
       26
 90
       25
 90
        4
 90
       27
 90
       16
 90
       17
 90
       26
 90
        4
 90
       16
 90
       13
 90
       14
 90
       17
 90
        4
 90
       13
 90
       12
 90
       15
 90
       14
 90
        4
 90
       12
 90
      261
 90
      258
 90
       15
 90
        4
 90
      261
 90
      260
 90
      259
 90
      258
 90
        4
 90
      260
 90
       10
 90
       11
 90
      259
 90
        4
 90
       10
 90
        4
 90
        5
 90
       11
 90
        4
 90
        4
 90
        3
 90
        6
 90
        5
 90
        4
 90
        3
 90
        2
 90
        7
 90
        6
 90
        4
 90
        2
 90
        1
 90
        8
 90
        7
 90
        4
 90
        1
 90
        0
 90
        9
 90
        8
 90
        4
 90
        0
 90
      303
 90
      298
 90
        9
 90
        4
 90
      303
 90
      302
 90
      299
 90
      298
 90
        4
 90
      302
 90
      301
 90
      300
 90
      299
 90
        4
 90
      301
 90
      296
 90
      297
 90
      300
 90
        4
 90
      296
 90
      293
 90
      294
 90
      297
 90
        4
 90
      293
 90
      292
 90
      295
 90
      294
 90
        4
 90
      292
 90
      321
 90
      318
 90
      295
 90
        4
 90
      321
 90
      320
 90
      319
 90
      318
 90
        4
 90
      320
 90
      290
 90
      291
 90
      319
 90
        4
 90
      290
 90
      287
 90
      288
 90
      291
 90
        4
 90
        5
 90
      325
 90
      326
 90
       11
 90
        4
 90
      291
 90
      288
 90
      289
 90
      317
 90
        3
 90
      319
 90
      291
 90
      317
 90
        4
 90
      294
 90
      295
 90
      317
 90
      306
 90
        3
 90
      318
 90
      319
 90
      317
 90
        3
 90
      295
 90
      318
 90
      317
 90
        4
 90
      297
 90
      294
 90
      306
 90
      307
 90
        4
 90
      300
 90
      297
 90
      307
 90
      308
 90
        4
 90
      299
 90
      300
 90
      308
 90
      309
 90
        4
 90
      309
 90
      314
 90
      329
 90
      304
 90
        4
 90
      298
 90
      299
 90
      309
 90
      304
 90
        3
 90
        9
 90
      298
 90
      304
 90
        4
 90
        8
 90
        9
 90
      304
 90
      325
 90
        3
 90
        7
 90
        8
 90
      325
 90
        3
 90
        6
 90
        7
 90
      325
 90
        3
 90
        5
 90
        6
 90
      325
 90
        3
 90
      326
 90
      259
 90
       11
 90
        3
 90
      162
 90
       17
 90
       14
 90
        4
 90
      327
 90
      162
 90
       14
 90
       15
 90
        3
 90
      327
 90
       15
 90
      258
 90
        4
 90
      326
 90
      327
 90
      258
 90
      259
 90
        4
 90
      162
 90
      163
 90
       26
 90
       17
 90
        4
 90
      163
 90
      164
 90
       25
 90
       26
 90
        4
 90
      164
 90
      165
 90
       24
 90
       25
 90
        4
 90
      165
 90
      166
 90
       23
 90
       24
 90
        4
 90
      166
 90
      167
 90
       22
 90
       23
 90
        4
 90
      167
 90
      168
 90
       21
 90
       22
 90
        4
 90
      168
 90
      169
 90
       20
 90
       21
 90
        4
 90
      169
 90
      170
 90
       19
 90
       20
 90
        4
 90
      170
 90
      171
 90
       35
 90
       19
 90
        3
 90
      171
 90
       37
 90
       35
 90
        3
 90
      171
 90
      262
 90
      263
 90
        3
 90
      171
 90
      263
 90
       37
 90
        4
 90
      172
 90
      180
 90
       43
 90
       40
 90
        4
 90
      171
 90
      172
 90
       40
 90
       41
 90
        3
 90
      171
 90
       41
 90
      262
 90
        3
 90
      180
 90
      267
 90
       43
 90
        4
 90
      181
 90
      182
 90
       46
 90
       47
 90
        3
 90
      181
 90
       47
 90
      266
 90
        4
 90
      180
 90
      181
 90
      266
 90
      267
 90
        3
 90
      182
 90
       67
 90
       46
 90
        4
 90
      182
 90
      183
 90
       66
 90
       67
 90
        4
 90
      183
 90
      185
 90
       64
 90
       65
 90
        3
 90
      183
 90
       65
 90
       66
 90
        3
 90
      185
 90
       63
 90
       64
 90
        4
 90
      185
 90
      186
 90
       62
 90
       63
 90
        3
 90
      186
 90
       61
 90
       62
 90
        4
 90
      186
 90
      187
 90
       60
 90
       61
 90
        3
 90
      187
 90
       59
 90
       60
 90
        3
 90
      187
 90
       58
 90
       59
 90
        4
 90
      187
 90
      193
 90
       74
 90
       58
 90
        4
 90
      193
 90
      194
 90
       73
 90
       74
 90
        4
 90
      194
 90
      195
 90
       72
 90
       73
 90
        3
 90
      195
 90
       70
 90
       71
 90
        3
 90
      195
 90
       71
 90
       72
 90
        4
 90
      195
 90
       81
 90
       69
 90
       70
 90
        3
 90
      195
 90
      271
 90
       81
 90
        3
 90
       87
 90
       84
 90
       85
 90
        3
 90
      195
 90
      270
 90
      271
 90
        4
 90
      215
 90
      243
 90
      230
 90
       91
 90
        3
 90
      215
 90
       91
 90
      274
 90
        3
 90
      215
 90
      274
 90
      275
 90
        4
 90
      275
 90
       87
 90
       85
 90
      270
 90
        4
 90
      195
 90
      215
 90
      275
 90
      270
 90
        3
 90
      231
 90
      232
 90
       91
 90
        3
 90
       91
 90
      230
 90
      231
 90
        4
 90
      234
 90
      240
 90
      283
 90
      213
 90
        4
 90
      233
 90
      234
 90
      213
 90
      247
 90
        4
 90
      232
 90
      233
 90
      247
 90
       91
 90
        3
 90
      247
 90
      248
 90
       91
 90
        3
 90
      248
 90
      249
 90
       91
 90
        3
 90
      249
 90
      197
 90
       91
 90
        4
 90
      197
 90
      199
 90
       90
 90
       91
 90
        3
 90
      199
 90
      278
 90
       90
 90
        3
 90
      199
 90
       94
 90
       95
 90
        3
 90
      199
 90
       95
 90
      278
 90
        4
 90
      199
 90
      200
 90
       97
 90
       94
 90
        3
 90
      200
 90
       99
 90
      280
 90
        3
 90
      200
 90
      280
 90
       97
 90
        4
 90
      200
 90
      201
 90
      113
 90
       99
 90
        3
 90
      201
 90
      111
 90
      112
 90
        3
 90
      201
 90
      112
 90
      113
 90
        4
 90
      201
 90
      202
 90
      109
 90
      110
 90
        3
 90
      201
 90
      110
 90
      111
 90
        3
 90
      202
 90
      107
 90
      108
 90
        3
 90
      202
 90
      108
 90
      109
 90
        4
 90
      202
 90
      203
 90
      115
 90
      107
 90
        4
 90
      203
 90
      208
 90
      120
 90
      115
 90
        4
 90
      208
 90
      209
 90
      119
 90
      120
 90
        4
 90
      209
 90
      285
 90
      229
 90
      119
 90
        4
 90
      229
 90
      216
 90
      118
 90
      119
 90
        3
 90
      216
 90
      217
 90
      118
 90
        4
 90
      217
 90
      218
 90
      117
 90
      118
 90
        4
 90
      218
 90
      219
 90
      125
 90
      117
 90
        4
 90
      219
 90
      220
 90
      251
 90
      125
 90
        4
 90
      220
 90
      226
 90
      254
 90
      251
 90
        4
 90
      142
 90
      143
 90
      144
 90
      145
 90
        4
 90
      141
 90
      142
 90
      145
 90
      146
 90
        4
 90
      140
 90
      141
 90
      146
 90
      147
 90
        4
 90
      139
 90
      140
 90
      147
 90
      148
 90
        4
 90
      138
 90
      139
 90
      148
 90
      149
 90
        4
 90
      255
 90
      138
 90
      149
 90
      250
 90
        4
 90
      254
 90
      255
 90
      250
 90
      251
 90
        4
 90
      226
 90
      330
 90
      153
 90
      254
 90
        3
 90
      330
 90
      152
 90
      153
 90
        4
 90
        4
 90
       10
 90
      323
 90
      324
 90
        4
 90
      290
 90
      316
 90
      286
 90
      287
 90
        3
 90
      320
 90
      316
 90
      290
 90
        4
 90
      293
 90
      313
 90
      316
 90
      292
 90
        3
 90
      321
 90
      316
 90
      320
 90
        3
 90
      292
 90
      316
 90
      321
 90
        4
 90
      296
 90
      312
 90
      313
 90
      293
 90
        4
 90
      301
 90
      311
 90
      312
 90
      296
 90
        4
 90
      302
 90
      310
 90
      311
 90
      301
 90
        4
 90
      310
 90
      305
 90
      328
 90
      315
 90
        4
 90
      303
 90
      305
 90
      310
 90
      302
 90
        3
 90
        0
 90
      305
 90
      303
 90
        4
 90
        1
 90
      324
 90
      305
 90
        0
 90
        3
 90
        2
 90
      324
 90
        1
 90
        3
 90
        3
 90
      324
 90
        2
 90
        3
 90
        4
 90
      324
 90
        3
 90
        3
 90
      323
 90
       10
 90
      260
 90
        3
 90
      161
 90
       13
 90
       16
 90
        4
 90
      322
 90
       12
 90
       13
 90
      161
 90
        3
 90
      322
 90
      261
 90
       12
 90
        4
 90
      323
 90
      260
 90
      261
 90
      322
 90
        4
 90
      161
 90
       16
 90
       27
 90
      160
 90
        4
 90
      160
 90
       27
 90
       28
 90
      159
 90
        4
 90
      159
 90
       28
 90
       29
 90
      158
 90
        4
 90
      158
 90
       29
 90
       30
 90
      157
 90
        4
 90
      157
 90
       30
 90
       31
 90
      156
 90
        4
 90
      156
 90
       31
 90
       32
 90
      155
 90
        4
 90
      155
 90
       32
 90
       33
 90
      154
 90
        4
 90
      154
 90
       33
 90
       18
 90
      175
 90
        4
 90
      175
 90
       18
 90
       34
 90
      174
 90
        3
 90
      174
 90
       34
 90
       36
 90
        3
 90
      174
 90
      264
 90
      265
 90
        3
 90
      174
 90
       36
 90
      264
 90
        4
 90
      173
 90
       39
 90
       42
 90
      179
 90
        4
 90
      174
 90
       38
 90
       39
 90
      173
 90
        3
 90
      174
 90
      265
 90
       38
 90
        3
 90
      179
 90
       42
 90
      268
 90
        4
 90
      178
 90
       44
 90
       45
 90
      177
 90
        3
 90
      178
 90
      269
 90
       44
 90
        4
 90
      179
 90
      268
 90
      269
 90
      178
 90
        3
 90
      177
 90
       45
 90
       48
 90
        4
 90
      177
 90
       48
 90
       49
 90
      176
 90
        4
 90
      176
 90
       50
 90
       51
 90
      184
 90
        3
 90
      176
 90
       49
 90
       50
 90
        3
 90
      184
 90
       51
 90
       52
 90
        4
 90
      184
 90
       52
 90
       53
 90
      189
 90
        3
 90
      189
 90
       53
 90
       54
 90
        4
 90
      189
 90
       54
 90
       55
 90
      188
 90
        3
 90
      188
 90
       55
 90
       56
 90
        3
 90
      188
 90
       56
 90
       57
 90
        4
 90
      188
 90
       57
 90
       75
 90
      192
 90
        4
 90
      192
 90
       75
 90
       76
 90
      191
 90
        4
 90
      191
 90
       76
 90
       77
 90
      190
 90
        3
 90
      190
 90
       78
 90
       79
 90
        3
 90
      190
 90
       77
 90
       78
 90
        4
 90
      190
 90
       79
 90
       68
 90
       80
 90
        3
 90
      190
 90
       80
 90
      272
 90
        3
 90
       86
 90
       82
 90
       83
 90
        3
 90
      190
 90
      272
 90
      273
 90
        4
 90
      214
 90
       88
 90
      239
 90
      242
 90
        3
 90
      214
 90
      277
 90
       88
 90
        3
 90
      214
 90
      276
 90
      277
 90
        4
 90
      276
 90
      273
 90
       82
 90
       86
 90
        4
 90
      190
 90
      273
 90
      276
 90
      214
 90
        3
 90
      238
 90
       88
 90
      237
 90
        3
 90
       88
 90
      238
 90
      239
 90
        4
 90
      235
 90
      212
 90
      282
 90
      241
 90
        4
 90
      236
 90
      246
 90
      212
 90
      235
 90
        4
 90
      237
 90
       88
 90
      246
 90
      236
 90
        3
 90
      246
 90
       88
 90
      245
 90
        3
 90
      245
 90
       88
 90
      244
 90
        3
 90
      244
 90
       88
 90
      196
 90
        4
 90
      196
 90
       88
 90
       89
 90
      198
 90
        3
 90
      198
 90
       89
 90
      279
 90
        3
 90
      198
 90
       92
 90
       93
 90
        3
 90
      198
 90
      279
 90
       92
 90
        4
 90
      198
 90
       93
 90
       96
 90
      207
 90
        3
 90
      207
 90
      281
 90
       98
 90
        3
 90
      207
 90
       96
 90
      281
 90
        4
 90
      207
 90
       98
 90
      100
 90
      206
 90
        3
 90
      206
 90
      101
 90
      102
 90
        3
 90
      206
 90
      100
 90
      101
 90
        4
 90
      206
 90
      103
 90
      104
 90
      205
 90
        3
 90
      206
 90
      102
 90
      103
 90
        3
 90
      205
 90
      105
 90
      106
 90
        3
 90
      205
 90
      104
 90
      105
 90
        4
 90
      205
 90
      106
 90
      114
 90
      204
 90
        4
 90
      204
 90
      114
 90
      121
 90
      211
 90
        4
 90
      211
 90
      121
 90
      122
 90
      210
 90
        4
 90
      210
 90
      122
 90
      228
 90
      284
 90
        4
 90
      228
 90
      122
 90
      123
 90
      225
 90
        3
 90
      225
 90
      123
 90
      224
 90
        4
 90
      224
 90
      123
 90
      116
 90
      223
 90
        4
 90
      223
 90
      116
 90
      124
 90
      222
 90
        4
 90
      222
 90
      124
 90
      252
 90
      221
 90
        4
 90
      221
 90
      252
 90
      257
 90
      227
 90
        4
 90
      133
 90
      130
 90
      131
 90
      132
 90
        4
 90
      134
 90
      129
 90
      130
 90
      133
 90
        4
 90
      135
 90
      128
 90
      129
 90
      134
 90
        4
 90
      136
 90
      127
 90
      128
 90
      135
 90
        4
 90
      137
 90
      126
 90
      127
 90
      136
 90
        4
 90
      256
 90
      253
 90
      126
 90
      137
 90
        4
 90
      257
 90
      252
 90
      253
 90
      256
 90
        4
 90
      227
 90
      257
 90
      150
 90
      331
 90
        3
 90
      331
 90
      150
 90
      151
 94
      706
 90
      286
 90
      287
 90
      286
 90
      289
 90
      288
 90
      289
 90
      287
 90
      288
 90
      286
 90
      316
 90
      316
 90
      317
 90
      289
 90
      317
 90
      313
 90
      316
 90
      306
 90
      313
 90
      306
 90
      317
 90
      312
 90
      313
 90
      307
 90
      312
 90
      306
 90
      307
 90
      311
 90
      312
 90
      308
 90
      311
 90
      307
 90
      308
 90
      310
 90
      311
 90
      309
 90
      310
 90
      308
 90
      309
 90
      310
 90
      315
 90
      314
 90
      315
 90
      309
 90
      314
 90
      315
 90
      328
 90
      328
 90
      329
 90
      314
 90
      329
 90
      305
 90
      328
 90
      304
 90
      305
 90
      304
 90
      329
 90
      305
 90
      324
 90
      324
 90
      325
 90
      304
 90
      325
 90
      323
 90
      324
 90
      323
 90
      326
 90
      325
 90
      326
 90
      322
 90
      323
 90
      322
 90
      327
 90
      326
 90
      327
 90
      161
 90
      322
 90
      161
 90
      162
 90
      162
 90
      327
 90
      160
 90
      161
 90
      160
 90
      163
 90
      162
 90
      163
 90
      159
 90
      160
 90
      159
 90
      164
 90
      163
 90
      164
 90
      158
 90
      159
 90
      158
 90
      165
 90
      164
 90
      165
 90
      157
 90
      158
 90
      157
 90
      166
 90
      165
 90
      166
 90
      156
 90
      157
 90
      156
 90
      167
 90
      166
 90
      167
 90
      155
 90
      156
 90
      155
 90
      168
 90
      167
 90
      168
 90
      154
 90
      155
 90
      154
 90
      169
 90
      168
 90
      169
 90
      154
 90
      175
 90
      170
 90
      175
 90
      169
 90
      170
 90
      174
 90
      175
 90
      171
 90
      174
 90
      170
 90
      171
 90
      173
 90
      174
 90
      172
 90
      173
 90
      171
 90
      172
 90
      173
 90
      179
 90
      179
 90
      180
 90
      172
 90
      180
 90
      178
 90
      179
 90
      178
 90
      181
 90
      180
 90
      181
 90
      177
 90
      178
 90
      177
 90
      182
 90
      181
 90
      182
 90
      176
 90
      177
 90
      176
 90
      183
 90
      182
 90
      183
 90
      176
 90
      184
 90
      184
 90
      185
 90
      183
 90
      185
 90
      184
 90
      189
 90
      186
 90
      189
 90
      185
 90
      186
 90
      188
 90
      189
 90
      187
 90
      188
 90
      186
 90
      187
 90
      188
 90
      192
 90
      192
 90
      193
 90
      187
 90
      193
 90
      191
 90
      192
 90
      191
 90
      194
 90
      193
 90
      194
 90
      190
 90
      191
 90
      190
 90
      195
 90
      194
 90
      195
 90
      190
 90
      214
 90
      214
 90
      215
 90
      195
 90
      215
 90
      214
 90
      242
 90
      242
 90
      243
 90
      215
 90
      243
 90
      239
 90
      242
 90
      230
 90
      239
 90
      230
 90
      243
 90
      238
 90
      239
 90
      231
 90
      238
 90
      230
 90
      231
 90
      237
 90
      238
 90
      232
 90
      237
 90
      231
 90
      232
 90
      236
 90
      237
 90
      233
 90
      236
 90
      232
 90
      233
 90
      235
 90
      236
 90
      234
 90
      235
 90
      233
 90
      234
 90
      235
 90
      241
 90
      240
 90
      241
 90
      234
 90
      240
 90
      241
 90
      282
 90
      282
 90
      283
 90
      240
 90
      283
 90
      212
 90
      282
 90
      212
 90
      213
 90
      213
 90
      283
 90
      212
 90
      246
 90
      246
 90
      247
 90
      213
 90
      247
 90
      245
 90
      246
 90
      245
 90
      248
 90
      247
 90
      248
 90
      244
 90
      245
 90
      244
 90
      249
 90
      248
 90
      249
 90
      196
 90
      244
 90
      196
 90
      197
 90
      197
 90
      249
 90
      196
 90
      198
 90
      198
 90
      199
 90
      197
 90
      199
 90
      198
 90
      207
 90
      200
 90
      207
 90
      199
 90
      200
 90
      206
 90
      207
 90
      201
 90
      206
 90
      200
 90
      201
 90
      205
 90
      206
 90
      202
 90
      205
 90
      201
 90
      202
 90
      204
 90
      205
 90
      203
 90
      204
 90
      202
 90
      203
 90
      204
 90
      211
 90
      208
 90
      211
 90
      203
 90
      208
 90
      210
 90
      211
 90
      209
 90
      210
 90
      208
 90
      209
 90
      210
 90
      284
 90
      284
 90
      285
 90
      209
 90
      285
 90
      228
 90
      284
 90
      228
 90
      229
 90
      229
 90
      285
 90
      225
 90
      228
 90
      216
 90
      225
 90
      216
 90
      229
 90
      224
 90
      225
 90
      217
 90
      224
 90
      216
 90
      217
 90
      223
 90
      224
 90
      218
 90
      223
 90
      217
 90
      218
 90
      222
 90
      223
 90
      219
 90
      222
 90
      218
 90
      219
 90
      221
 90
      222
 90
      220
 90
      221
 90
      219
 90
      220
 90
      221
 90
      227
 90
      226
 90
      227
 90
      220
 90
      226
 90
      227
 90
      331
 90
      330
 90
      331
 90
      226
 90
      330
 90
      151
 90
      331
 90
      151
 90
      152
 90
      152
 90
      330
 90
      150
 90
      151
 90
      150
 90
      153
 90
      152
 90
      153
 90
      150
 90
      257
 90
      254
 90
      257
 90
      153
 90
      254
 90
      256
 90
      257
 90
      255
 90
      256
 90
      254
 90
      255
 90
      137
 90
      256
 90
      137
 90
      138
 90
      138
 90
      255
 90
      136
 90
      137
 90
      136
 90
      139
 90
      138
 90
      139
 90
      135
 90
      136
 90
      135
 90
      140
 90
      139
 90
      140
 90
      134
 90
      135
 90
      134
 90
      141
 90
      140
 90
      141
 90
      133
 90
      134
 90
      133
 90
      142
 90
      141
 90
      142
 90
      132
 90
      133
 90
      132
 90
      143
 90
      142
 90
      143
 90
      131
 90
      132
 90
      131
 90
      144
 90
      143
 90
      144
 90
      130
 90
      131
 90
      130
 90
      145
 90
      144
 90
      145
 90
      129
 90
      130
 90
      129
 90
      146
 90
      145
 90
      146
 90
      128
 90
      129
 90
      128
 90
      147
 90
      146
 90
      147
 90
      127
 90
      128
 90
      127
 90
      148
 90
      147
 90
      148
 90
      126
 90
      127
 90
      126
 90
      149
 90
      148
 90
      149
 90
      126
 90
      253
 90
      250
 90
      253
 90
      149
 90
      250
 90
      252
 90
      253
 90
      251
 90
      252
 90
      250
 90
      251
 90
      124
 90
      252
 90
      124
 90
      125
 90
      125
 90
      251
 90
      116
 90
      124
 90
      116
 90
      117
 90
      117
 90
      125
 90
      116
 90
      123
 90
      118
 90
      123
 90
      117
 90
      118
 90
      122
 90
      123
 90
      119
 90
      122
 90
      118
 90
      119
 90
      121
 90
      122
 90
      120
 90
      121
 90
      119
 90
      120
 90
      114
 90
      121
 90
      114
 90
      115
 90
      115
 90
      120
 90
      106
 90
      114
 90
      106
 90
      107
 90
      107
 90
      115
 90
      105
 90
      106
 90
      105
 90
      108
 90
      107
 90
      108
 90
      104
 90
      105
 90
      104
 90
      109
 90
      108
 90
      109
 90
      103
 90
      104
 90
      103
 90
      110
 90
      109
 90
      110
 90
      102
 90
      103
 90
      102
 90
      111
 90
      110
 90
      111
 90
      101
 90
      102
 90
      101
 90
      112
 90
      111
 90
      112
 90
      100
 90
      101
 90
      100
 90
      113
 90
      112
 90
      113
 90
       98
 90
      100
 90
       98
 90
       99
 90
       99
 90
      113
 90
       98
 90
      281
 90
      280
 90
      281
 90
       99
 90
      280
 90
       96
 90
      281
 90
       96
 90
       97
 90
       97
 90
      280
 90
       93
 90
       96
 90
       93
 90
       94
 90
       94
 90
       97
 90
       92
 90
       93
 90
       92
 90
       95
 90
       94
 90
       95
 90
       92
 90
      279
 90
      278
 90
      279
 90
       95
 90
      278
 90
       89
 90
      279
 90
       89
 90
       90
 90
       90
 90
      278
 90
       88
 90
       89
 90
       88
 90
       91
 90
       90
 90
       91
 90
       88
 90
      277
 90
      274
 90
      277
 90
       91
 90
      274
 90
      276
 90
      277
 90
      275
 90
      276
 90
      274
 90
      275
 90
       86
 90
      276
 90
       86
 90
       87
 90
       87
 90
      275
 90
       83
 90
       86
 90
       83
 90
       84
 90
       84
 90
       87
 90
       82
 90
       83
 90
       82
 90
       85
 90
       84
 90
       85
 90
       82
 90
      273
 90
      270
 90
      273
 90
       85
 90
      270
 90
      272
 90
      273
 90
      271
 90
      272
 90
      270
 90
      271
 90
       80
 90
      272
 90
       80
 90
       81
 90
       81
 90
      271
 90
       68
 90
       80
 90
       68
 90
       69
 90
       69
 90
       81
 90
       68
 90
       79
 90
       70
 90
       79
 90
       69
 90
       70
 90
       78
 90
       79
 90
       71
 90
       78
 90
       70
 90
       71
 90
       77
 90
       78
 90
       72
 90
       77
 90
       71
 90
       72
 90
       76
 90
       77
 90
       73
 90
       76
 90
       72
 90
       73
 90
       75
 90
       76
 90
       74
 90
       75
 90
       73
 90
       74
 90
       57
 90
       75
 90
       57
 90
       58
 90
       58
 90
       74
 90
       56
 90
       57
 90
       56
 90
       59
 90
       58
 90
       59
 90
       55
 90
       56
 90
       55
 90
       60
 90
       59
 90
       60
 90
       54
 90
       55
 90
       54
 90
       61
 90
       60
 90
       61
 90
       53
 90
       54
 90
       53
 90
       62
 90
       61
 90
       62
 90
       52
 90
       53
 90
       52
 90
       63
 90
       62
 90
       63
 90
       51
 90
       52
 90
       51
 90
       64
 90
       63
 90
       64
 90
       50
 90
       51
 90
       50
 90
       65
 90
       64
 90
       65
 90
       49
 90
       50
 90
       49
 90
       66
 90
       65
 90
       66
 90
       48
 90
       49
 90
       48
 90
       67
 90
       66
 90
       67
 90
       45
 90
       48
 90
       45
 90
       46
 90
       46
 90
       67
 90
       44
 90
       45
 90
       44
 90
       47
 90
       46
 90
       47
 90
       44
 90
      269
 90
      266
 90
      269
 90
       47
 90
      266
 90
      268
 90
      269
 90
      267
 90
      268
 90
      266
 90
      267
 90
       42
 90
      268
 90
       42
 90
       43
 90
       43
 90
      267
 90
       39
 90
       42
 90
       39
 90
       40
 90
       40
 90
       43
 90
       38
 90
       39
 90
       38
 90
       41
 90
       40
 90
       41
 90
       38
 90
      265
 90
      262
 90
      265
 90
       41
 90
      262
 90
      264
 90
      265
 90
      263
 90
      264
 90
      262
 90
      263
 90
       36
 90
      264
 90
       36
 90
       37
 90
       37
 90
      263
 90
       34
 90
       36
 90
       34
 90
       35
 90
       35
 90
       37
 90
       18
 90
       34
 90
       18
 90
       19
 90
       19
 90
       35
 90
       18
 90
       33
 90
       20
 90
       33
 90
       19
 90
       20
 90
       32
 90
       33
 90
       21
 90
       32
 90
       20
 90
       21
 90
       31
 90
       32
 90
       22
 90
       31
 90
       21
 90
       22
 90
       30
 90
       31
 90
       23
 90
       30
 90
       22
 90
       23
 90
       29
 90
       30
 90
       24
 90
       29
 90
       23
 90
       24
 90
       28
 90
       29
 90
       25
 90
       28
 90
       24
 90
       25
 90
       27
 90
       28
 90
       26
 90
       27
 90
       25
 90
       26
 90
       16
 90
       27
 90
       16
 90
       17
 90
       17
 90
       26
 90
       13
 90
       16
 90
       13
 90
       14
 90
       14
 90
       17
 90
       12
 90
       13
 90
       12
 90
       15
 90
       14
 90
       15
 90
       12
 90
      261
 90
      258
 90
      261
 90
       15
 90
      258
 90
      260
 90
      261
 90
      259
 90
      260
 90
      258
 90
      259
 90
       10
 90
      260
 90
       10
 90
       11
 90
       11
 90
      259
 90
        4
 90
       10
 90
        4
 90
        5
 90
        5
 90
       11
 90
        3
 90
        4
 90
        3
 90
        6
 90
        5
 90
        6
 90
        2
 90
        3
 90
        2
 90
        7
 90
        6
 90
        7
 90
        1
 90
        2
 90
        1
 90
        8
 90
        7
 90
        8
 90
        0
 90
        1
 90
        0
 90
        9
 90
        8
 90
        9
 90
        0
 90
      303
 90
      298
 90
      303
 90
        9
 90
      298
 90
      302
 90
      303
 90
      299
 90
      302
 90
      298
 90
      299
 90
      301
 90
      302
 90
      300
 90
      301
 90
      299
 90
      300
 90
      296
 90
      301
 90
      296
 90
      297
 90
      297
 90
      300
 90
      293
 90
      296
 90
      293
 90
      294
 90
      294
 90
      297
 90
      292
 90
      293
 90
      292
 90
      295
 90
      294
 90
      295
 90
      292
 90
      321
 90
      318
 90
      321
 90
      295
 90
      318
 90
      320
 90
      321
 90
      319
 90
      320
 90
      318
 90
      319
 90
      290
 90
      320
 90
      290
 90
      291
 90
      291
 90
      319
 90
      287
 90
      290
 90
      288
 90
      291
 90
        5
 90
      325
 90
       11
 90
      326
 90
      291
 90
      317
 90
      317
 90
      319
 90
      295
 90
      317
 90
      294
 90
      306
 90
      317
 90
      318
 90
      297
 90
      307
 90
      300
 90
      308
 90
      299
 90
      309
 90
      304
 90
      309
 90
      298
 90
      304
 90
        9
 90
      304
 90
        8
 90
      325
 90
        7
 90
      325
 90
        6
 90
      325
 90
      259
 90
      326
 90
       17
 90
      162
 90
       14
 90
      162
 90
       15
 90
      327
 90
      258
 90
      327
 90
       26
 90
      163
 90
       25
 90
      164
 90
       24
 90
      165
 90
       23
 90
      166
 90
       22
 90
      167
 90
       21
 90
      168
 90
       20
 90
      169
 90
       19
 90
      170
 90
       35
 90
      171
 90
       37
 90
      171
 90
      171
 90
      262
 90
      171
 90
      263
 90
       43
 90
      180
 90
       40
 90
      172
 90
       41
 90
      171
 90
      180
 90
      267
 90
       46
 90
      182
 90
       47
 90
      181
 90
      181
 90
      266
 90
       67
 90
      182
 90
       66
 90
      183
 90
       64
 90
      185
 90
       65
 90
      183
 90
       63
 90
      185
 90
       62
 90
      186
 90
       61
 90
      186
 90
       60
 90
      187
 90
       59
 90
      187
 90
       58
 90
      187
 90
       74
 90
      193
 90
       73
 90
      194
 90
       72
 90
      195
 90
       70
 90
      195
 90
       71
 90
      195
 90
       81
 90
      195
 90
      195
 90
      271
 90
       85
 90
       87
 90
      195
 90
      270
 90
       91
 90
      230
 90
       91
 90
      215
 90
      215
 90
      274
 90
      215
 90
      275
 90
      270
 90
      275
 90
       91
 90
      232
 90
       91
 90
      231
 90
      213
 90
      234
 90
      233
 90
      247
 90
       91
 90
      247
 90
       91
 90
      248
 90
       91
 90
      249
 90
       91
 90
      197
 90
       90
 90
      199
 90
      199
 90
      278
 90
       94
 90
      199
 90
       95
 90
      199
 90
       97
 90
      200
 90
       99
 90
      200
 90
      200
 90
      280
 90
      113
 90
      201
 90
      111
 90
      201
 90
      112
 90
      201
 90
      109
 90
      202
 90
      110
 90
      201
 90
      107
 90
      202
 90
      108
 90
      202
 90
      115
 90
      203
 90
      120
 90
      208
 90
      119
 90
      209
 90
      119
 90
      229
 90
      118
 90
      216
 90
      118
 90
      217
 90
      117
 90
      218
 90
      125
 90
      219
 90
      220
 90
      251
 90
      226
 90
      254
 90
      251
 90
      254
 90
      142
 90
      145
 90
      141
 90
      146
 90
      140
 90
      147
 90
      139
 90
      148
 90
      138
 90
      149
 90
      250
 90
      255
 90
      153
 90
      330
 90
       10
 90
      323
 90
        4
 90
      324
 90
      290
 90
      316
 90
      316
 90
      320
 90
      293
 90
      313
 90
      292
 90
      316
 90
      316
 90
      321
 90
      296
 90
      312
 90
      301
 90
      311
 90
      302
 90
      310
 90
      305
 90
      310
 90
      303
 90
      305
 90
        0
 90
      305
 90
        1
 90
      324
 90
        2
 90
      324
 90
        3
 90
      324
 90
      260
 90
      323
 90
       13
 90
      161
 90
       16
 90
      161
 90
       12
 90
      322
 90
      261
 90
      322
 90
       27
 90
      160
 90
       28
 90
      159
 90
       29
 90
      158
 90
       30
 90
      157
 90
       31
 90
      156
 90
       32
 90
      155
 90
       33
 90
      154
 90
       18
 90
      175
 90
       34
 90
      174
 90
       36
 90
      174
 90
      174
 90
      264
 90
      174
 90
      265
 90
       39
 90
      173
 90
       42
 90
      179
 90
       38
 90
      174
 90
      179
 90
      268
 90
       44
 90
      178
 90
       45
 90
      177
 90
      178
 90
      269
 90
       48
 90
      177
 90
       49
 90
      176
 90
       50
 90
      176
 90
       51
 90
      184
 90
       52
 90
      184
 90
       53
 90
      189
 90
       54
 90
      189
 90
       55
 90
      188
 90
       56
 90
      188
 90
       57
 90
      188
 90
       75
 90
      192
 90
       76
 90
      191
 90
       77
 90
      190
 90
       78
 90
      190
 90
       79
 90
      190
 90
       80
 90
      190
 90
      190
 90
      272
 90
       82
 90
       86
 90
      190
 90
      273
 90
       88
 90
      214
 90
       88
 90
      239
 90
      214
 90
      277
 90
      214
 90
      276
 90
      273
 90
      276
 90
       88
 90
      238
 90
       88
 90
      237
 90
      212
 90
      235
 90
      236
 90
      246
 90
       88
 90
      246
 90
       88
 90
      245
 90
       88
 90
      244
 90
       88
 90
      196
 90
       89
 90
      198
 90
      198
 90
      279
 90
       92
 90
      198
 90
       93
 90
      198
 90
       96
 90
      207
 90
      207
 90
      281
 90
       98
 90
      207
 90
      100
 90
      206
 90
      101
 90
      206
 90
      102
 90
      206
 90
      103
 90
      206
 90
      104
 90
      205
 90
      105
 90
      205
 90
      106
 90
      205
 90
      114
 90
      204
 90
      121
 90
      211
 90
      122
 90
      210
 90
      122
 90
      228
 90
      123
 90
      225
 90
      123
 90
      224
 90
      116
 90
      223
 90
      124
 90
      222
 90
      221
 90
      252
 90
      252
 90
      257
 90
      227
 90
      257
 90
      130
 90
      133
 90
      129
 90
      134
 90
      128
 90
      135
 90
      127
 90
      136
 90
      126
 90
      137
 90
      253
 90
      256
 90
      150
 90
      331
 95
      706
140
0.0
140
0.0
140
0.0
140
0.0
140
0.0
140
0.0
140
0.0
140
0.0
140
0.0
140
0.0
140
0.0
140
0.0
140
0.0
140
0.0
140
0.0
140
0.0
140
0.0
140
0.0
140
0.0
140
0.0
140
0.0
140
0.0
140
0.0
140
0.0
140
0.0
140
0.0
140
0.0
140
0.0
140
0.0
140
0.0
140
0.0
140
0.0
140
0.0
140
0.0
140
0.0
140
0.0
140
0.0
140
0.0
140
0.0
140
0.0
140
0.0
140
0.0
140
0.0
140
0.0
140
0.0
140
0.0
140
0.0
140
0.0
140
0.0
140
0.0
140
0.0
140
0.0
140
0.0
140
0.0
140
0.0
140
0.0
140
0.0
140
0.0
140
0.0
140
0.0
140
0.0
140
0.0
140
0.0
140
0.0
140
0.0
140
0.0
140
0.0
140
0.0
140
0.0
140
0.0
140
0.0
140
0.0
140
0.0
140
0.0
140
0.0
140
0.0
140
0.0
140
0.0
140
0.0
140
0.0
140
0.0
140
0.0
140
0.0
140
0.0
140
0.0
140
0.0
140
0.0
140
0.0
140
0.0
140
0.0
140
0.0
140
0.0
140
0.0
140
0.0
140
0.0
140
0.0
140
0.0
140
0.0
140
0.0
140
0.0
140
0.0
140
0.0
140
0.0
140
0.0
140
0.0
140
0.0
140
0.0
140
0.0
140
0.0
140
0.0
140
0.0
140
0.0
140
0.0
140
0.0
140
0.0
140
0.0
140
0.0
140
0.0
140
0.0
140
0.0
140
0.0
140
0.0
140
0.0
140
0.0
140
0.0
140
0.0
140
0.0
140
0.0
140
0.0
140
0.0
140
0.0
140
0.0
140
0.0
140
0.0
140
0.0
140
0.0
140
0.0
140
0.0
140
0.0
140
0.0
140
0.0
140
0.0
140
0.0
140
0.0
140
0.0
140
0.0
140
0.0
140
0.0
140
0.0
140
0.0
140
0.0
140
0.0
140
0.0
140
0.0
140
0.0
140
0.0
140
0.0
140
0.0
140
0.0
140
0.0
140
0.0
140
0.0
140
0.0
140
0.0
140
0.0
140
0.0
140
0.0
140
0.0
140
0.0
140
0.0
140
0.0
140
0.0
140
0.0
140
0.0
140
0.0
140
0.0
140
0.0
140
0.0
140
0.0
140
0.0
140
0.0
140
0.0
140
0.0
140
0.0
140
0.0
140
0.0
140
0.0
140
0.0
140
0.0
140
0.0
140
0.0
140
0.0
140
0.0
140
0.0
140
0.0
140
0.0
140
0.0
140
0.0
140
0.0
140
0.0
140
0.0
140
0.0
140
0.0
140
0.0
140
0.0
140
0.0
140
0.0
140
0.0
140
0.0
140
0.0
140
0.0
140
0.0
140
0.0
140
0.0
140
0.0
140
0.0
140
0.0
140
0.0
140
0.0
140
0.0
140
0.0
140
0.0
140
0.0
140
0.0
140
0.0
140
0.0
140
0.0
140
0.0
140
0.0
140
0.0
140
0.0
140
0.0
140
0.0
140
0.0
140
0.0
140
0.0
140
0.0
140
0.0
140
0.0
140
0.0
140
0.0
140
0.0
140
0.0
140
0.0
140
0.0
140
0.0
140
0.0
140
0.0
140
0.0
140
0.0
140
0.0
140
0.0
140
0.0
140
0.0
140
0.0
140
0.0
140
0.0
140
0.0
140
0.0
140
0.0
140
0.0
140
0.0
140
0.0
140
0.0
140
0.0
140
0.0
140
0.0
140
0.0
140
0.0
140
0.0
140
0.0
140
0.0
140
0.0
140
0.0
140
0.0
140
0.0
140
0.0
140
0.0
140
0.0
140
0.0
140
0.0
140
0.0
140
0.0
140
0.0
140
0.0
140
0.0
140
0.0
140
0.0
140
0.0
140
0.0
140
0.0
140
0.0
140
0.0
140
0.0
140
0.0
140
0.0
140
0.0
140
0.0
140
0.0
140
0.0
140
0.0
140
0.0
140
0.0
140
0.0
140
0.0
140
0.0
140
0.0
140
0.0
140
0.0
140
0.0
140
0.0
140
0.0
140
0.0
140
0.0
140
0.0
140
0.0
140
0.0
140
0.0
140
0.0
140
0.0
140
0.0
140
0.0
140
0.0
140
0.0
140
0.0
140
0.0
140
0.0
140
0.0
140
0.0
140
0.0
140
0.0
140
0.0
140
0.0
140
0.0
140
0.0
140
0.0
140
0.0
140
0.0
140
0.0
140
0.0
140
0.0
140
0.0
140
0.0
140
0.0
140
0.0
140
0.0
140
0.0
140
0.0
140
0.0
140
0.0
140
0.0
140
0.0
140
0.0
140
0.0
140
0.0
140
0.0
140
0.0
140
0.0
140
0.0
140
0.0
140
0.0
140
0.0
140
0.0
140
0.0
140
0.0
140
0.0
140
0.0
140
0.0
140
0.0
140
0.0
140
0.0
140
0.0
140
0.0
140
0.0
140
0.0
140
0.0
140
0.0
140
0.0
140
0.0
140
0.0
140
0.0
140
0.0
140
0.0
140
0.0
140
0.0
140
0.0
140
0.0
140
0.0
140
0.0
140
0.0
140
0.0
140
0.0
140
0.0
140
0.0
140
0.0
140
0.0
140
0.0
140
0.0
140
0.0
140
0.0
140
0.0
140
0.0
140
0.0
140
0.0
140
0.0
140
0.0
140
0.0
140
0.0
140
0.0
140
0.0
140
0.0
140
0.0
140
0.0
140
0.0
140
0.0
140
0.0
140
0.0
140
0.0
140
0.0
140
0.0
140
0.0
140
0.0
140
0.0
140
0.0
140
0.0
140
0.0
140
0.0
140
0.0
140
0.0
140
0.0
140
0.0
140
0.0
140
0.0
140
0.0
140
0.0
140
0.0
140
0.0
140
0.0
140
0.0
140
0.0
140
0.0
140
0.0
140
0.0
140
0.0
140
0.0
140
0.0
140
0.0
140
0.0
140
0.0
140
0.0
140
0.0
140
0.0
140
0.0
140
0.0
140
0.0
140
0.0
140
0.0
140
0.0
140
0.0
140
0.0
140
0.0
140
0.0
140
0.0
140
0.0
140
0.0
140
0.0
140
0.0
140
0.0
140
0.0
140
0.0
140
0.0
140
0.0
140
0.0
140
0.0
140
0.0
140
0.0
140
0.0
140
0.0
140
0.0
140
0.0
140
0.0
140
0.0
140
0.0
140
0.0
140
0.0
140
0.0
140
0.0
140
0.0
140
0.0
140
0.0
140
0.0
140
0.0
140
0.0
140
0.0
140
0.0
140
0.0
140
0.0
140
0.0
140
0.0
140
0.0
140
0.0
140
0.0
140
0.0
140
0.0
140
0.0
140
0.0
140
0.0
140
0.0
140
0.0
140
0.0
140
0.0
140
0.0
140
0.0
140
0.0
140
0.0
140
0.0
140
0.0
140
0.0
140
0.0
140
0.0
140
0.0
140
0.0
140
0.0
140
0.0
140
0.0
140
0.0
140
0.0
140
0.0
140
0.0
140
0.0
140
0.0
140
0.0
140
0.0
140
0.0
140
0.0
140
0.0
140
0.0
140
0.0
140
0.0
140
0.0
140
0.0
140
0.0
140
0.0
140
0.0
140
0.0
140
0.0
140
0.0
140
0.0
140
0.0
140
0.0
140
0.0
140
0.0
140
0.0
140
0.0
140
0.0
140
0.0
140
0.0
140
0.0
140
0.0
140
0.0
140
0.0
140
0.0
140
0.0
140
0.0
140
0.0
140
0.0
140
0.0
140
0.0
140
0.0
140
0.0
140
0.0
140
0.0
140
0.0
140
0.0
140
0.0
140
0.0
140
0.0
140
0.0
140
0.0
140
0.0
140
0.0
140
0.0
140
0.0
140
0.0
140
0.0
140
0.0
140
0.0
140
0.0
140
0.0
140
0.0
140
0.0
140
0.0
140
0.0
140
0.0
140
0.0
140
0.0
140
0.0
140
0.0
140
0.0
140
0.0
140
0.0
140
0.0
140
0.0
140
0.0
140
0.0
140
0.0
140
0.0
140
0.0
140
0.0
140
0.0
140
0.0
140
0.0
140
0.0
140
0.0
140
0.0
140
0.0
140
0.0
140
0.0
140
0.0
140
0.0
140
0.0
140
0.0
140
0.0
140
0.0
140
0.0
140
0.0
140
0.0
140
0.0
140
0.0
140
0.0
140
0.0
140
0.0
140
0.0
140
0.0
140
0.0
140
0.0
140
0.0
140
0.0
140
0.0
140
0.0
140
0.0
140
0.0
140
0.0
140
0.0
140
0.0
140
0.0
140
0.0
140
0.0
140
0.0
140
0.0
140
0.0
140
0.0
140
0.0
140
0.0
140
0.0
140
0.0
140
0.0
140
0.0
140
0.0
140
0.0
140
0.0
140
0.0
140
0.0
140
0.0
140
0.0
140
0.0
140
0.0
140
0.0
140
0.0
140
0.0
140
0.0
140
0.0
140
0.0
140
0.0
140
0.0
140
0.0
140
0.0
140
0.0
140
0.0
140
0.0
140
0.0
140
0.0
140
0.0
140
0.0
140
0.0
140
0.0
140
0.0
140
0.0
140
0.0
140
0.0
140
0.0
140
0.0
140
0.0
140
0.0
140
0.0
140
0.0
140
0.0
140
0.0
140
0.0
140
0.0
140
0.0
140
0.0
140
0.0
140
0.0
140
0.0
140
0.0
 90
        0
  0
POLYLINE
  5
FA
330
1F
100
AcDbEntity
  8
OracDecor_cornice_mouldings
 62
    33
420
 14782295
100
AcDb2dPolyline
 66
     1
 10
0.0
 20
0.0
 30
0.0000134482943395
 70
     1
210
-0.9999999999999769
220
0.0000001788139343
230
-0.0000001192092896
  0
VERTEX
  5
FB
330
FA
100
AcDbEntity
  8
OracDecor_cornice_mouldings
 62
    33
420
 14782295
100
AcDbVertex
100
AcDb2dVertex
 10
-113.1505508422851
 20
-17.01602363586426
 30
0.0000134482943395
  0
VERTEX
  5
FC
330
FA
100
AcDbEntity
  8
OracDecor_cornice_mouldings
 62
    33
420
 14782295
100
AcDbVertex
100
AcDb2dVertex
 10
-114.8006744384765
 20
-14.71386814117431
 30
0.0000134482943395
  0
VERTEX
  5
FD
330
FA
100
AcDbEntity
  8
OracDecor_cornice_mouldings
 62
    33
420
 14782295
100
AcDbVertex
100
AcDb2dVertex
 10
-116.2691802978515
 20
-12.66291236877441
 30
0.0000134482943395
  0
VERTEX
  5
FE
330
FA
100
AcDbEntity
  8
OracDecor_cornice_mouldings
 62
    33
420
 14782295
100
AcDbVertex
100
AcDb2dVertex
 10
-118.2260818481445
 20
-11.08168220520019
 30
0.0000134482943395
  0
VERTEX
  5
FF
330
FA
100
AcDbEntity
  8
OracDecor_cornice_mouldings
 62
    33
420
 14782295
100
AcDbVertex
100
AcDb2dVertex
 10
-120.529670715332
 20
-10.0846881866455
 30
0.0000134482943395
  0
VERTEX
  5
100
330
FA
100
AcDbEntity
  8
OracDecor_cornice_mouldings
 62
    33
420
 14782295
100
AcDbVertex
100
AcDb2dVertex
 10
-123.0131072998047
 20
-9.744142532348632
 30
0.0000134482943395
  0
VERTEX
  5
101
330
FA
100
AcDbEntity
  8
OracDecor_cornice_mouldings
 62
    33
420
 14782295
100
AcDbVertex
100
AcDb2dVertex
 10
-128.5001068115234
 20
-9.744150161743164
 30
0.0000134482943395
  0
VERTEX
  5
102
330
FA
100
AcDbEntity
  8
OracDecor_cornice_mouldings
 62
    33
420
 14782295
100
AcDbVertex
100
AcDb2dVertex
 10
-128.5001068115234
 20
-5.554239273071289
 30
0.0000134482943395
  0
VERTEX
  5
103
330
FA
100
AcDbEntity
  8
OracDecor_cornice_mouldings
 62
    33
420
 14782295
100
AcDbVertex
100
AcDb2dVertex
 10
-128.5670928955078
 20
-5.301774978637695
 30
0.0000134482943395
  0
VERTEX
  5
104
330
FA
100
AcDbEntity
  8
OracDecor_cornice_mouldings
 62
    33
420
 14782295
100
AcDbVertex
100
AcDb2dVertex
 10
-128.7501068115234
 20
-5.116952896118164
 30
0.0000134482943395
  0
VERTEX
  5
105
330
FA
100
AcDbEntity
  8
OracDecor_cornice_mouldings
 62
    33
420
 14782295
100
AcDbVertex
100
AcDb2dVertex
 10
-129.0001068115234
 20
-5.049310684204101
 30
0.0000134482943395
  0
VERTEX
  5
106
330
FA
100
AcDbEntity
  8
OracDecor_cornice_mouldings
 62
    33
420
 14782295
100
AcDbVertex
100
AcDb2dVertex
 10
-135.0001068115234
 20
-5.049310684204101
 30
0.0000134482943395
  0
VERTEX
  5
107
330
FA
100
AcDbEntity
  8
OracDecor_cornice_mouldings
 62
    33
420
 14782295
100
AcDbVertex
100
AcDb2dVertex
 10
-135.0001068115234
 20
-0.0000020861689336
 30
0.0000134482943395
  0
VERTEX
  5
108
330
FA
100
AcDbEntity
  8
OracDecor_cornice_mouldings
 62
    33
420
 14782295
100
AcDbVertex
100
AcDb2dVertex
 10
-119.9686660766601
 20
-0.0000017862716959
 30
0.0000134482943395
  0
VERTEX
  5
109
330
FA
100
AcDbEntity
  8
OracDecor_cornice_mouldings
 62
    33
420
 14782295
100
AcDbVertex
100
AcDb2dVertex
 10
-119.5236358642578
 20
-0.7643299102783204
 30
0.0000134482943395
  0
VERTEX
  5
10A
330
FA
100
AcDbEntity
  8
OracDecor_cornice_mouldings
 62
    33
420
 14782295
100
AcDbVertex
100
AcDb2dVertex
 10
-118.8924942016601
 20
-1.187257647514343
 30
0.0000134482943395
  0
VERTEX
  5
10B
330
FA
100
AcDbEntity
  8
OracDecor_cornice_mouldings
 62
    33
420
 14782295
100
AcDbVertex
100
AcDb2dVertex
 10
-118.1449432373047
 20
-1.31053340435028
 30
0.0000134482943395
  0
VERTEX
  5
10C
330
FA
100
AcDbEntity
  8
OracDecor_cornice_mouldings
 62
    33
420
 14782295
100
AcDbVertex
100
AcDb2dVertex
 10
-117.4134750366211
 20
-1.112382769584655
 30
0.0000134482943395
  0
VERTEX
  5
10D
330
FA
100
AcDbEntity
  8
OracDecor_cornice_mouldings
 62
    33
420
 14782295
100
AcDbVertex
100
AcDb2dVertex
 10
-115.2664413452148
 20
-0.0000017444158402
 30
0.0000134482943395
  0
VERTEX
  5
10E
330
FA
100
AcDbEntity
  8
OracDecor_cornice_mouldings
 62
    33
420
 14782295
100
AcDbVertex
100
AcDb2dVertex
 10
-101.1740570068359
 20
-0.0000015004907254
 30
0.0000134482943395
  0
VERTEX
  5
10F
330
FA
100
AcDbEntity
  8
OracDecor_cornice_mouldings
 62
    33
420
 14782295
100
AcDbVertex
100
AcDb2dVertex
 10
-99.02766418457032
 20
-7.690560340881347
 30
0.0000134482943395
  0
VERTEX
  5
110
330
FA
100
AcDbEntity
  8
OracDecor_cornice_mouldings
 62
    33
420
 14782295
100
AcDbVertex
100
AcDb2dVertex
 10
-98.29698181152345
 20
-9.370728492736816
 30
0.0000134482943395
  0
VERTEX
  5
111
330
FA
100
AcDbEntity
  8
OracDecor_cornice_mouldings
 62
    33
420
 14782295
100
AcDbVertex
100
AcDb2dVertex
 10
-97.10162353515626
 20
-10.75304508209228
 30
0.0000134482943395
  0
VERTEX
  5
112
330
FA
100
AcDbEntity
  8
OracDecor_cornice_mouldings
 62
    33
420
 14782295
100
AcDbVertex
100
AcDb2dVertex
 10
-95.55128479003906
 20
-11.71055793762207
 30
0.0000134482943395
  0
VERTEX
  5
113
330
FA
100
AcDbEntity
  8
OracDecor_cornice_mouldings
 62
    33
420
 14782295
100
AcDbVertex
100
AcDb2dVertex
 10
-93.78834533691406
 20
-12.15540504455566
 30
0.0000134482943395
  0
VERTEX
  5
114
330
FA
100
AcDbEntity
  8
OracDecor_cornice_mouldings
 62
    33
420
 14782295
100
AcDbVertex
100
AcDb2dVertex
 10
-85.37402343750001
 20
-13.78711795806885
 30
0.0000134482943395
  0
VERTEX
  5
115
330
FA
100
AcDbEntity
  8
OracDecor_cornice_mouldings
 62
    33
420
 14782295
100
AcDbVertex
100
AcDb2dVertex
 10
-77.42800903320312
 20
-17.02459716796875
 30
0.0000134482943395
  0
VERTEX
  5
116
330
FA
100
AcDbEntity
  8
OracDecor_cornice_mouldings
 62
    33
420
 14782295
100
AcDbVertex
100
AcDb2dVertex
 10
-70.24807739257813
 20
-21.74656677246094
 30
0.0000134482943395
  0
VERTEX
  5
117
330
FA
100
AcDbEntity
  8
OracDecor_cornice_mouldings
 62
    33
420
 14782295
100
AcDbVertex
100
AcDb2dVertex
 10
-64.10310363769531
 20
-27.77607727050781
 30
0.0000134482943395
  0
VERTEX
  5
118
330
FA
100
AcDbEntity
  8
OracDecor_cornice_mouldings
 62
    33
420
 14782295
100
AcDbVertex
100
AcDb2dVertex
 10
-59.22259521484375
 20
-34.88793182373047
 30
0.0000134482943395
  0
VERTEX
  5
119
330
FA
100
AcDbEntity
  8
OracDecor_cornice_mouldings
 62
    33
420
 14782295
100
AcDbVertex
100
AcDb2dVertex
 10
-55.78943634033203
 20
-42.81582641601562
 30
0.0000134482943395
  0
VERTEX
  5
11A
330
FA
100
AcDbEntity
  8
OracDecor_cornice_mouldings
 62
    33
420
 14782295
100
AcDbVertex
100
AcDb2dVertex
 10
-53.93222045898437
 20
-51.26263427734375
 30
0.0000134482943395
  0
VERTEX
  5
11B
330
FA
100
AcDbEntity
  8
OracDecor_cornice_mouldings
 62
    33
420
 14782295
100
AcDbVertex
100
AcDb2dVertex
 10
-53.32825469970703
 20
-53.75810241699219
 30
0.0000134482943395
  0
VERTEX
  5
11C
330
FA
100
AcDbEntity
  8
OracDecor_cornice_mouldings
 62
    33
420
 14782295
100
AcDbVertex
100
AcDb2dVertex
 10
-51.77831268310547
 20
-56.79409790039063
 30
0.0000134482943395
  0
VERTEX
  5
11D
330
FA
100
AcDbEntity
  8
OracDecor_cornice_mouldings
 62
    33
420
 14782295
100
AcDbVertex
100
AcDb2dVertex
 10
-49.44937133789062
 20
-59.27093887329101
 30
0.0000134482943395
  0
VERTEX
  5
11E
330
FA
100
AcDbEntity
  8
OracDecor_cornice_mouldings
 62
    33
420
 14782295
100
AcDbVertex
100
AcDb2dVertex
 10
-46.59598541259765
 20
-61.74119567871094
 30
0.0000134482943395
  0
VERTEX
  5
11F
330
FA
100
AcDbEntity
  8
OracDecor_cornice_mouldings
 62
    33
420
 14782295
100
AcDbVertex
100
AcDb2dVertex
 10
-44.9350357055664
 20
-64.15336608886718
 30
0.0000134482943395
  0
VERTEX
  5
120
330
FA
100
AcDbEntity
  8
OracDecor_cornice_mouldings
 62
    33
420
 14782295
100
AcDbVertex
100
AcDb2dVertex
 10
-43.89773559570312
 20
-66.89830017089843
 30
0.0000134482943395
  0
VERTEX
  5
121
330
FA
100
AcDbEntity
  8
OracDecor_cornice_mouldings
 62
    33
420
 14782295
100
AcDbVertex
100
AcDb2dVertex
 10
-43.54505920410156
 20
-69.81465148925781
 30
0.0000134482943395
  0
VERTEX
  5
122
330
FA
100
AcDbEntity
  8
OracDecor_cornice_mouldings
 62
    33
420
 14782295
100
AcDbVertex
100
AcDb2dVertex
 10
-43.38526153564453
 20
-73.41596984863281
 30
0.0000134482943395
  0
VERTEX
  5
123
330
FA
100
AcDbEntity
  8
OracDecor_cornice_mouldings
 62
    33
420
 14782295
100
AcDbVertex
100
AcDb2dVertex
 10
-42.29867553710938
 20
-76.23040771484375
 30
0.0000134482943395
  0
VERTEX
  5
124
330
FA
100
AcDbEntity
  8
OracDecor_cornice_mouldings
 62
    33
420
 14782295
100
AcDbVertex
100
AcDb2dVertex
 10
-39.95284271240235
 20
-78.10472869873047
 30
0.0000134482943395
  0
VERTEX
  5
125
330
FA
100
AcDbEntity
  8
OracDecor_cornice_mouldings
 62
    33
420
 14782295
100
AcDbVertex
100
AcDb2dVertex
 10
-33.09852600097656
 20
-81.06304931640625
 30
0.0000134482943395
  0
VERTEX
  5
126
330
FA
100
AcDbEntity
  8
OracDecor_cornice_mouldings
 62
    33
420
 14782295
100
AcDbVertex
100
AcDb2dVertex
 10
-27.74720001220703
 20
-84.69457244873046
 30
0.0000134482943395
  0
VERTEX
  5
127
330
FA
100
AcDbEntity
  8
OracDecor_cornice_mouldings
 62
    33
420
 14782295
100
AcDbVertex
100
AcDb2dVertex
 10
-23.19891738891602
 20
-89.30924987792968
 30
0.0000134482943395
  0
VERTEX
  5
128
330
FA
100
AcDbEntity
  8
OracDecor_cornice_mouldings
 62
    33
420
 14782295
100
AcDbVertex
100
AcDb2dVertex
 10
-0.0001101493835449
 20
-117.9838333129882
 30
0.0000134482943395
  0
VERTEX
  5
129
330
FA
100
AcDbEntity
  8
OracDecor_cornice_mouldings
 62
    33
420
 14782295
100
AcDbVertex
100
AcDb2dVertex
 10
-0.0001144409179688
 20
-128.1366577148437
 30
0.0000134482943395
  0
VERTEX
  5
12A
330
FA
100
AcDbEntity
  8
OracDecor_cornice_mouldings
 62
    33
420
 14782295
100
AcDbVertex
100
AcDb2dVertex
 10
-0.8983535766601562
 20
-128.7917785644531
 30
0.0000134482943395
  0
VERTEX
  5
12B
330
FA
100
AcDbEntity
  8
OracDecor_cornice_mouldings
 62
    33
420
 14782295
100
AcDbVertex
100
AcDb2dVertex
 10
-1.219371795654296
 20
-129.398208618164
 30
0.0000134482943395
  0
VERTEX
  5
12C
330
FA
100
AcDbEntity
  8
OracDecor_cornice_mouldings
 62
    33
420
 14782295
100
AcDbVertex
100
AcDb2dVertex
 10
-1.294349670410156
 20
-130.0816345214844
 30
0.0000134482943395
  0
VERTEX
  5
12D
330
FA
100
AcDbEntity
  8
OracDecor_cornice_mouldings
 62
    33
420
 14782295
100
AcDbVertex
100
AcDb2dVertex
 10
-1.112594604492187
 20
-130.7442932128906
 30
0.0000134482943395
  0
VERTEX
  5
12E
330
FA
100
AcDbEntity
  8
OracDecor_cornice_mouldings
 62
    33
420
 14782295
100
AcDbVertex
100
AcDb2dVertex
 10
-0.7000732421875
 20
-131.2913818359375
 30
0.0000134482943395
  0
VERTEX
  5
12F
330
FA
100
AcDbEntity
  8
OracDecor_cornice_mouldings
 62
    33
420
 14782295
100
AcDbVertex
100
AcDb2dVertex
 10
-0.0001145601272583
 20
-131.6871185302734
 30
0.0000134482943395
  0
VERTEX
  5
130
330
FA
100
AcDbEntity
  8
OracDecor_cornice_mouldings
 62
    33
420
 14782295
100
AcDbVertex
100
AcDb2dVertex
 10
-0.000114917755127
 20
-140.8799133300781
 30
0.0000134482943395
  0
VERTEX
  5
131
330
FA
100
AcDbEntity
  8
OracDecor_cornice_mouldings
 62
    33
420
 14782295
100
AcDbVertex
100
AcDb2dVertex
 10
-2.793602466583251
 20
-142.4543151855468
 30
0.0000134482943395
  0
VERTEX
  5
132
330
FA
100
AcDbEntity
  8
OracDecor_cornice_mouldings
 62
    33
420
 14782295
100
AcDbVertex
100
AcDb2dVertex
 10
-4.065895557403564
 20
-143.4142913818359
 30
0.0000134482943395
  0
VERTEX
  5
133
330
FA
100
AcDbEntity
  8
OracDecor_cornice_mouldings
 62
    33
420
 14782295
100
AcDbVertex
100
AcDb2dVertex
 10
-5.044121265411376
 20
-144.6775970458984
 30
0.0000134482943395
  0
VERTEX
  5
134
330
FA
100
AcDbEntity
  8
OracDecor_cornice_mouldings
 62
    33
420
 14782295
100
AcDbVertex
100
AcDb2dVertex
 10
-5.65990924835205
 20
-146.1558074951172
 30
0.0000134482943395
  0
VERTEX
  5
135
330
FA
100
AcDbEntity
  8
OracDecor_cornice_mouldings
 62
    33
420
 14782295
100
AcDbVertex
100
AcDb2dVertex
 10
-5.87011432647705
 20
-147.7455596923828
 30
0.0000134482943395
  0
VERTEX
  5
136
330
FA
100
AcDbEntity
  8
OracDecor_cornice_mouldings
 62
    33
420
 14782295
100
AcDbVertex
100
AcDb2dVertex
 10
-5.988570690155029
 20
-201.4378814697266
 30
0.0000134482943395
  0
VERTEX
  5
137
330
FA
100
AcDbEntity
  8
OracDecor_cornice_mouldings
 62
    33
420
 14782295
100
AcDbVertex
100
AcDb2dVertex
 10
-6.294593334197998
 20
-205.257568359375
 30
0.0000134482943395
  0
VERTEX
  5
138
330
FA
100
AcDbEntity
  8
OracDecor_cornice_mouldings
 62
    33
420
 14782295
100
AcDbVertex
100
AcDb2dVertex
 10
-5.841022014617919
 20
-208.5195159912109
 30
0.0000134482943395
  0
VERTEX
  5
139
330
FA
100
AcDbEntity
  8
OracDecor_cornice_mouldings
 62
    33
420
 14782295
100
AcDbVertex
100
AcDb2dVertex
 10
-4.719135284423828
 20
-211.6125030517578
 30
0.0000134482943395
  0
VERTEX
  5
13A
330
FA
100
AcDbEntity
  8
OracDecor_cornice_mouldings
 62
    33
420
 14782295
100
AcDbVertex
100
AcDb2dVertex
 10
-2.978836059570312
 20
-214.3986968994141
 30
0.0000134482943395
  0
VERTEX
  5
13B
330
FA
100
AcDbEntity
  8
OracDecor_cornice_mouldings
 62
    33
420
 14782295
100
AcDbVertex
100
AcDb2dVertex
 10
-2.550685882568359
 20
-214.7781677246094
 30
0.0000134482943395
  0
VERTEX
  5
13C
330
FA
100
AcDbEntity
  8
OracDecor_cornice_mouldings
 62
    33
420
 14782295
100
AcDbVertex
100
AcDb2dVertex
 10
-2.016841888427734
 20
-214.9789123535156
 30
0.0000134482943395
  0
VERTEX
  5
13D
330
FA
100
AcDbEntity
  8
OracDecor_cornice_mouldings
 62
    33
420
 14782295
100
AcDbVertex
100
AcDb2dVertex
 10
-0.0001144409179688
 20
-215.5235443115234
 30
0.0000134482943395
  0
VERTEX
  5
13E
330
FA
100
AcDbEntity
  8
OracDecor_cornice_mouldings
 62
    33
420
 14782295
100
AcDbVertex
100
AcDb2dVertex
 10
-0.0001189708709717
 20
-234.0024871826172
 30
0.0000134482943395
  0
VERTEX
  5
13F
330
FA
100
AcDbEntity
  8
OracDecor_cornice_mouldings
 62
    33
420
 14782295
100
AcDbVertex
100
AcDb2dVertex
 10
-0.8983581066131591
 20
-234.6575927734375
 30
0.0000134482943395
  0
VERTEX
  5
140
330
FA
100
AcDbEntity
  8
OracDecor_cornice_mouldings
 62
    33
420
 14782295
100
AcDbVertex
100
AcDb2dVertex
 10
-1.219376325607299
 20
-235.2640380859375
 30
0.0000134482943395
  0
VERTEX
  5
141
330
FA
100
AcDbEntity
  8
OracDecor_cornice_mouldings
 62
    33
420
 14782295
100
AcDbVertex
100
AcDb2dVertex
 10
-1.294358253479003
 20
-235.9474639892578
 30
0.0000134482943395
  0
VERTEX
  5
142
330
FA
100
AcDbEntity
  8
OracDecor_cornice_mouldings
 62
    33
420
 14782295
100
AcDbVertex
100
AcDb2dVertex
 10
-1.112599372863769
 20
-236.6101226806641
 30
0.0000134482943395
  0
VERTEX
  5
143
330
FA
100
AcDbEntity
  8
OracDecor_cornice_mouldings
 62
    33
420
 14782295
100
AcDbVertex
100
AcDb2dVertex
 10
-0.7000818252563477
 20
-237.1572113037109
 30
0.0000134482943395
  0
VERTEX
  5
144
330
FA
100
AcDbEntity
  8
OracDecor_cornice_mouldings
 62
    33
420
 14782295
100
AcDbVertex
100
AcDb2dVertex
 10
-0.0001192092895508
 20
-237.5529479980469
 30
0.0000134482943395
  0
VERTEX
  5
145
330
FA
100
AcDbEntity
  8
OracDecor_cornice_mouldings
 62
    33
420
 14782295
100
AcDbVertex
100
AcDb2dVertex
 10
-0.0001199245452881
 20
-255.9995269775391
 30
0.0000134482943395
  0
VERTEX
  5
146
330
FA
100
AcDbEntity
  8
OracDecor_cornice_mouldings
 62
    33
420
 14782295
100
AcDbVertex
100
AcDb2dVertex
 10
-6.000120162963867
 20
-255.9995269775391
 30
0.0000134482943395
  0
VERTEX
  5
147
330
FA
100
AcDbEntity
  8
OracDecor_cornice_mouldings
 62
    33
420
 14782295
100
AcDbVertex
100
AcDb2dVertex
 10
-6.000119686126708
 20
-249.4037322998047
 30
0.0000134482943395
  0
VERTEX
  5
148
330
FA
100
AcDbEntity
  8
OracDecor_cornice_mouldings
 62
    33
420
 14782295
100
AcDbVertex
100
AcDb2dVertex
 10
-6.058366298675537
 20
-249.167236328125
 30
0.0000134482943395
  0
VERTEX
  5
149
330
FA
100
AcDbEntity
  8
OracDecor_cornice_mouldings
 62
    33
420
 14782295
100
AcDbVertex
100
AcDb2dVertex
 10
-6.219407558441162
 20
-248.9859008789062
 30
0.0000134482943395
  0
VERTEX
  5
14A
330
FA
100
AcDbEntity
  8
OracDecor_cornice_mouldings
 62
    33
420
 14782295
100
AcDbVertex
100
AcDb2dVertex
 10
-6.445893764495849
 20
-248.9017791748047
 30
0.0000134482943395
  0
VERTEX
  5
14B
330
FA
100
AcDbEntity
  8
OracDecor_cornice_mouldings
 62
    33
420
 14782295
100
AcDbVertex
100
AcDb2dVertex
 10
-6.790013313293457
 20
-248.8515014648438
 30
0.0000134482943395
  0
VERTEX
  5
14C
330
FA
100
AcDbEntity
  8
OracDecor_cornice_mouldings
 62
    33
420
 14782295
100
AcDbVertex
100
AcDb2dVertex
 10
-7.774429321289062
 20
-248.5238189697266
 30
0.0000134482943395
  0
VERTEX
  5
14D
330
FA
100
AcDbEntity
  8
OracDecor_cornice_mouldings
 62
    33
420
 14782295
100
AcDbVertex
100
AcDb2dVertex
 10
-9.36622142791748
 20
-247.4940338134766
 30
0.0000134482943395
  0
VERTEX
  5
14E
330
FA
100
AcDbEntity
  8
OracDecor_cornice_mouldings
 62
    33
420
 14782295
100
AcDbVertex
100
AcDb2dVertex
 10
-10.21060943603515
 20
-246.3901519775391
 30
0.0000134482943395
  0
VERTEX
  5
14F
330
FA
100
AcDbEntity
  8
OracDecor_cornice_mouldings
 62
    33
420
 14782295
100
AcDbVertex
100
AcDb2dVertex
 10
-10.72029399871826
 20
-245.0936737060547
 30
0.0000134482943395
  0
VERTEX
  5
150
330
FA
100
AcDbEntity
  8
OracDecor_cornice_mouldings
 62
    33
420
 14782295
100
AcDbVertex
100
AcDb2dVertex
 10
-10.85560512542724
 20
-243.7055206298828
 30
0.0000134482943395
  0
VERTEX
  5
151
330
FA
100
AcDbEntity
  8
OracDecor_cornice_mouldings
 62
    33
420
 14782295
100
AcDbVertex
100
AcDb2dVertex
 10
-10.60605812072754
 20
-242.3336029052734
 30
0.0000134482943395
  0
VERTEX
  5
152
330
FA
100
AcDbEntity
  8
OracDecor_cornice_mouldings
 62
    33
420
 14782295
100
AcDbVertex
100
AcDb2dVertex
 10
-9.991019248962402
 20
-241.0845947265625
 30
0.0000134482943395
  0
VERTEX
  5
153
330
FA
100
AcDbEntity
  8
OracDecor_cornice_mouldings
 62
    33
420
 14782295
100
AcDbVertex
100
AcDb2dVertex
 10
-9.058358192443847
 20
-240.0557098388672
 30
0.0000134482943395
  0
VERTEX
  5
154
330
FA
100
AcDbEntity
  8
OracDecor_cornice_mouldings
 62
    33
420
 14782295
100
AcDbVertex
100
AcDb2dVertex
 10
-7.880681037902832
 20
-239.3269805908203
 30
0.0000134482943395
  0
VERTEX
  5
155
330
FA
100
AcDbEntity
  8
OracDecor_cornice_mouldings
 62
    33
420
 14782295
100
AcDbVertex
100
AcDb2dVertex
 10
-7.063714027404785
 20
-239.0352630615234
 30
0.0000134482943395
  0
VERTEX
  5
156
330
FA
100
AcDbEntity
  8
OracDecor_cornice_mouldings
 62
    33
420
 14782295
100
AcDbVertex
100
AcDb2dVertex
 10
-6.865609169006347
 20
-238.9367218017578
 30
0.0000134482943395
  0
VERTEX
  5
157
330
FA
100
AcDbEntity
  8
OracDecor_cornice_mouldings
 62
    33
420
 14782295
100
AcDbVertex
100
AcDb2dVertex
 10
-6.728890419006347
 20
-238.7617034912109
 30
0.0000134482943395
  0
VERTEX
  5
158
330
FA
100
AcDbEntity
  8
OracDecor_cornice_mouldings
 62
    33
420
 14782295
100
AcDbVertex
100
AcDb2dVertex
 10
-6.680119514465332
 20
-238.5442047119141
 30
0.0000134482943395
  0
VERTEX
  5
159
330
FA
100
AcDbEntity
  8
OracDecor_cornice_mouldings
 62
    33
420
 14782295
100
AcDbVertex
100
AcDb2dVertex
 10
-6.680119514465332
 20
-235.7761840820312
 30
0.0000134482943395
  0
VERTEX
  5
15A
330
FA
100
AcDbEntity
  8
OracDecor_cornice_mouldings
 62
    33
420
 14782295
100
AcDbVertex
100
AcDb2dVertex
 10
-7.189564704895019
 20
-231.8504028320313
 30
0.0000134482943395
  0
VERTEX
  5
15B
330
FA
100
AcDbEntity
  8
OracDecor_cornice_mouldings
 62
    33
420
 14782295
100
AcDbVertex
100
AcDb2dVertex
 10
-8.683602333068847
 20
-228.1895446777344
 30
0.0000134482943395
  0
VERTEX
  5
15C
330
FA
100
AcDbEntity
  8
OracDecor_cornice_mouldings
 62
    33
420
 14782295
100
AcDbVertex
100
AcDb2dVertex
 10
-11.06131172180176
 20
-225.0410766601563
 30
0.0000134482943395
  0
VERTEX
  5
15D
330
FA
100
AcDbEntity
  8
OracDecor_cornice_mouldings
 62
    33
420
 14782295
100
AcDbVertex
100
AcDb2dVertex
 10
-14.16190338134765
 20
-222.6178131103516
 30
0.0000134482943395
  0
VERTEX
  5
15E
330
FA
100
AcDbEntity
  8
OracDecor_cornice_mouldings
 62
    33
420
 14782295
100
AcDbVertex
100
AcDb2dVertex
 10
-21.78783988952637
 20
-218.1228637695312
 30
0.0000134482943395
  0
VERTEX
  5
15F
330
FA
100
AcDbEntity
  8
OracDecor_cornice_mouldings
 62
    33
420
 14782295
100
AcDbVertex
100
AcDb2dVertex
 10
-23.93772888183594
 20
-216.3720703125
 30
0.0000134482943395
  0
VERTEX
  5
160
330
FA
100
AcDbEntity
  8
OracDecor_cornice_mouldings
 62
    33
420
 14782295
100
AcDbVertex
100
AcDb2dVertex
 10
-25.47793006896973
 20
-214.0567779541016
 30
0.0000134482943395
  0
VERTEX
  5
161
330
FA
100
AcDbEntity
  8
OracDecor_cornice_mouldings
 62
    33
420
 14782295
100
AcDbVertex
100
AcDb2dVertex
 10
-26.27007675170899
 20
-211.3850402832031
 30
0.0000134482943395
  0
VERTEX
  5
162
330
FA
100
AcDbEntity
  8
OracDecor_cornice_mouldings
 62
    33
420
 14782295
100
AcDbVertex
100
AcDb2dVertex
 10
-26.24329566955566
 20
-208.5958862304687
 30
0.0000134482943395
  0
VERTEX
  5
163
330
FA
100
AcDbEntity
  8
OracDecor_cornice_mouldings
 62
    33
420
 14782295
100
AcDbVertex
100
AcDb2dVertex
 10
-25.39999389648438
 20
-205.9401702880859
 30
0.0000134482943395
  0
VERTEX
  5
164
330
FA
100
AcDbEntity
  8
OracDecor_cornice_mouldings
 62
    33
420
 14782295
100
AcDbVertex
100
AcDb2dVertex
 10
-23.81562423706055
 20
-203.6554718017578
 30
0.0000134482943395
  0
VERTEX
  5
165
330
FA
100
AcDbEntity
  8
OracDecor_cornice_mouldings
 62
    33
420
 14782295
100
AcDbVertex
100
AcDb2dVertex
 10
-21.10149192810059
 20
-201.6478881835937
 30
0.0000134482943395
  0
VERTEX
  5
166
330
FA
100
AcDbEntity
  8
OracDecor_cornice_mouldings
 62
    33
420
 14782295
100
AcDbVertex
100
AcDb2dVertex
 10
-20.91394805908203
 20
-201.4626159667969
 30
0.0000134482943395
  0
VERTEX
  5
167
330
FA
100
AcDbEntity
  8
OracDecor_cornice_mouldings
 62
    33
420
 14782295
100
AcDbVertex
100
AcDb2dVertex
 10
-20.8451156616211
 20
-201.2069549560547
 30
0.0000134482943395
  0
VERTEX
  5
168
330
FA
100
AcDbEntity
  8
OracDecor_cornice_mouldings
 62
    33
420
 14782295
100
AcDbVertex
100
AcDb2dVertex
 10
-20.8451156616211
 20
-197.4639892578125
 30
0.0000134482943395
  0
VERTEX
  5
169
330
FA
100
AcDbEntity
  8
OracDecor_cornice_mouldings
 62
    33
420
 14782295
100
AcDbVertex
100
AcDb2dVertex
 10
-18.12649345397949
 20
-195.932144165039
 30
0.0000134482943395
  0
VERTEX
  5
16A
330
FA
100
AcDbEntity
  8
OracDecor_cornice_mouldings
 62
    33
420
 14782295
100
AcDbVertex
100
AcDb2dVertex
 10
-17.93894958496094
 20
-195.7468719482422
 30
0.0000134482943395
  0
VERTEX
  5
16B
330
FA
100
AcDbEntity
  8
OracDecor_cornice_mouldings
 62
    33
420
 14782295
100
AcDbVertex
100
AcDb2dVertex
 10
-17.87011909484863
 20
-195.4912109375
 30
0.0000134482943395
  0
VERTEX
  5
16C
330
FA
100
AcDbEntity
  8
OracDecor_cornice_mouldings
 62
    33
420
 14782295
100
AcDbVertex
100
AcDb2dVertex
 10
-17.87011337280273
 20
-115.5542449951172
 30
0.0000134482943395
  0
VERTEX
  5
16D
330
FA
100
AcDbEntity
  8
OracDecor_cornice_mouldings
 62
    33
420
 14782295
100
AcDbVertex
100
AcDb2dVertex
 10
-17.93709945678711
 20
-115.3017807006836
 30
0.0000134482943395
  0
VERTEX
  5
16E
330
FA
100
AcDbEntity
  8
OracDecor_cornice_mouldings
 62
    33
420
 14782295
100
AcDbVertex
100
AcDb2dVertex
 10
-18.12011337280273
 20
-115.116958618164
 30
0.0000134482943395
  0
VERTEX
  5
16F
330
FA
100
AcDbEntity
  8
OracDecor_cornice_mouldings
 62
    33
420
 14782295
100
AcDbVertex
100
AcDb2dVertex
 10
-18.37011337280273
 20
-115.04931640625
 30
0.0000134482943395
  0
VERTEX
  5
170
330
FA
100
AcDbEntity
  8
OracDecor_cornice_mouldings
 62
    33
420
 14782295
100
AcDbVertex
100
AcDb2dVertex
 10
-22.94611167907715
 20
-115.04931640625
 30
0.0000134482943395
  0
VERTEX
  5
171
330
FA
100
AcDbEntity
  8
OracDecor_cornice_mouldings
 62
    33
420
 14782295
100
AcDbVertex
100
AcDb2dVertex
 10
-22.94611167907715
 20
-110.8594055175781
 30
0.0000134482943395
  0
VERTEX
  5
172
330
FA
100
AcDbEntity
  8
OracDecor_cornice_mouldings
 62
    33
420
 14782295
100
AcDbVertex
100
AcDb2dVertex
 10
-23.01309967041015
 20
-110.6069412231445
 30
0.0000134482943395
  0
VERTEX
  5
173
330
FA
100
AcDbEntity
  8
OracDecor_cornice_mouldings
 62
    33
420
 14782295
100
AcDbVertex
100
AcDb2dVertex
 10
-23.19611167907715
 20
-110.4221267700195
 30
0.0000134482943395
  0
VERTEX
  5
174
330
FA
100
AcDbEntity
  8
OracDecor_cornice_mouldings
 62
    33
420
 14782295
100
AcDbVertex
100
AcDb2dVertex
 10
-23.44611167907715
 20
-110.3544769287109
 30
0.0000134482943395
  0
VERTEX
  5
175
330
FA
100
AcDbEntity
  8
OracDecor_cornice_mouldings
 62
    33
420
 14782295
100
AcDbVertex
100
AcDb2dVertex
 10
-27.76811218261719
 20
-110.3544769287109
 30
0.0000134482943395
  0
VERTEX
  5
176
330
FA
100
AcDbEntity
  8
OracDecor_cornice_mouldings
 62
    33
420
 14782295
100
AcDbVertex
100
AcDb2dVertex
 10
-28.23774909973145
 20
-105.9012298583984
 30
0.0000134482943395
  0
VERTEX
  5
177
330
FA
100
AcDbEntity
  8
OracDecor_cornice_mouldings
 62
    33
420
 14782295
100
AcDbVertex
100
AcDb2dVertex
 10
-29.62559700012207
 20
-101.6477584838867
 30
0.0000134482943395
  0
VERTEX
  5
178
330
FA
100
AcDbEntity
  8
OracDecor_cornice_mouldings
 62
    33
420
 14782295
100
AcDbVertex
100
AcDb2dVertex
 10
-31.86939430236817
 20
-97.78486633300781
 30
0.0000134482943395
  0
VERTEX
  5
179
330
FA
100
AcDbEntity
  8
OracDecor_cornice_mouldings
 62
    33
420
 14782295
100
AcDbVertex
100
AcDb2dVertex
 10
-34.86849212646485
 20
-94.48584747314454
 30
0.0000134482943395
  0
VERTEX
  5
17A
330
FA
100
AcDbEntity
  8
OracDecor_cornice_mouldings
 62
    33
420
 14782295
100
AcDbVertex
100
AcDb2dVertex
 10
-38.48833465576172
 20
-91.89869689941406
 30
0.0000134482943395
  0
VERTEX
  5
17B
330
FA
100
AcDbEntity
  8
OracDecor_cornice_mouldings
 62
    33
420
 14782295
100
AcDbVertex
100
AcDb2dVertex
 10
-42.56655120849609
 20
-90.13946533203125
 30
0.0000134482943395
  0
VERTEX
  5
17C
330
FA
100
AcDbEntity
  8
OracDecor_cornice_mouldings
 62
    33
420
 14782295
100
AcDbVertex
100
AcDb2dVertex
 10
-44.75223541259765
 20
-89.30546569824219
 30
0.0000134482943395
  0
VERTEX
  5
17D
330
FA
100
AcDbEntity
  8
OracDecor_cornice_mouldings
 62
    33
420
 14782295
100
AcDbVertex
100
AcDb2dVertex
 10
-46.81512451171875
 20
-88.19809722900391
 30
0.0000134482943395
  0
VERTEX
  5
17E
330
FA
100
AcDbEntity
  8
OracDecor_cornice_mouldings
 62
    33
420
 14782295
100
AcDbVertex
100
AcDb2dVertex
 10
-48.72219848632813
 20
-86.8351058959961
 30
0.0000134482943395
  0
VERTEX
  5
17F
330
FA
100
AcDbEntity
  8
OracDecor_cornice_mouldings
 62
    33
420
 14782295
100
AcDbVertex
100
AcDb2dVertex
 10
-50.442626953125
 20
-85.23841857910156
 30
0.0000134482943395
  0
VERTEX
  5
180
330
FA
100
AcDbEntity
  8
OracDecor_cornice_mouldings
 62
    33
420
 14782295
100
AcDbVertex
100
AcDb2dVertex
 10
-51.94814300537109
 20
-83.43431091308593
 30
0.0000134482943395
  0
VERTEX
  5
181
330
FA
100
AcDbEntity
  8
OracDecor_cornice_mouldings
 62
    33
420
 14782295
100
AcDbVertex
100
AcDb2dVertex
 10
-53.21466064453125
 20
-81.45176696777344
 30
0.0000134482943395
  0
VERTEX
  5
182
330
FA
100
AcDbEntity
  8
OracDecor_cornice_mouldings
 62
    33
420
 14782295
100
AcDbVertex
100
AcDb2dVertex
 10
-54.22177886962891
 20
-79.32255554199219
 30
0.0000134482943395
  0
VERTEX
  5
183
330
FA
100
AcDbEntity
  8
OracDecor_cornice_mouldings
 62
    33
420
 14782295
100
AcDbVertex
100
AcDb2dVertex
 10
-54.95293426513672
 20
-77.0816650390625
 30
0.0000134482943395
  0
VERTEX
  5
184
330
FA
100
AcDbEntity
  8
OracDecor_cornice_mouldings
 62
    33
420
 14782295
100
AcDbVertex
100
AcDb2dVertex
 10
-55.39640045166016
 20
-74.76530456542969
 30
0.0000134482943395
  0
VERTEX
  5
185
330
FA
100
AcDbEntity
  8
OracDecor_cornice_mouldings
 62
    33
420
 14782295
100
AcDbVertex
100
AcDb2dVertex
 10
-55.54505920410156
 20
-72.41054534912109
 30
0.0000134482943395
  0
VERTEX
  5
186
330
FA
100
AcDbEntity
  8
OracDecor_cornice_mouldings
 62
    33
420
 14782295
100
AcDbVertex
100
AcDb2dVertex
 10
-55.54505920410156
 20
-70.31958770751953
 30
0.0000134482943395
  0
VERTEX
  5
187
330
FA
100
AcDbEntity
  8
OracDecor_cornice_mouldings
 62
    33
420
 14782295
100
AcDbVertex
100
AcDb2dVertex
 10
-55.61204528808594
 20
-70.06712341308594
 30
0.0000134482943395
  0
VERTEX
  5
188
330
FA
100
AcDbEntity
  8
OracDecor_cornice_mouldings
 62
    33
420
 14782295
100
AcDbVertex
100
AcDb2dVertex
 10
-55.79505920410156
 20
-69.8823013305664
 30
0.0000134482943395
  0
VERTEX
  5
189
330
FA
100
AcDbEntity
  8
OracDecor_cornice_mouldings
 62
    33
420
 14782295
100
AcDbVertex
100
AcDb2dVertex
 10
-56.04505920410156
 20
-69.81465148925781
 30
0.0000134482943395
  0
VERTEX
  5
18A
330
FA
100
AcDbEntity
  8
OracDecor_cornice_mouldings
 62
    33
420
 14782295
100
AcDbVertex
100
AcDb2dVertex
 10
-60.62105560302734
 20
-69.81465148925781
 30
0.0000134482943395
  0
VERTEX
  5
18B
330
FA
100
AcDbEntity
  8
OracDecor_cornice_mouldings
 62
    33
420
 14782295
100
AcDbVertex
100
AcDb2dVertex
 10
-60.62105560302734
 20
-64.77848052978515
 30
0.0000134482943395
  0
VERTEX
  5
18C
330
FA
100
AcDbEntity
  8
OracDecor_cornice_mouldings
 62
    33
420
 14782295
100
AcDbVertex
100
AcDb2dVertex
 10
-60.68804931640625
 20
-64.52601623535156
 30
0.0000134482943395
  0
VERTEX
  5
18D
330
FA
100
AcDbEntity
  8
OracDecor_cornice_mouldings
 62
    33
420
 14782295
100
AcDbVertex
100
AcDb2dVertex
 10
-60.87105560302735
 20
-64.34120178222656
 30
0.0000134482943395
  0
VERTEX
  5
18E
330
FA
100
AcDbEntity
  8
OracDecor_cornice_mouldings
 62
    33
420
 14782295
100
AcDbVertex
100
AcDb2dVertex
 10
-61.12105560302734
 20
-64.27355194091797
 30
0.0000134482943395
  0
VERTEX
  5
18F
330
FA
100
AcDbEntity
  8
OracDecor_cornice_mouldings
 62
    33
420
 14782295
100
AcDbVertex
100
AcDb2dVertex
 10
-65.69705200195312
 20
-64.2735595703125
 30
0.0000134482943395
  0
VERTEX
  5
190
330
FA
100
AcDbEntity
  8
OracDecor_cornice_mouldings
 62
    33
420
 14782295
100
AcDbVertex
100
AcDb2dVertex
 10
-65.69705200195312
 20
-59.14749908447266
 30
0.0000134482943395
  0
VERTEX
  5
191
330
FA
100
AcDbEntity
  8
OracDecor_cornice_mouldings
 62
    33
420
 14782295
100
AcDbVertex
100
AcDb2dVertex
 10
-65.87881469726562
 20
-52.45186614990235
 30
0.0000134482943395
  0
VERTEX
  5
192
330
FA
100
AcDbEntity
  8
OracDecor_cornice_mouldings
 62
    33
420
 14782295
100
AcDbVertex
100
AcDb2dVertex
 10
-67.41154479980469
 20
-45.93490600585937
 30
0.0000134482943395
  0
VERTEX
  5
193
330
FA
100
AcDbEntity
  8
OracDecor_cornice_mouldings
 62
    33
420
 14782295
100
AcDbVertex
100
AcDb2dVertex
 10
-70.23062133789062
 20
-39.87165832519531
 30
0.0000134482943395
  0
VERTEX
  5
194
330
FA
100
AcDbEntity
  8
OracDecor_cornice_mouldings
 62
    33
420
 14782295
100
AcDbVertex
100
AcDb2dVertex
 10
-74.21708679199219
 20
-34.51803588867188
 30
0.0000134482943395
  0
VERTEX
  5
195
330
FA
100
AcDbEntity
  8
OracDecor_cornice_mouldings
 62
    33
420
 14782295
100
AcDbVertex
100
AcDb2dVertex
 10
-79.20271301269531
 20
-30.09999847412109
 30
0.0000134482943395
  0
VERTEX
  5
196
330
FA
100
AcDbEntity
  8
OracDecor_cornice_mouldings
 62
    33
420
 14782295
100
AcDbVertex
100
AcDb2dVertex
 10
-84.97706604003907
 20
-26.80398750305176
 30
0.0000134482943395
  0
VERTEX
  5
197
330
FA
100
AcDbEntity
  8
OracDecor_cornice_mouldings
 62
    33
420
 14782295
100
AcDbVertex
100
AcDb2dVertex
 10
-91.29643249511719
 20
-24.76909065246582
 30
0.0000134482943395
  0
VERTEX
  5
198
330
FA
100
AcDbEntity
  8
OracDecor_cornice_mouldings
 62
    33
420
 14782295
100
AcDbVertex
100
AcDb2dVertex
 10
-97.89410400390625
 20
-24.08112525939941
 30
0.0000134482943395
  0
VERTEX
  5
199
330
FA
100
AcDbEntity
  8
OracDecor_cornice_mouldings
 62
    33
420
 14782295
100
AcDbVertex
100
AcDb2dVertex
 10
-101.6800994873047
 20
-24.08112525939941
 30
0.0000134482943395
  0
VERTEX
  5
19A
330
FA
100
AcDbEntity
  8
OracDecor_cornice_mouldings
 62
    33
420
 14782295
100
AcDbVertex
100
AcDb2dVertex
 10
-101.6800994873047
 20
-20.76477241516113
 30
0.0000134482943395
  0
VERTEX
  5
19B
330
FA
100
AcDbEntity
  8
OracDecor_cornice_mouldings
 62
    33
420
 14782295
100
AcDbVertex
100
AcDb2dVertex
 10
-101.7474212646484
 20
-20.51172065734863
 30
0.0000134482943395
  0
VERTEX
  5
19C
330
FA
100
AcDbEntity
  8
OracDecor_cornice_mouldings
 62
    33
420
 14782295
100
AcDbVertex
100
AcDb2dVertex
 10
-101.9312744140625
 20
-20.32681465148926
 30
0.0000134482943395
  0
VERTEX
  5
19D
330
FA
100
AcDbEntity
  8
OracDecor_cornice_mouldings
 62
    33
420
 14782295
100
AcDbVertex
100
AcDb2dVertex
 10
-102.18212890625
 20
-20.25984382629395
 30
0.0000134482943395
  0
VERTEX
  5
19E
330
FA
100
AcDbEntity
  8
OracDecor_cornice_mouldings
 62
    33
420
 14782295
100
AcDbVertex
100
AcDb2dVertex
 10
-105.5707550048828
 20
-20.27369880676269
 30
0.0000134482943395
  0
VERTEX
  5
19F
330
FA
100
AcDbEntity
  8
OracDecor_cornice_mouldings
 62
    33
420
 14782295
100
AcDbVertex
100
AcDb2dVertex
 10
-108.3607025146484
 20
-19.90128326416015
 30
0.0000134482943395
  0
VERTEX
  5
1A0
330
FA
100
AcDbEntity
  8
OracDecor_cornice_mouldings
 62
    33
420
 14782295
100
AcDbVertex
100
AcDb2dVertex
 10
-110.9503479003906
 20
-18.78831481933594
 30
0.0000134482943395
  0
SEQEND
  5
1A1
330
FA
100
AcDbEntity
  8
OracDecor_cornice_mouldings
 62
    33
420
 14782295
  0
ENDSEC
  0
SECTION
  2
OBJECTS
  0
DICTIONARY
  5
C
330
0
100
AcDbDictionary
281
     1
  3
ACAD_COLOR
350
DC
  3
ACAD_DETAILVIEWSTYLE
350
F5
  3
ACAD_GROUP
350
D
  3
ACAD_LAYOUT
350
1A
  3
ACAD_MATERIAL
350
AA
  3
ACAD_MLEADERSTYLE
350
F1
  3
ACAD_MLINESTYLE
350
17
  3
ACAD_PLOTSETTINGS
350
19
  3
ACAD_PLOTSTYLENAME
350
E
  3
ACAD_SCALELIST
350
DF
  3
ACAD_SECTIONVIEWSTYLE
350
F3
  3
ACAD_TABLESTYLE
350
DD
  3
ACAD_VISUALSTYLE
350
C3
  3
ACDB_RECOMPOSE_DATA
350
1AE
  3
AcDbVariableDictionary
350
1A2
  0
DICTIONARY
  5
DC
102
{ACAD_REACTORS
330
C
102
}
330
C
100
AcDbDictionary
281
     1
  0
DICTIONARY
  5
F5
102
{ACAD_REACTORS
330
C
102
}
330
C
100
AcDbDictionary
281
     1
  3
Imperial24
350
F6
  0
DICTIONARY
  5
D
102
{ACAD_REACTORS
330
C
102
}
330
C
100
AcDbDictionary
281
     1
  0
DICTIONARY
  5
1A
102
{ACAD_REACTORS
330
C
102
}
330
C
100
AcDbDictionary
281
     1
  3
Layout1
350
1E
  3
Layout2
350
26
  3
Model
350
22
  0
DICTIONARY
  5
AA
102
{ACAD_REACTORS
330
C
102
}
330
C
100
AcDbDictionary
281
     1
  3
ByBlock
350
B3
  3
ByLayer
350
AB
  3
Global
350
BB
  0
DICTIONARY
  5
F1
102
{ACAD_REACTORS
330
C
102
}
330
C
100
AcDbDictionary
281
     1
  3
Standard
350
F2
  0
DICTIONARY
  5
17
102
{ACAD_REACTORS
330
C
102
}
330
C
100
AcDbDictionary
281
     1
  3
Standard
350
18
  0
DICTIONARY
  5
19
102
{ACAD_REACTORS
330
C
102
}
330
C
100
AcDbDictionary
281
     1
  0
ACDBDICTIONARYWDFLT
  5
E
102
{ACAD_REACTORS
330
C
102
}
330
C
100
AcDbDictionary
281
     1
  3
ByLayer
350
2D
  3
Normal
350
F
100
AcDbDictionaryWithDefault
340
F
  0
DICTIONARY
  5
DF
102
{ACAD_REACTORS
330
C
102
}
330
C
100
AcDbDictionary
281
     1
  3
A0
350
E0
  3
A1
350
E1
  3
A2
350
E2
  3
A3
350
E3
  3
A4
350
E4
  3
A5
350
E5
  3
A6
350
E6
  3
A7
350
E7
  3
A8
350
E8
  3
A9
350
E9
  3
B0
350
EA
  3
B1
350
EB
  3
B2
350
EC
  3
B3
350
ED
  3
B4
350
EE
  3
B5
350
EF
  3
B6
350
F0
  0
DICTIONARY
  5
F3
102
{ACAD_REACTORS
330
C
102
}
330
C
100
AcDbDictionary
281
     1
  3
Imperial24
350
F4
  0
DICTIONARY
  5
DD
102
{ACAD_REACTORS
330
C
102
}
330
C
100
AcDbDictionary
281
     1
  3
Standard
350
DE
  0
DICTIONARY
  5
C3
102
{ACAD_REACTORS
330
C
102
}
330
C
100
AcDbDictionary
281
     1
  3
2dWireframe
350
C9
  3
Basic
350
C8
  3
Brighten
350
CF
  3
ColorChange
350
D3
  3
Conceptual
350
CC
  3
Dim
350
CE
  3
EdgeColorOff
350
DB
  3
Facepattern
350
D2
  3
Flat
350
C4
  3
FlatWithEdges
350
C5
  3
Gouraud
350
C6
  3
GouraudWithEdges
350
C7
  3
Hidden
350
CB
  3
JitterOff
350
D9
  3
Linepattern
350
D1
  3
OverhangOff
350
DA
  3
Realistic
350
CD
  3
Shaded
350
D8
  3
Shaded with edges
350
D7
  3
Shades of Gray
350
D4
  3
Sketchy
350
D5
  3
Thicken
350
D0
  3
Wireframe
350
CA
  3
X-Ray
350
D6
  0
XRECORD
  5
1AE
102
{ACAD_REACTORS
330
C
102
}
330
C
100
AcDbXrecord
280
     1
 90
        1
330
DE
  0
DICTIONARY
  5
1A2
102
{ACAD_REACTORS
330
C
102
}
330
C
100
AcDbDictionary
281
     1
  3
CANNOSCALE
350
1A8
  3
CMLEADERSTYLE
350
1A4
  3
CTABLESTYLE
350
1A3
  3
CVIEWDETAILSTYLE
350
1A5
  3
CVIEWSECTIONSTYLE
350
1A6
  3
LAYEREVAL
350
1AA
  3
LAYERNOTIFY
350
1AB
  3
LIGHTINGUNITS
350
1A9
  3
MSLTSCALE
350
1A7
  0
ACDBDETAILVIEWSTYLE
  5
F6
102
{ACAD_XDICTIONARY
360
1E3
102
}
102
{ACAD_REACTORS
330
F5
102
}
330
F5
100
AcDbModelDocViewStyle
 70
     0
  3
Imperial24
290
     0
100
AcDbDetailViewStyle
 70
     0
 71
     0
 90
        3
 71
     1
340
11
 62
   256
 40
0.24
340
0
 62
   256
 40
0.24
300

 40
0.36
280
     3
 71
     2
340
16
 90
       25
 62
   256
 71
     3
340
11
 62
   256
 40
0.24
 90
        1
 40
0.75
 90
        1
300
%<\AcVar ViewType \f "%tc1">% %<\AcVar ViewDetailId>%\PSCALE %<\AcVar ViewScale \f "%sn">%
 71
     4
340
16
 90
       25
 62
   256
340
16
 90
       25
 62
   256
280
     0
  0
LAYOUT
  5
1E
102
{ACAD_REACTORS
330
1A
102
}
330
1A
100
AcDbPlotSettings
  1

  2
\\KTXNTBDC\CASF2PN1
  4

  6

 40
0.0
 41
0.0
 42
0.0
 43
0.0
 44
0.0
 45
0.0
 46
0.0
 47
0.0
 48
0.0
 49
0.0
140
0.0
141
0.0
142
1.0
143
1.0
 70
   688
 72
     0
 73
     0
 74
     5
  7

 75
    16
147
1.0
 76
     0
 77
     2
 78
   300
148
0.0
149
0.0
100
AcDbLayout
  1
Layout1
 70
     1
 71
     1
 10
0.0
 20
0.0
 11
12.0
 21
9.0
 12
0.0
 22
0.0
 32
0.0
 14
1.000000000000000E+20
 24
1.000000000000000E+20
 34
1.000000000000000E+20
 15
-1.000000000000000E+20
 25
-1.000000000000000E+20
 35
-1.000000000000000E+20
146
0.0
 13
0.0
 23
0.0
 33
0.0
 16
1.0
 26
0.0
 36
0.0
 17
0.0
 27
1.0
 37
0.0
 76
     0
330
1B
  0
LAYOUT
  5
26
102
{ACAD_REACTORS
330
1A
102
}
330
1A
100
AcDbPlotSettings
  1

  2
\\KTXNTBDC\CASF2PN1
  4

  6

 40
0.0
 41
0.0
 42
0.0
 43
0.0
 44
0.0
 45
0.0
 46
0.0
 47
0.0
 48
0.0
 49
0.0
140
0.0
141
0.0
142
1.0
143
1.0
 70
   688
 72
     0
 73
     0
 74
     5
  7

 75
    16
147
1.0
 76
     0
 77
     2
 78
   300
148
0.0
149
0.0
100
AcDbLayout
  1
Layout2
 70
     1
 71
     2
 10
0.0
 20
0.0
 11
12.0
 21
9.0
 12
0.0
 22
0.0
 32
0.0
 14
0.0
 24
0.0
 34
0.0
 15
0.0
 25
0.0
 35
0.0
146
0.0
 13
0.0
 23
0.0
 33
0.0
 16
1.0
 26
0.0
 36
0.0
 17
0.0
 27
1.0
 37
0.0
 76
     0
330
23
  0
LAYOUT
  5
22
102
{ACAD_REACTORS
330
1A
102
}
330
1A
100
AcDbPlotSettings
  1

  2
\\KTXNTBDC\CASF2PN1
  4

  6

 40
0.0
 41
0.0
 42
0.0
 43
0.0
 44
0.0
 45
0.0
 46
0.0
 47
0.0
 48
0.0
 49
0.0
140
0.0
141
0.0
142
1.0
143
1.0
 70
  1712
 72
     0
 73
     0
 74
     0
  7

 75
     0
147
1.0
 76
     0
 77
     2
 78
   300
148
0.0
149
0.0
100
AcDbLayout
  1
Model
 70
     1
 71
     0
 10
0.0
 20
0.0
 11
12.0
 21
9.0
 12
0.0
 22
0.0
 32
0.0
 14
0.0
 24
0.0
 34
0.0
 15
0.0
 25
0.0
 35
0.0
146
0.0
 13
0.0
 23
0.0
 33
0.0
 16
1.0
 26
0.0
 36
0.0
 17
0.0
 27
1.0
 37
0.0
 76
     0
330
1F
  0
MATERIAL
  5
B3
102
{ACAD_XDICTIONARY
360
B4
102
}
102
{ACAD_REACTORS
330
AA
102
}
330
AA
100
AcDbMaterial
  1
ByBlock
 72
     0
 43
0.0208333333333333
 43
0.0
 43
0.0
 43
0.0
 43
0.0
 43
0.0208333333333333
 43
0.0
 43
0.0
 43
0.0
 43
0.0
 43
1.0
 43
0.0
 43
0.0
 43
0.0
 43
0.0
 43
1.0
 77
     0
 47
0.0208333333333333
 47
0.0
 47
0.0
 47
0.0
 47
0.0
 47
0.0208333333333333
 47
0.0
 47
0.0
 47
0.0
 47
0.0
 47
1.0
 47
0.0
 47
0.0
 47
0.0
 47
0.0
 47
1.0
171
     0
 49
0.0208333333333333
 49
0.0
 49
0.0
 49
0.0
 49
0.0
 49
0.0208333333333333
 49
0.0
 49
0.0
 49
0.0
 49
0.0
 49
1.0
 49
0.0
 49
0.0
 49
0.0
 49
0.0
 49
1.0
175
     0
142
0.0208333333333333
142
0.0
142
0.0
142
0.0
142
0.0
142
0.0208333333333333
142
0.0
142
0.0
142
0.0
142
0.0
142
1.0
142
0.0
142
0.0
142
0.0
142
0.0
142
1.0
179
     0
144
0.0208333333333333
144
0.0
144
0.0
144
0.0
144
0.0
144
0.0208333333333333
144
0.0
144
0.0
144
0.0
144
0.0
144
1.0
144
0.0
144
0.0
144
0.0
144
0.0
144
1.0
147
0.0208333333333333
147
0.0
147
0.0
147
0.0
147
0.0
147
0.0208333333333333
147
0.0
147
0.0
147
0.0
147
0.0
147
1.0
147
0.0
147
0.0
147
0.0
147
0.0
147
1.0
  0
MATERIAL
  5
AB
102
{ACAD_XDICTIONARY
360
AC
102
}
102
{ACAD_REACTORS
330
AA
102
}
330
AA
100
AcDbMaterial
  1
ByLayer
 72
     0
 43
0.0208333333333333
 43
0.0
 43
0.0
 43
0.0
 43
0.0
 43
0.0208333333333333
 43
0.0
 43
0.0
 43
0.0
 43
0.0
 43
1.0
 43
0.0
 43
0.0
 43
0.0
 43
0.0
 43
1.0
 77
     0
 47
0.0208333333333333
 47
0.0
 47
0.0
 47
0.0
 47
0.0
 47
0.0208333333333333
 47
0.0
 47
0.0
 47
0.0
 47
0.0
 47
1.0
 47
0.0
 47
0.0
 47
0.0
 47
0.0
 47
1.0
171
     0
 49
0.0208333333333333
 49
0.0
 49
0.0
 49
0.0
 49
0.0
 49
0.0208333333333333
 49
0.0
 49
0.0
 49
0.0
 49
0.0
 49
1.0
 49
0.0
 49
0.0
 49
0.0
 49
0.0
 49
1.0
175
     0
142
0.0208333333333333
142
0.0
142
0.0
142
0.0
142
0.0
142
0.0208333333333333
142
0.0
142
0.0
142
0.0
142
0.0
142
1.0
142
0.0
142
0.0
142
0.0
142
0.0
142
1.0
179
     0
144
0.0208333333333333
144
0.0
144
0.0
144
0.0
144
0.0
144
0.0208333333333333
144
0.0
144
0.0
144
0.0
144
0.0
144
1.0
144
0.0
144
0.0
144
0.0
144
0.0
144
1.0
147
0.0208333333333333
147
0.0
147
0.0
147
0.0
147
0.0
147
0.0208333333333333
147
0.0
147
0.0
147
0.0
147
0.0
147
1.0
147
0.0
147
0.0
147
0.0
147
0.0
147
1.0
  0
MATERIAL
  5
BB
102
{ACAD_XDICTIONARY
360
BC
102
}
102
{ACAD_REACTORS
330
AA
102
}
330
AA
100
AcDbMaterial
  1
Global
 72
     0
 43
0.0208333333333333
 43
0.0
 43
0.0
 43
0.0
 43
0.0
 43
0.0208333333333333
 43
0.0
 43
0.0
 43
0.0
 43
0.0
 43
1.0
 43
0.0
 43
0.0
 43
0.0
 43
0.0
 43
1.0
 77
     0
 47
0.0208333333333333
 47
0.0
 47
0.0
 47
0.0
 47
0.0
 47
0.0208333333333333
 47
0.0
 47
0.0
 47
0.0
 47
0.0
 47
1.0
 47
0.0
 47
0.0
 47
0.0
 47
0.0
 47
1.0
171
     0
 49
0.0208333333333333
 49
0.0
 49
0.0
 49
0.0
 49
0.0
 49
0.0208333333333333
 49
0.0
 49
0.0
 49
0.0
 49
0.0
 49
1.0
 49
0.0
 49
0.0
 49
0.0
 49
0.0
 49
1.0
175
     0
142
0.0208333333333333
142
0.0
142
0.0
142
0.0
142
0.0
142
0.0208333333333333
142
0.0
142
0.0
142
0.0
142
0.0
142
1.0
142
0.0
142
0.0
142
0.0
142
0.0
142
1.0
179
     0
144
0.0208333333333333
144
0.0
144
0.0
144
0.0
144
0.0
144
0.0208333333333333
144
0.0
144
0.0
144
0.0
144
0.0
144
1.0
144
0.0
144
0.0
144
0.0
144
0.0
144
1.0
147
0.0208333333333333
147
0.0
147
0.0
147
0.0
147
0.0
147
0.0208333333333333
147
0.0
147
0.0
147
0.0
147
0.0
147
1.0
147
0.0
147
0.0
147
0.0
147
0.0
147
1.0
  0
MLEADERSTYLE
  5
F2
102
{ACAD_XDICTIONARY
360
1DF
102
}
102
{ACAD_REACTORS
330
F1
102
}
330
F1
100
AcDbMLeaderStyle
179
     2
170
     2
171
     1
172
     0
 90
        2
 40
0.0
 41
0.0
173
     1
 91
-1056964608
340
14
 92
       -2
290
     1
 42
0.09
291
     1
 43
0.36
  3
Standard
 44
0.18
300

342
11
174
     1
178
     6
175
     1
176
     0
 93
-1056964608
 45
0.18
292
     0
297
     0
 46
0.18
 94
-1056964608
 47
1.0
 49
1.0
140
1.0
293
     1
141
0.0
294
     1
177
     0
142
1.0
295
     0
296
     0
143
0.125
271
     0
272
     9
273
     9
  0
MLINESTYLE
  5
18
102
{ACAD_REACTORS
330
17
102
}
330
17
100
AcDbMlineStyle
  2
STANDARD
 70
     0
  3

 62
   256
 51
90.0
 52
90.0
 71
     2
 49
0.5
 62
   256
  6
BYLAYER
 49
-0.5
 62
   256
  6
BYLAYER
  0
ACDBPLACEHOLDER
  5
2D
102
{ACAD_REACTORS
330
E
102
}
330
E
  0
ACDBPLACEHOLDER
  5
F
102
{ACAD_REACTORS
330
E
102
}
330
E
  0
SCALE
  5
E0
102
{ACAD_REACTORS
330
DF
102
}
330
DF
100
AcDbScale
 70
     0
300
1:1
140
1.0
141
1.0
290
     1
  0
SCALE
  5
E1
102
{ACAD_REACTORS
330
DF
102
}
330
DF
100
AcDbScale
 70
     0
300
1/128" = 1'-0"
140
0.0078125
141
12.0
290
     0
  0
SCALE
  5
E2
102
{ACAD_REACTORS
330
DF
102
}
330
DF
100
AcDbScale
 70
     0
300
1/64" = 1'-0"
140
0.015625
141
12.0
290
     0
  0
SCALE
  5
E3
102
{ACAD_REACTORS
330
DF
102
}
330
DF
100
AcDbScale
 70
     0
300
1/32" = 1'-0"
140
0.03125
141
12.0
290
     0
  0
SCALE
  5
E4
102
{ACAD_REACTORS
330
DF
102
}
330
DF
100
AcDbScale
 70
     0
300
1/16" = 1'-0"
140
0.0625
141
12.0
290
     0
  0
SCALE
  5
E5
102
{ACAD_REACTORS
330
DF
102
}
330
DF
100
AcDbScale
 70
     0
300
3/32" = 1'-0"
140
0.09375
141
12.0
290
     0
  0
SCALE
  5
E6
102
{ACAD_REACTORS
330
DF
102
}
330
DF
100
AcDbScale
 70
     0
300
1/8" = 1'-0"
140
0.125
141
12.0
290
     0
  0
SCALE
  5
E7
102
{ACAD_REACTORS
330
DF
102
}
330
DF
100
AcDbScale
 70
     0
300
3/16" = 1'-0"
140
0.1875
141
12.0
290
     0
  0
SCALE
  5
E8
102
{ACAD_REACTORS
330
DF
102
}
330
DF
100
AcDbScale
 70
     0
300
1/4" = 1'-0"
140
0.25
141
12.0
290
     0
  0
SCALE
  5
E9
102
{ACAD_REACTORS
330
DF
102
}
330
DF
100
AcDbScale
 70
     0
300
3/8" = 1'-0"
140
0.375
141
12.0
290
     0
  0
SCALE
  5
EA
102
{ACAD_REACTORS
330
DF
102
}
330
DF
100
AcDbScale
 70
     0
300
1/2" = 1'-0"
140
0.5
141
12.0
290
     0
  0
SCALE
  5
EB
102
{ACAD_REACTORS
330
DF
102
}
330
DF
100
AcDbScale
 70
     0
300
3/4" = 1'-0"
140
0.75
141
12.0
290
     0
  0
SCALE
  5
EC
102
{ACAD_REACTORS
330
DF
102
}
330
DF
100
AcDbScale
 70
     0
300
1" = 1'-0"
140
1.0
141
12.0
290
     0
  0
SCALE
  5
ED
102
{ACAD_REACTORS
330
DF
102
}
330
DF
100
AcDbScale
 70
     0
300
1-1/2" = 1'-0"
140
1.5
141
12.0
290
     0
  0
SCALE
  5
EE
102
{ACAD_REACTORS
330
DF
102
}
330
DF
100
AcDbScale
 70
     0
300
3" = 1'-0"
140
3.0
141
12.0
290
     0
  0
SCALE
  5
EF
102
{ACAD_REACTORS
330
DF
102
}
330
DF
100
AcDbScale
 70
     0
300
6" = 1'-0"
140
6.0
141
12.0
290
     0
  0
SCALE
  5
F0
102
{ACAD_REACTORS
330
DF
102
}
330
DF
100
AcDbScale
 70
     0
300
1'-0" = 1'-0"
140
12.0
141
12.0
290
     0
  0
ACDBSECTIONVIEWSTYLE
  5
F4
102
{ACAD_XDICTIONARY
360
1E1
102
}
102
{ACAD_REACTORS
330
F3
102
}
330
F3
100
AcDbModelDocViewStyle
 70
     0
  3
Imperial24
290
     0
100
AcDbSectionViewStyle
 70
     0
 71
     0
 90
       78
 71
     1
340
11
 62
   256
 40
0.24
340
0
340
0
 62
   256
 40
0.24
300
I, O, Q, S, X, Z
 40
0.48
 90
        3
 40
0.18
 90
        1
 71
     2
340
16
 90
       25
 62
   256
340
16
 90
       50
 62
   256
 40
0.24
 40
0.0
 40
0.24
 71
     3
340
11
 62
   256
 40
0.24
 90
        1
 40
0.75
 90
        1
300
%<\AcVar ViewType \f "%tc1">% %<\AcVar ViewSectionStartId>%-%<\AcVar ViewSectionEndId>%\PSCALE %<\AcVar ViewScale \f "%sn">%
 71
     4
 62
   256
 62
   257
300
ANSI31
 40
1.0
 90
        0
290
     0
290
     0
 90
        6
 40
0.0
 40
1.570796326794896
 40
0.2617993877991494
 40
1.308996938995747
 40
-0.2617993877991494
 40
1.832595714594046
  0
TABLESTYLE
  5
DE
102
{ACAD_XDICTIONARY
360
1AC
102
}
102
{ACAD_REACTORS
330
DD
102
}
330
DD
100
AcDbTableStyle
280
     0
  3
Standard
 70
     0
 71
     0
 40
0.06
 41
0.06
280
     0
281
     0
  7
Standard
140
0.18
170
     2
 62
     0
 63
     7
283
     0
 90
      512
 91
        0
  1

274
    -2
284
     1
 64
     0
275
    -2
285
     1
 65
     0
276
    -2
286
     1
 66
     0
277
    -2
287
     1
 67
     0
278
    -2
288
     1
 68
     0
279
    -2
289
     1
 69
     0
  7
Standard
140
0.25
170
     5
 62
     0
 63
     7
283
     0
 90
      512
 91
        0
  1

274
    -2
284
     1
 64
     0
275
    -2
285
     1
 65
     0
276
    -2
286
     1
 66
     0
277
    -2
287
     1
 67
     0
278
    -2
288
     1
 68
     0
279
    -2
289
     1
 69
     0
  7
Standard
140
0.18
170
     5
 62
     0
 63
     7
283
     0
 90
      512
 91
        0
  1

274
    -2
284
     1
 64
     0
275
    -2
285
     1
 65
     0
276
    -2
286
     1
 66
     0
277
    -2
287
     1
 67
     0
278
    -2
288
     1
 68
     0
279
    -2
289
     1
 69
     0
  0
VISUALSTYLE
  5
C9
102
{ACAD_XDICTIONARY
360
1B9
102
}
102
{ACAD_REACTORS
330
C3
102
}
330
C3
100
AcDbVisualStyle
  2
2dWireframe
 70
     4
177
     2
291
     0
 71
     0
176
     1
 72
     2
176
     1
 73
     0
176
     1
 90
        0
176
     1
 40
0.6
176
     1
 41
30.0
176
     1
 63
     7
421
 16777215
176
     1
 74
     1
176
     1
 91
        4
176
     1
 64
     7
176
     1
 65
   257
176
     1
 75
     1
176
     1
175
     1
176
     1
 42
1.0
176
     1
 92
        0
176
     1
 66
   257
176
     1
 43
1.0
176
     1
 76
     1
176
     1
 77
     6
176
     1
 78
     2
176
     1
 67
     7
176
     1
 79
     5
176
     1
170
     0
176
     1
171
     0
176
     1
290
     0
176
     1
 93
        1
176
     1
 44
0.0
176
     1
173
     0
176
     1
1001
ACAD
1000
AcDbSavedByObjectVersion
1070
     0
  0
VISUALSTYLE
  5
C8
102
{ACAD_XDICTIONARY
360
1B7
102
}
102
{ACAD_REACTORS
330
C3
102
}
330
C3
100
AcDbVisualStyle
  2
Basic
 70
     7
177
     2
291
     1
 71
     1
176
     1
 72
     0
176
     1
 73
     1
176
     1
 90
        0
176
     1
 40
0.6
176
     1
 41
30.0
176
     1
 63
     7
421
 16777215
176
     1
 74
     0
176
     1
 91
        4
176
     1
 64
     7
176
     1
 65
   257
176
     1
 75
     1
176
     1
175
     1
176
     1
 42
1.0
176
     1
 92
        8
176
     1
 66
     7
176
     1
 43
1.0
176
     1
 76
     1
176
     1
 77
     6
176
     1
 78
     2
176
     1
 67
     7
176
     1
 79
     5
176
     1
170
     0
176
     1
171
     0
176
     1
290
     0
176
     1
 93
        1
176
     1
 44
0.0
176
     1
173
     0
176
     1
1001
ACAD
1000
AcDbSavedByObjectVersion
1070
     0
  0
VISUALSTYLE
  5
CF
102
{ACAD_XDICTIONARY
360
1C5
102
}
102
{ACAD_REACTORS
330
C3
102
}
330
C3
100
AcDbVisualStyle
  2
Brighten
 70
    12
177
     2
291
     1
 71
     2
176
     1
 72
     2
176
     1
 73
     0
176
     1
 90
        0
176
     1
 40
0.6
176
     1
 41
30.0
176
     1
 63
     7
421
 16777215
176
     1
 74
     1
176
     1
 91
        4
176
     1
 64
     7
176
     1
 65
   257
176
     1
 75
     1
176
     1
175
     1
176
     1
 42
1.0
176
     1
 92
        8
176
     1
 66
     7
176
     1
 43
1.0
176
     1
 76
     1
176
     1
 77
     6
176
     1
 78
     2
176
     1
 67
     7
176
     1
 79
     5
176
     1
170
     0
176
     1
171
     0
176
     1
290
     0
176
     1
 93
        1
176
     1
 44
50.0
176
     1
173
     0
176
     1
1001
ACAD
1000
AcDbSavedByObjectVersion
1070
     0
  0
VISUALSTYLE
  5
D3
102
{ACAD_XDICTIONARY
360
1CD
102
}
102
{ACAD_REACTORS
330
C3
102
}
330
C3
100
AcDbVisualStyle
  2
ColorChange
 70
    16
177
     2
291
     1
 71
     2
176
     1
 72
     2
176
     1
 73
     3
176
     1
 90
        0
176
     1
 40
0.6
176
     1
 41
30.0
176
     1
 63
     8
421
  8421504
176
     1
 74
     1
176
     1
 91
        4
176
     1
 64
     7
176
     1
 65
   257
176
     1
 75
     1
176
     1
175
     1
176
     1
 42
1.0
176
     1
 92
        8
176
     1
 66
     8
424
  8421504
176
     1
 43
1.0
176
     1
 76
     1
176
     1
 77
     6
176
     1
 78
     2
176
     1
 67
     7
176
     1
 79
     5
176
     1
170
     0
176
     1
171
     0
176
     1
290
     0
176
     1
 93
        1
176
     1
 44
0.0
176
     1
173
     0
176
     1
1001
ACAD
1000
AcDbSavedByObjectVersion
1070
     0
  0
VISUALSTYLE
  5
CC
102
{ACAD_XDICTIONARY
360
1BF
102
}
102
{ACAD_REACTORS
330
C3
102
}
330
C3
100
AcDbVisualStyle
  2
Conceptual
 70
     9
177
     2
291
     0
 71
     3
176
     1
 72
     2
176
     1
 73
     0
176
     1
 90
        0
176
     1
 40
0.6
176
     1
 41
30.0
176
     1
 63
     7
421
 16777215
176
     1
 74
     2
176
     1
 91
        2
176
     1
 64
     7
176
     1
 65
   257
176
     1
 75
     1
176
     1
175
     1
176
     1
 42
179.0
176
     1
 92
        8
176
     1
 66
     7
176
     1
 43
1.0
176
     1
 76
     1
176
     1
 77
     6
176
     1
 78
     2
176
     1
 67
     7
176
     1
 79
     3
176
     1
170
     0
176
     1
171
     0
176
     1
290
     0
176
     1
 93
        1
176
     1
 44
0.0
176
     1
173
     0
176
     1
1001
ACAD
1000
AcDbSavedByObjectVersion
1070
     0
  0
VISUALSTYLE
  5
CE
102
{ACAD_XDICTIONARY
360
1C3
102
}
102
{ACAD_REACTORS
330
C3
102
}
330
C3
100
AcDbVisualStyle
  2
Dim
 70
    11
177
     2
291
     1
 71
     2
176
     1
 72
     2
176
     1
 73
     0
176
     1
 90
        0
176
     1
 40
0.6
176
     1
 41
30.0
176
     1
 63
     7
421
 16777215
176
     1
 74
     1
176
     1
 91
        4
176
     1
 64
     7
176
     1
 65
   257
176
     1
 75
     1
176
     1
175
     1
176
     1
 42
1.0
176
     1
 92
        8
176
     1
 66
     7
176
     1
 43
1.0
176
     1
 76
     1
176
     1
 77
     6
176
     1
 78
     2
176
     1
 67
     7
176
     1
 79
     5
176
     1
170
     0
176
     1
171
     0
176
     1
290
     0
176
     1
 93
        1
176
     1
 44
-50.0
176
     1
173
     0
176
     1
1001
ACAD
1000
AcDbSavedByObjectVersion
1070
     0
  0
VISUALSTYLE
  5
DB
102
{ACAD_XDICTIONARY
360
1DD
102
}
102
{ACAD_REACTORS
330
C3
102
}
330
C3
100
AcDbVisualStyle
  2
EdgeColorOff
 70
    22
177
     2
291
     1
 71
     2
176
     0
 72
     2
176
     0
 73
     0
176
     0
 90
        0
176
     0
 40
0.6
176
     0
 41
30.0
176
     0
 63
     7
421
 16777215
176
     0
 74
     1
176
     0
 91
        4
176
     0
 64
     7
176
     0
 65
   257
176
     0
 75
     1
176
     0
175
     1
176
     0
 42
1.0
176
     0
 92
        8
176
     2
 66
     7
176
     0
 43
1.0
176
     0
 76
     1
176
     0
 77
     6
176
     0
 78
     2
176
     0
 67
     7
176
     0
 79
     5
176
     0
170
     0
176
     0
171
     0
176
     0
290
     0
176
     0
 93
        1
176
     0
 44
0.0
176
     0
173
     0
176
     0
1001
ACAD
1000
AcDbSavedByObjectVersion
1070
     0
  0
VISUALSTYLE
  5
D2
102
{ACAD_XDICTIONARY
360
1CB
102
}
102
{ACAD_REACTORS
330
C3
102
}
330
C3
100
AcDbVisualStyle
  2
Facepattern
 70
    15
177
     2
291
     1
 71
     2
176
     1
 72
     2
176
     1
 73
     0
176
     1
 90
        0
176
     1
 40
0.6
176
     1
 41
30.0
176
     1
 63
     7
421
 16777215
176
     1
 74
     1
176
     1
 91
        4
176
     1
 64
     7
176
     1
 65
   257
176
     1
 75
     1
176
     1
175
     1
176
     1
 42
1.0
176
     1
 92
        8
176
     1
 66
     7
176
     1
 43
1.0
176
     1
 76
     1
176
     1
 77
     6
176
     1
 78
     2
176
     1
 67
     7
176
     1
 79
     5
176
     1
170
     0
176
     1
171
     0
176
     1
290
     0
176
     1
 93
        1
176
     1
 44
0.0
176
     1
173
     0
176
     1
1001
ACAD
1000
AcDbSavedByObjectVersion
1070
     0
  0
VISUALSTYLE
  5
C4
102
{ACAD_XDICTIONARY
360
1AF
102
}
102
{ACAD_REACTORS
330
C3
102
}
330
C3
100
AcDbVisualStyle
  2
Flat
 70
     0
177
     2
291
     1
 71
     2
176
     1
 72
     1
176
     1
 73
     1
176
     1
 90
        2
176
     1
 40
0.6
176
     1
 41
30.0
176
     1
 63
     7
421
 16777215
176
     1
 74
     0
176
     1
 91
        0
176
     1
 64
     7
176
     1
 65
   257
176
     1
 75
     1
176
     1
175
     1
176
     1
 42
1.0
176
     1
 92
        8
176
     1
 66
     7
176
     1
 43
1.0
176
     1
 76
     1
176
     1
 77
     6
176
     1
 78
     2
176
     1
 67
     7
176
     1
 79
     5
176
     1
170
     0
176
     1
171
     0
176
     1
290
     0
176
     1
 93
       13
176
     1
 44
0.0
176
     1
173
     0
176
     1
1001
ACAD
1000
AcDbSavedByObjectVersion
1070
     0
  0
VISUALSTYLE
  5
C5
102
{ACAD_XDICTIONARY
360
1B1
102
}
102
{ACAD_REACTORS
330
C3
102
}
330
C3
100
AcDbVisualStyle
  2
FlatWithEdges
 70
     1
177
     2
291
     1
 71
     2
176
     1
 72
     1
176
     1
 73
     1
176
     1
 90
        2
176
     1
 40
0.6
176
     1
 41
30.0
176
     1
 63
     7
421
 16777215
176
     1
 74
     1
176
     1
 91
        0
176
     1
 64
     7
176
     1
 65
   257
176
     1
 75
     1
176
     1
175
     1
176
     1
 42
1.0
176
     1
 92
        0
176
     1
 66
   257
176
     1
 43
1.0
176
     1
 76
     1
176
     1
 77
     6
176
     1
 78
     2
176
     1
 67
     7
176
     1
 79
     5
176
     1
170
     0
176
     1
171
     0
176
     1
290
     0
176
     1
 93
       13
176
     1
 44
0.0
176
     1
173
     0
176
     1
1001
ACAD
1000
AcDbSavedByObjectVersion
1070
     0
  0
VISUALSTYLE
  5
C6
102
{ACAD_XDICTIONARY
360
1B3
102
}
102
{ACAD_REACTORS
330
C3
102
}
330
C3
100
AcDbVisualStyle
  2
Gouraud
 70
     2
177
     2
291
     1
 71
     2
176
     1
 72
     2
176
     1
 73
     1
176
     1
 90
        2
176
     1
 40
0.6
176
     1
 41
30.0
176
     1
 63
     7
421
 16777215
176
     1
 74
     0
176
     1
 91
        0
176
     1
 64
     7
176
     1
 65
   257
176
     1
 75
     1
176
     1
175
     1
176
     1
 42
1.0
176
     1
 92
        0
176
     1
 66
     7
176
     1
 43
1.0
176
     1
 76
     1
176
     1
 77
     6
176
     1
 78
     2
176
     1
 67
     7
176
     1
 79
     5
176
     1
170
     0
176
     1
171
     0
176
     1
290
     0
176
     1
 93
       13
176
     1
 44
0.0
176
     1
173
     0
176
     1
1001
ACAD
1000
AcDbSavedByObjectVersion
1070
     0
  0
VISUALSTYLE
  5
C7
102
{ACAD_XDICTIONARY
360
1B5
102
}
102
{ACAD_REACTORS
330
C3
102
}
330
C3
100
AcDbVisualStyle
  2
GouraudWithEdges
 70
     3
177
     2
291
     1
 71
     2
176
     1
 72
     2
176
     1
 73
     1
176
     1
 90
        2
176
     1
 40
0.6
176
     1
 41
30.0
176
     1
 63
     7
421
 16777215
176
     1
 74
     1
176
     1
 91
        0
176
     1
 64
     7
176
     1
 65
   257
176
     1
 75
     1
176
     1
175
     1
176
     1
 42
1.0
176
     1
 92
        0
176
     1
 66
   257
176
     1
 43
1.0
176
     1
 76
     1
176
     1
 77
     6
176
     1
 78
     2
176
     1
 67
     7
176
     1
 79
     5
176
     1
170
     0
176
     1
171
     0
176
     1
290
     0
176
     1
 93
       13
176
     1
 44
0.0
176
     1
173
     0
176
     1
1001
ACAD
1000
AcDbSavedByObjectVersion
1070
     0
  0
VISUALSTYLE
  5
CB
102
{ACAD_XDICTIONARY
360
1BD
102
}
102
{ACAD_REACTORS
330
C3
102
}
330
C3
100
AcDbVisualStyle
  2
Hidden
 70
     6
177
     2
291
     0
 71
     1
176
     1
 72
     2
176
     1
 73
     2
176
     1
 90
        0
176
     1
 40
0.6
176
     1
 41
30.0
176
     1
 63
     7
421
 16777215
176
     1
 74
     2
176
     1
 91
        2
176
     1
 64
     7
176
     1
 65
   257
176
     1
 75
     2
176
     1
175
     1
176
     1
 42
40.0
176
     1
 92
        0
176
     1
 66
   257
176
     1
 43
1.0
176
     1
 76
     1
176
     1
 77
     6
176
     1
 78
     2
176
     1
 67
     7
176
     1
 79
     3
176
     1
170
     0
176
     1
171
     0
176
     1
290
     0
176
     1
 93
        1
176
     1
 44
0.0
176
     1
173
     0
176
     1
1001
ACAD
1000
AcDbSavedByObjectVersion
1070
     0
  0
VISUALSTYLE
  5
D9
102
{ACAD_XDICTIONARY
360
1D9
102
}
102
{ACAD_REACTORS
330
C3
102
}
330
C3
100
AcDbVisualStyle
  2
JitterOff
 70
    20
177
     2
291
     1
 71
     2
176
     0
 72
     2
176
     0
 73
     0
176
     0
 90
        0
176
     0
 40
0.6
176
     0
 41
30.0
176
     0
 63
     7
421
 16777215
176
     0
 74
     1
176
     0
 91
        4
176
     0
 64
     7
176
     0
 65
   257
176
     0
 75
     1
176
     0
175
     1
176
     0
 42
1.0
176
     0
 92
       10
176
     2
 66
     7
176
     0
 43
1.0
176
     0
 76
     1
176
     0
 77
     6
176
     0
 78
     2
176
     0
 67
     7
176
     0
 79
     5
176
     0
170
     0
176
     0
171
     0
176
     0
290
     0
176
     0
 93
        1
176
     0
 44
0.0
176
     0
173
     0
176
     0
1001
ACAD
1000
AcDbSavedByObjectVersion
1070
     0
  0
VISUALSTYLE
  5
D1
102
{ACAD_XDICTIONARY
360
1C9
102
}
102
{ACAD_REACTORS
330
C3
102
}
330
C3
100
AcDbVisualStyle
  2
Linepattern
 70
    14
177
     2
291
     1
 71
     2
176
     1
 72
     2
176
     1
 73
     0
176
     1
 90
        0
176
     1
 40
0.6
176
     1
 41
30.0
176
     1
 63
     7
421
 16777215
176
     1
 74
     1
176
     1
 91
        4
176
     1
 64
     7
176
     1
 65
   257
176
     1
 75
     7
176
     1
175
     7
176
     1
 42
1.0
176
     1
 92
        8
176
     1
 66
     7
176
     1
 43
1.0
176
     1
 76
     1
176
     1
 77
     6
176
     1
 78
     2
176
     1
 67
     7
176
     1
 79
     5
176
     1
170
     0
176
     1
171
     0
176
     1
290
     0
176
     1
 93
        1
176
     1
 44
0.0
176
     1
173
     0
176
     1
1001
ACAD
1000
AcDbSavedByObjectVersion
1070
     0
  0
VISUALSTYLE
  5
DA
102
{ACAD_XDICTIONARY
360
1DB
102
}
102
{ACAD_REACTORS
330
C3
102
}
330
C3
100
AcDbVisualStyle
  2
OverhangOff
 70
    21
177
     2
291
     1
 71
     2
176
     0
 72
     2
176
     0
 73
     0
176
     0
 90
        0
176
     0
 40
0.6
176
     0
 41
30.0
176
     0
 63
     7
421
 16777215
176
     0
 74
     1
176
     0
 91
        4
176
     0
 64
     7
176
     0
 65
   257
176
     0
 75
     1
176
     0
175
     1
176
     0
 42
1.0
176
     0
 92
        9
176
     2
 66
     7
176
     0
 43
1.0
176
     0
 76
     1
176
     0
 77
     6
176
     0
 78
     2
176
     0
 67
     7
176
     0
 79
     5
176
     0
170
     0
176
     0
171
     0
176
     0
290
     0
176
     0
 93
        1
176
     0
 44
0.0
176
     0
173
     0
176
     0
1001
ACAD
1000
AcDbSavedByObjectVersion
1070
     0
  0
VISUALSTYLE
  5
CD
102
{ACAD_XDICTIONARY
360
1C1
102
}
102
{ACAD_REACTORS
330
C3
102
}
330
C3
100
AcDbVisualStyle
  2
Realistic
 70
     8
177
     2
291
     0
 71
     2
176
     1
 72
     3
176
     1
 73
     0
176
     1
 90
        2
176
     1
 40
0.6
176
     1
 41
30.0
176
     1
 63
     7
421
 16777215
176
     1
 74
     0
176
     1
 91
        0
176
     1
 64
     7
176
     1
 65
   257
176
     1
 75
     1
176
     1
175
     1
176
     1
 42
1.0
176
     1
 92
        8
176
     1
 66
   257
176
     1
 43
1.0
176
     1
 76
     1
176
     1
 77
     6
176
     1
 78
     2
176
     1
 67
     7
176
     1
 79
     3
176
     1
170
     0
176
     1
171
     0
176
     1
290
     0
176
     1
 93
       13
176
     1
 44
0.0
176
     1
173
     0
176
     1
1001
ACAD
1000
AcDbSavedByObjectVersion
1070
     0
  0
VISUALSTYLE
  5
D8
102
{ACAD_XDICTIONARY
360
1D7
102
}
102
{ACAD_REACTORS
330
C3
102
}
330
C3
100
AcDbVisualStyle
  2
Shaded
 70
    27
177
     2
291
     0
 71
     2
176
     1
 72
     2
176
     1
 73
     1
176
     1
 90
        2
176
     1
 40
0.6
176
     1
 41
30.0
176
     1
 63
     7
421
 16777215
176
     1
 74
     0
176
     1
 91
        4
176
     1
 64
     7
176
     1
 65
   257
176
     1
 75
     1
176
     1
175
     1
176
     1
 42
1.0
176
     1
 92
        8
176
     1
 66
   257
176
     1
 43
1.0
176
     1
 76
     1
176
     1
 77
     6
176
     1
 78
     2
176
     1
 67
     8
425
  7895160
176
     1
 79
     3
176
     1
170
     0
176
     1
171
     0
176
     1
290
     0
176
     1
 93
        5
176
     1
 44
0.0
176
     1
173
     0
176
     1
1001
ACAD
1000
AcDbSavedByObjectVersion
1070
     0
  0
VISUALSTYLE
  5
D7
102
{ACAD_XDICTIONARY
360
1D5
102
}
102
{ACAD_REACTORS
330
C3
102
}
330
C3
100
AcDbVisualStyle
  2
Shaded with edges
 70
    26
177
     2
291
     0
 71
     2
176
     1
 72
     2
176
     1
 73
     1
176
     1
 90
        2
176
     1
 40
0.6
176
     1
 41
30.0
176
     1
 63
     7
421
 16777215
176
     1
 74
     1
176
     1
 91
       10
176
     1
 64
     7
176
     1
 65
   257
176
     1
 75
     2
176
     1
175
     1
176
     1
 42
1.0
176
     1
 92
        8
176
     1
 66
   257
176
     1
 43
1.0
176
     1
 76
     1
176
     1
 77
     6
176
     1
 78
     2
176
     1
 67
     7
176
     1
 79
     3
176
     1
170
     0
176
     1
171
     0
176
     1
290
     0
176
     1
 93
        5
176
     1
 44
0.0
176
     1
173
     0
176
     1
1001
ACAD
1000
AcDbSavedByObjectVersion
1070
     0
  0
VISUALSTYLE
  5
D4
102
{ACAD_XDICTIONARY
360
1CF
102
}
102
{ACAD_REACTORS
330
C3
102
}
330
C3
100
AcDbVisualStyle
  2
Shades of Gray
 70
    23
177
     2
291
     0
 71
     2
176
     1
 72
     2
176
     1
 73
     3
176
     1
 90
        0
176
     1
 40
0.6
176
     1
 41
30.0
176
     1
 63
     7
421
 16777215
176
     1
 74
     2
176
     1
 91
        2
176
     1
 64
     7
176
     1
 65
     7
176
     1
 75
     1
176
     1
175
     1
176
     1
 42
40.0
176
     1
 92
        8
176
     1
 66
     7
176
     1
 43
1.0
176
     1
 76
     1
176
     1
 77
     6
176
     1
 78
     2
176
     1
 67
     7
176
     1
 79
     3
176
     1
170
     0
176
     1
171
     0
176
     1
290
     0
176
     1
 93
        1
176
     1
 44
0.0
176
     1
173
     0
176
     1
1001
ACAD
1000
AcDbSavedByObjectVersion
1070
     0
  0
VISUALSTYLE
  5
D5
102
{ACAD_XDICTIONARY
360
1D1
102
}
102
{ACAD_REACTORS
330
C3
102
}
330
C3
100
AcDbVisualStyle
  2
Sketchy
 70
    24
177
     2
291
     0
 71
     1
176
     1
 72
     2
176
     1
 73
     2
176
     1
 90
        0
176
     1
 40
0.6
176
     1
 41
30.0
176
     1
 63
     7
421
 16777215
176
     1
 74
     2
176
     1
 91
        2
176
     1
 64
     7
176
     1
 65
     7
176
     1
 75
     1
176
     1
175
     1
176
     1
 42
40.0
176
     1
 92
       11
176
     1
 66
     7
176
     1
 43
1.0
176
     1
 76
     1
176
     1
 77
     6
176
     1
 78
     2
176
     1
 67
     7
176
     1
 79
     6
176
     1
170
     0
176
     1
171
     0
176
     1
290
     0
176
     1
 93
        1
176
     1
 44
0.0
176
     1
173
     0
176
     1
1001
ACAD
1000
AcDbSavedByObjectVersion
1070
     0
  0
VISUALSTYLE
  5
D0
102
{ACAD_XDICTIONARY
360
1C7
102
}
102
{ACAD_REACTORS
330
C3
102
}
330
C3
100
AcDbVisualStyle
  2
Thicken
 70
    13
177
     2
291
     1
 71
     2
176
     1
 72
     2
176
     1
 73
     0
176
     1
 90
        0
176
     1
 40
0.6
176
     1
 41
30.0
176
     1
 63
     7
421
 16777215
176
     1
 74
     1
176
     1
 91
        4
176
     1
 64
     7
176
     1
 65
   257
176
     1
 75
     1
176
     1
175
     1
176
     1
 42
1.0
176
     1
 92
       12
176
     1
 66
     7
176
     1
 43
1.0
176
     1
 76
     1
176
     1
 77
     6
176
     1
 78
     2
176
     1
 67
     7
176
     1
 79
     5
176
     1
170
     0
176
     1
171
     0
176
     1
290
     0
176
     1
 93
        1
176
     1
 44
0.0
176
     1
173
     0
176
     1
1001
ACAD
1000
AcDbSavedByObjectVersion
1070
     0
  0
VISUALSTYLE
  5
CA
102
{ACAD_XDICTIONARY
360
1BB
102
}
102
{ACAD_REACTORS
330
C3
102
}
330
C3
100
AcDbVisualStyle
  2
Wireframe
 70
     5
177
     2
291
     0
 71
     0
176
     1
 72
     2
176
     1
 73
     0
176
     1
 90
        0
176
     1
 40
0.6
176
     1
 41
30.0
176
     1
 63
     7
421
 16777215
176
     1
 74
     1
176
     1
 91
        4
176
     1
 64
     7
176
     1
 65
   257
176
     1
 75
     1
176
     1
175
     1
176
     1
 42
1.0
176
     1
 92
        0
176
     1
 66
   257
176
     1
 43
1.0
176
     1
 76
     1
176
     1
 77
     6
176
     1
 78
     2
176
     1
 67
     7
176
     1
 79
     3
176
     1
170
     0
176
     1
171
     0
176
     1
290
     0
176
     1
 93
        1
176
     1
 44
0.0
176
     1
173
     0
176
     1
1001
ACAD
1000
AcDbSavedByObjectVersion
1070
     0
  0
VISUALSTYLE
  5
D6
102
{ACAD_XDICTIONARY
360
1D3
102
}
102
{ACAD_REACTORS
330
C3
102
}
330
C3
100
AcDbVisualStyle
  2
X-Ray
 70
    25
177
     2
291
     0
 71
     2
176
     1
 72
     2
176
     1
 73
     1
176
     1
 90
        1
176
     1
 40
0.5
176
     1
 41
30.0
176
     1
 63
     7
421
 16777215
176
     1
 74
     1
176
     1
 91
        0
176
     1
 64
     7
176
     1
 65
   257
176
     1
 75
     1
176
     1
175
     1
176
     1
 42
1.0
176
     1
 92
        8
176
     1
 66
     7
176
     1
 43
1.0
176
     1
 76
     1
176
     1
 77
     6
176
     1
 78
     2
176
     1
 67
     7
176
     1
 79
     3
176
     1
170
     0
176
     1
171
     0
176
     1
290
     0
176
     1
 93
       13
176
     1
 44
0.0
176
     1
173
     0
176
     1
1001
ACAD
1000
AcDbSavedByObjectVersion
1070
     0
  0
DICTIONARYVAR
  5
1A8
102
{ACAD_REACTORS
330
1A2
102
}
330
1A2
100
DictionaryVariables
280
     0
  1
1:1
  0
DICTIONARYVAR
  5
1A4
102
{ACAD_REACTORS
330
1A2
102
}
330
1A2
100
DictionaryVariables
280
     0
  1
STANDARD
  0
DICTIONARYVAR
  5
1A3
102
{ACAD_REACTORS
330
1A2
102
}
330
1A2
100
DictionaryVariables
280
     0
  1
STANDARD
  0
DICTIONARYVAR
  5
1A5
102
{ACAD_REACTORS
330
1A2
102
}
330
1A2
100
DictionaryVariables
280
     0
  1
Imperial24
  0
DICTIONARYVAR
  5
1A6
102
{ACAD_REACTORS
330
1A2
102
}
330
1A2
100
DictionaryVariables
280
     0
  1
Imperial24
  0
DICTIONARYVAR
  5
1AA
102
{ACAD_REACTORS
330
1A2
102
}
330
1A2
100
DictionaryVariables
280
     0
  1
1
  0
DICTIONARYVAR
  5
1AB
102
{ACAD_REACTORS
330
1A2
102
}
330
1A2
100
DictionaryVariables
280
     0
  1
15
  0
DICTIONARYVAR
  5
1A9
102
{ACAD_REACTORS
330
1A2
102
}
330
1A2
100
DictionaryVariables
280
     0
  1
0
  0
DICTIONARYVAR
  5
1A7
102
{ACAD_REACTORS
330
1A2
102
}
330
1A2
100
DictionaryVariables
280
     0
  1
0
  0
DICTIONARY
  5
1E3
330
F6
100
AcDbDictionary
280
     1
281
     1
  3
ACAD_XREC_ROUNDTRIP
360
1E4
  0
DICTIONARY
  5
B4
330
B3
100
AcDbDictionary
280
     1
281
     1
  3
BUMPTILE
360
B6
  3
DIFFUSETILE
360
B5
  3
OPACITYTILE
360
B9
  3
REFLECTIONTILE
360
B8
  3
REFRACTIONTILE
360
BA
  3
SPECULARTILE
360
B7
  0
DICTIONARY
  5
AC
330
AB
100
AcDbDictionary
280
     1
281
     1
  3
BUMPTILE
360
AE
  3
DIFFUSETILE
360
AD
  3
OPACITYTILE
360
B1
  3
REFLECTIONTILE
360
B0
  3
REFRACTIONTILE
360
B2
  3
SPECULARTILE
360
AF
  0
DICTIONARY
  5
BC
330
BB
100
AcDbDictionary
280
     1
281
     1
  3
BUMPTILE
360
BE
  3
DIFFUSETILE
360
BD
  3
OPACITYTILE
360
C1
  3
REFLECTIONTILE
360
C0
  3
REFRACTIONTILE
360
C2
  3
SPECULARTILE
360
BF
  0
DICTIONARY
  5
1DF
330
F2
100
AcDbDictionary
280
     1
281
     1
  3
ACAD_XREC_ROUNDTRIP
360
1E0
  0
DICTIONARY
  5
1E1
330
F4
100
AcDbDictionary
280
     1
281
     1
  3
ACAD_XREC_ROUNDTRIP
360
1E2
  0
DICTIONARY
  5
1AC
330
DE
100
AcDbDictionary
280
     1
281
     1
  3
ACAD_ROUNDTRIP_2008_TABLESTYLE_CELLSTYLEMAP
360
1AD
  0
DICTIONARY
  5
1B9
330
C9
100
AcDbDictionary
280
     1
281
     1
  3
ACAD_XREC_ROUNDTRIP
360
1BA
  0
DICTIONARY
  5
1B7
330
C8
100
AcDbDictionary
280
     1
281
     1
  3
ACAD_XREC_ROUNDTRIP
360
1B8
  0
DICTIONARY
  5
1C5
330
CF
100
AcDbDictionary
280
     1
281
     1
  3
ACAD_XREC_ROUNDTRIP
360
1C6
  0
DICTIONARY
  5
1CD
330
D3
100
AcDbDictionary
280
     1
281
     1
  3
ACAD_XREC_ROUNDTRIP
360
1CE
  0
DICTIONARY
  5
1BF
330
CC
100
AcDbDictionary
280
     1
281
     1
  3
ACAD_XREC_ROUNDTRIP
360
1C0
  0
DICTIONARY
  5
1C3
330
CE
100
AcDbDictionary
280
     1
281
     1
  3
ACAD_XREC_ROUNDTRIP
360
1C4
  0
DICTIONARY
  5
1DD
330
DB
100
AcDbDictionary
280
     1
281
     1
  3
ACAD_XREC_ROUNDTRIP
360
1DE
  0
DICTIONARY
  5
1CB
330
D2
100
AcDbDictionary
280
     1
281
     1
  3
ACAD_XREC_ROUNDTRIP
360
1CC
  0
DICTIONARY
  5
1AF
330
C4
100
AcDbDictionary
280
     1
281
     1
  3
ACAD_XREC_ROUNDTRIP
360
1B0
  0
DICTIONARY
  5
1B1
330
C5
100
AcDbDictionary
280
     1
281
     1
  3
ACAD_XREC_ROUNDTRIP
360
1B2
  0
DICTIONARY
  5
1B3
330
C6
100
AcDbDictionary
280
     1
281
     1
  3
ACAD_XREC_ROUNDTRIP
360
1B4
  0
DICTIONARY
  5
1B5
330
C7
100
AcDbDictionary
280
     1
281
     1
  3
ACAD_XREC_ROUNDTRIP
360
1B6
  0
DICTIONARY
  5
1BD
330
CB
100
AcDbDictionary
280
     1
281
     1
  3
ACAD_XREC_ROUNDTRIP
360
1BE
  0
DICTIONARY
  5
1D9
330
D9
100
AcDbDictionary
280
     1
281
     1
  3
ACAD_XREC_ROUNDTRIP
360
1DA
  0
DICTIONARY
  5
1C9
330
D1
100
AcDbDictionary
280
     1
281
     1
  3
ACAD_XREC_ROUNDTRIP
360
1CA
  0
DICTIONARY
  5
1DB
330
DA
100
AcDbDictionary
280
     1
281
     1
  3
ACAD_XREC_ROUNDTRIP
360
1DC
  0
DICTIONARY
  5
1C1
330
CD
100
AcDbDictionary
280
     1
281
     1
  3
ACAD_XREC_ROUNDTRIP
360
1C2
  0
DICTIONARY
  5
1D7
330
D8
100
AcDbDictionary
280
     1
281
     1
  3
ACAD_XREC_ROUNDTRIP
360
1D8
  0
DICTIONARY
  5
1D5
330
D7
100
AcDbDictionary
280
     1
281
     1
  3
ACAD_XREC_ROUNDTRIP
360
1D6
  0
DICTIONARY
  5
1CF
330
D4
100
AcDbDictionary
280
     1
281
     1
  3
ACAD_XREC_ROUNDTRIP
360
1D0
  0
DICTIONARY
  5
1D1
330
D5
100
AcDbDictionary
280
     1
281
     1
  3
ACAD_XREC_ROUNDTRIP
360
1D2
  0
DICTIONARY
  5
1C7
330
D0
100
AcDbDictionary
280
     1
281
     1
  3
ACAD_XREC_ROUNDTRIP
360
1C8
  0
DICTIONARY
  5
1BB
330
CA
100
AcDbDictionary
280
     1
281
     1
  3
ACAD_XREC_ROUNDTRIP
360
1BC
  0
DICTIONARY
  5
1D3
330
D6
100
AcDbDictionary
280
     1
281
     1
  3
ACAD_XREC_ROUNDTRIP
360
1D4
  0
XRECORD
  5
1E4
102
{ACAD_REACTORS
330
1E3
102
}
330
1E3
100
AcDbXrecord
280
     1
102
DISPLAYNAME
  1
Imperial24
102
FLAGS
 90
        0
  0
XRECORD
  5
B6
102
{ACAD_REACTORS
330
B4
102
}
330
B4
100
AcDbXrecord
280
     1
270
     1
271
     1
  0
XRECORD
  5
B5
102
{ACAD_REACTORS
330
B4
102
}
330
B4
100
AcDbXrecord
280
     1
270
     1
271
     1
  0
XRECORD
  5
B9
102
{ACAD_REACTORS
330
B4
102
}
330
B4
100
AcDbXrecord
280
     1
270
     1
271
     1
  0
XRECORD
  5
B8
102
{ACAD_REACTORS
330
B4
102
}
330
B4
100
AcDbXrecord
280
     1
270
     1
271
     1
  0
XRECORD
  5
BA
102
{ACAD_REACTORS
330
B4
102
}
330
B4
100
AcDbXrecord
280
     1
270
     1
271
     1
  0
XRECORD
  5
B7
102
{ACAD_REACTORS
330
B4
102
}
330
B4
100
AcDbXrecord
280
     1
270
     1
271
     1
  0
XRECORD
  5
AE
102
{ACAD_REACTORS
330
AC
102
}
330
AC
100
AcDbXrecord
280
     1
270
     1
271
     1
  0
XRECORD
  5
AD
102
{ACAD_REACTORS
330
AC
102
}
330
AC
100
AcDbXrecord
280
     1
270
     1
271
     1
  0
XRECORD
  5
B1
102
{ACAD_REACTORS
330
AC
102
}
330
AC
100
AcDbXrecord
280
     1
270
     1
271
     1
  0
XRECORD
  5
B0
102
{ACAD_REACTORS
330
AC
102
}
330
AC
100
AcDbXrecord
280
     1
270
     1
271
     1
  0
XRECORD
  5
B2
102
{ACAD_REACTORS
330
AC
102
}
330
AC
100
AcDbXrecord
280
     1
270
     1
271
     1
  0
XRECORD
  5
AF
102
{ACAD_REACTORS
330
AC
102
}
330
AC
100
AcDbXrecord
280
     1
270
     1
271
     1
  0
XRECORD
  5
BE
102
{ACAD_REACTORS
330
BC
102
}
330
BC
100
AcDbXrecord
280
     1
270
     1
271
     1
  0
XRECORD
  5
BD
102
{ACAD_REACTORS
330
BC
102
}
330
BC
100
AcDbXrecord
280
     1
270
     1
271
     1
  0
XRECORD
  5
C1
102
{ACAD_REACTORS
330
BC
102
}
330
BC
100
AcDbXrecord
280
     1
270
     1
271
     1
  0
XRECORD
  5
C0
102
{ACAD_REACTORS
330
BC
102
}
330
BC
100
AcDbXrecord
280
     1
270
     1
271
     1
  0
XRECORD
  5
C2
102
{ACAD_REACTORS
330
BC
102
}
330
BC
100
AcDbXrecord
280
     1
270
     1
271
     1
  0
XRECORD
  5
BF
102
{ACAD_REACTORS
330
BC
102
}
330
BC
100
AcDbXrecord
280
     1
270
     1
271
     1
  0
XRECORD
  5
1E0
102
{ACAD_REACTORS
330
1DF
102
}
330
1DF
100
AcDbXrecord
280
     1
102
ACAD_ROUNDTRIP_2012_MLEADER_STYLE
298
     1
  0
XRECORD
  5
1E2
102
{ACAD_REACTORS
330
1E1
102
}
330
1E1
100
AcDbXrecord
280
     1
102
DISPLAYNAME
  1
Imperial24
102
FLAGS
 90
        0
  0
CELLSTYLEMAP
  5
1AD
102
{ACAD_REACTORS
330
1AC
102
}
330
1AC
100
AcDbCellStyleMap
 90
        3
300
CELLSTYLE
  1
TABLEFORMAT_BEGIN
 90
        5
170
     1
 91
        0
 92
    32768
 62
   257
 93
        1
300
CONTENTFORMAT
  1
CONTENTFORMAT_BEGIN
 90
        0
 91
        0
 92
      512
 93
        0
300

 40
0.0
140
1.0
 94
        5
 62
     0
340
11
144
0.25
309
CONTENTFORMAT_END
171
     0
 94
        0
309
TABLEFORMAT_END
  1
CELLSTYLE_BEGIN
 90
        1
 91
        1
300
_TITLE
309
CELLSTYLE_END
300
CELLSTYLE
  1
TABLEFORMAT_BEGIN
 90
        5
170
     1
 91
        0
 92
        0
 62
   257
 93
        1
300
CONTENTFORMAT
  1
CONTENTFORMAT_BEGIN
 90
        0
 91
        0
 92
      512
 93
        0
300

 40
0.0
140
1.0
 94
        5
 62
     0
340
11
144
0.18
309
CONTENTFORMAT_END
171
     0
 94
        0
309
TABLEFORMAT_END
  1
CELLSTYLE_BEGIN
 90
        2
 91
        1
300
_HEADER
309
CELLSTYLE_END
300
CELLSTYLE
  1
TABLEFORMAT_BEGIN
 90
        5
170
     1
 91
        0
 92
        0
 62
   257
 93
        1
300
CONTENTFORMAT
  1
CONTENTFORMAT_BEGIN
 90
        0
 91
        0
 92
      512
 93
        0
300

 40
0.0
140
1.0
 94
        2
 62
     0
340
11
144
0.18
309
CONTENTFORMAT_END
171
     0
 94
        0
309
TABLEFORMAT_END
  1
CELLSTYLE_BEGIN
 90
        3
 91
        2
300
_DATA
309
CELLSTYLE_END
  0
XRECORD
  5
1BA
102
{ACAD_REACTORS
330
1B9
102
}
330
1B9
100
AcDbXrecord
280
     1
102
RTVSPost2010Prop28
280
     1
102
RTVSPost2010PropOp28
 70
     1
102
RTVSPost2010Prop29
280
     1
102
RTVSPost2010PropOp29
 70
     1
102
RTVSPost2010Prop30
280
     0
102
RTVSPost2010PropOp30
 70
     1
102
RTVSPost2010Prop31
280
     0
102
RTVSPost2010PropOp31
 70
     1
102
RTVSPost2010Prop32
280
     0
102
RTVSPost2010PropOp32
 70
     1
102
RTVSPost2010Prop33
280
     0
102
RTVSPost2010PropOp33
 70
     1
102
RTVSPost2010Prop34
280
     0
102
RTVSPost2010PropOp34
 70
     1
102
RTVSPost2010Prop35
280
     0
102
RTVSPost2010PropOp35
 70
     1
102
RTVSPost2010Prop36
280
     0
102
RTVSPost2010PropOp36
 70
     1
102
RTVSPost2010Prop37
 90
       50
102
RTVSPost2010PropOp37
 70
     1
102
RTVSPost2010Prop38
140
0.0
102
RTVSPost2010PropOp38
 70
     1
102
RTVSPost2010Prop39
140
1.0
102
RTVSPost2010PropOp39
 70
     1
102
RTVSPost2010Prop40
 90
        0
102
RTVSPost2010PropOp40
 70
     1
102
RTVSPost2010Prop41ColorIndex
 90
       18
102
RTVSPost2010Prop41ColorRGB
 90
        0
102
RTVSPost2010PropOp41
 70
     1
102
RTVSPost2010Prop42
 90
       50
102
RTVSPost2010PropOp42
 70
     1
102
RTVSPost2010Prop43
 90
        3
102
RTVSPost2010PropOp43
 70
     1
102
RTVSPost2010Prop44ColorIndex
 90
        5
102
RTVSPost2010Prop44ColorRGB
 90
      255
102
RTVSPost2010PropOp44
 70
     1
102
RTVSPost2010Prop45
280
     0
102
RTVSPost2010PropOp45
 70
     1
102
RTVSPost2010Prop46
 90
       50
102
RTVSPost2010PropOp46
 70
     1
102
RTVSPost2010Prop47
 90
       50
102
RTVSPost2010PropOp47
 70
     1
102
RTVSPost2010Prop48
 90
       50
102
RTVSPost2010PropOp48
 70
     1
102
RTVSPost2010Prop49
280
     0
102
RTVSPost2010PropOp49
 70
     1
102
RTVSPost2010Prop50
 90
       50
102
RTVSPost2010PropOp50
 70
     1
102
RTVSPost2010Prop51ColorIndex
 90
      256
102
RTVSPost2010Prop51ColorRGB
 90
-16777216
102
RTVSPost2010PropOp51
 70
     0
102
RTVSPost2010Prop52
140
1.0
102
RTVSPost2010PropOp52
 70
     0
102
RTVSPost2010Prop53
 90
        2
102
RTVSPost2010PropOp53
 70
     1
102
RTVSPost2010Prop54
  1
strokes_ogs.tif
102
RTVSPost2010PropOp54
 70
     1
102
RTVSPost2010Prop55
280
     0
102
RTVSPost2010PropOp55
 70
     1
102
RTVSPost2010Prop56
140
1.0
102
RTVSPost2010PropOp56
 70
     1
102
RTVSPost2010Prop57
140
1.0
102
RTVSPost2010PropOp57
 70
     1
  0
XRECORD
  5
1B8
102
{ACAD_REACTORS
330
1B7
102
}
330
1B7
100
AcDbXrecord
280
     1
102
RTVSPost2010Prop28
280
     0
102
RTVSPost2010PropOp28
 70
     1
102
RTVSPost2010Prop29
280
     1
102
RTVSPost2010PropOp29
 70
     1
102
RTVSPost2010Prop30
280
     1
102
RTVSPost2010PropOp30
 70
     1
102
RTVSPost2010Prop31
280
     0
102
RTVSPost2010PropOp31
 70
     1
102
RTVSPost2010Prop32
280
     0
102
RTVSPost2010PropOp32
 70
     1
102
RTVSPost2010Prop33
280
     0
102
RTVSPost2010PropOp33
 70
     1
102
RTVSPost2010Prop34
280
     0
102
RTVSPost2010PropOp34
 70
     1
102
RTVSPost2010Prop35
280
     0
102
RTVSPost2010PropOp35
 70
     1
102
RTVSPost2010Prop36
280
     0
102
RTVSPost2010PropOp36
 70
     1
102
RTVSPost2010Prop37
 90
       50
102
RTVSPost2010PropOp37
 70
     1
102
RTVSPost2010Prop38
140
0.0
102
RTVSPost2010PropOp38
 70
     1
102
RTVSPost2010Prop39
140
1.0
102
RTVSPost2010PropOp39
 70
     1
102
RTVSPost2010Prop40
 90
        0
102
RTVSPost2010PropOp40
 70
     1
102
RTVSPost2010Prop41ColorIndex
 90
       18
102
RTVSPost2010Prop41ColorRGB
 90
        0
102
RTVSPost2010PropOp41
 70
     1
102
RTVSPost2010Prop42
 90
       50
102
RTVSPost2010PropOp42
 70
     1
102
RTVSPost2010Prop43
 90
        3
102
RTVSPost2010PropOp43
 70
     1
102
RTVSPost2010Prop44ColorIndex
 90
        5
102
RTVSPost2010Prop44ColorRGB
 90
      255
102
RTVSPost2010PropOp44
 70
     1
102
RTVSPost2010Prop45
280
     0
102
RTVSPost2010PropOp45
 70
     1
102
RTVSPost2010Prop46
 90
       50
102
RTVSPost2010PropOp46
 70
     1
102
RTVSPost2010Prop47
 90
       50
102
RTVSPost2010PropOp47
 70
     1
102
RTVSPost2010Prop48
 90
       50
102
RTVSPost2010PropOp48
 70
     1
102
RTVSPost2010Prop49
280
     0
102
RTVSPost2010PropOp49
 70
     1
102
RTVSPost2010Prop50
 90
       50
102
RTVSPost2010PropOp50
 70
     1
102
RTVSPost2010Prop51ColorIndex
 90
      256
102
RTVSPost2010Prop51ColorRGB
 90
-16777216
102
RTVSPost2010PropOp51
 70
     0
102
RTVSPost2010Prop52
140
1.0
102
RTVSPost2010PropOp52
 70
     0
102
RTVSPost2010Prop53
 90
        2
102
RTVSPost2010PropOp53
 70
     1
102
RTVSPost2010Prop54
  1
strokes_ogs.tif
102
RTVSPost2010PropOp54
 70
     1
102
RTVSPost2010Prop55
280
     0
102
RTVSPost2010PropOp55
 70
     1
102
RTVSPost2010Prop56
140
1.0
102
RTVSPost2010PropOp56
 70
     1
102
RTVSPost2010Prop57
140
1.0
102
RTVSPost2010PropOp57
 70
     1
  0
XRECORD
  5
1C6
102
{ACAD_REACTORS
330
1C5
102
}
330
1C5
100
AcDbXrecord
280
     1
102
RTVSPost2010Prop28
280
     0
102
RTVSPost2010PropOp28
 70
     1
102
RTVSPost2010Prop29
280
     1
102
RTVSPost2010PropOp29
 70
     1
102
RTVSPost2010Prop30
280
     1
102
RTVSPost2010PropOp30
 70
     1
102
RTVSPost2010Prop31
280
     0
102
RTVSPost2010PropOp31
 70
     1
102
RTVSPost2010Prop32
280
     0
102
RTVSPost2010PropOp32
 70
     1
102
RTVSPost2010Prop33
280
     0
102
RTVSPost2010PropOp33
 70
     1
102
RTVSPost2010Prop34
280
     0
102
RTVSPost2010PropOp34
 70
     1
102
RTVSPost2010Prop35
280
     0
102
RTVSPost2010PropOp35
 70
     1
102
RTVSPost2010Prop36
280
     0
102
RTVSPost2010PropOp36
 70
     1
102
RTVSPost2010Prop37
 90
       50
102
RTVSPost2010PropOp37
 70
     1
102
RTVSPost2010Prop38
140
0.0
102
RTVSPost2010PropOp38
 70
     1
102
RTVSPost2010Prop39
140
1.0
102
RTVSPost2010PropOp39
 70
     1
102
RTVSPost2010Prop40
 90
        0
102
RTVSPost2010PropOp40
 70
     1
102
RTVSPost2010Prop41ColorIndex
 90
       18
102
RTVSPost2010Prop41ColorRGB
 90
        0
102
RTVSPost2010PropOp41
 70
     1
102
RTVSPost2010Prop42
 90
       50
102
RTVSPost2010PropOp42
 70
     1
102
RTVSPost2010Prop43
 90
        3
102
RTVSPost2010PropOp43
 70
     1
102
RTVSPost2010Prop44ColorIndex
 90
        5
102
RTVSPost2010Prop44ColorRGB
 90
      255
102
RTVSPost2010PropOp44
 70
     1
102
RTVSPost2010Prop45
280
     0
102
RTVSPost2010PropOp45
 70
     1
102
RTVSPost2010Prop46
 90
       50
102
RTVSPost2010PropOp46
 70
     1
102
RTVSPost2010Prop47
 90
       50
102
RTVSPost2010PropOp47
 70
     1
102
RTVSPost2010Prop48
 90
       50
102
RTVSPost2010PropOp48
 70
     1
102
RTVSPost2010Prop49
280
     0
102
RTVSPost2010PropOp49
 70
     1
102
RTVSPost2010Prop50
 90
       50
102
RTVSPost2010PropOp50
 70
     1
102
RTVSPost2010Prop51ColorIndex
 90
      256
102
RTVSPost2010Prop51ColorRGB
 90
-16777216
102
RTVSPost2010PropOp51
 70
     0
102
RTVSPost2010Prop52
140
1.0
102
RTVSPost2010PropOp52
 70
     0
102
RTVSPost2010Prop53
 90
        2
102
RTVSPost2010PropOp53
 70
     1
102
RTVSPost2010Prop54
  1
strokes_ogs.tif
102
RTVSPost2010PropOp54
 70
     1
102
RTVSPost2010Prop55
280
     0
102
RTVSPost2010PropOp55
 70
     1
102
RTVSPost2010Prop56
140
1.0
102
RTVSPost2010PropOp56
 70
     1
102
RTVSPost2010Prop57
140
1.0
102
RTVSPost2010PropOp57
 70
     1
  0
XRECORD
  5
1CE
102
{ACAD_REACTORS
330
1CD
102
}
330
1CD
100
AcDbXrecord
280
     1
102
RTVSPost2010Prop28
280
     0
102
RTVSPost2010PropOp28
 70
     1
102
RTVSPost2010Prop29
280
     1
102
RTVSPost2010PropOp29
 70
     1
102
RTVSPost2010Prop30
280
     1
102
RTVSPost2010PropOp30
 70
     1
102
RTVSPost2010Prop31
280
     0
102
RTVSPost2010PropOp31
 70
     1
102
RTVSPost2010Prop32
280
     0
102
RTVSPost2010PropOp32
 70
     1
102
RTVSPost2010Prop33
280
     0
102
RTVSPost2010PropOp33
 70
     1
102
RTVSPost2010Prop34
280
     0
102
RTVSPost2010PropOp34
 70
     1
102
RTVSPost2010Prop35
280
     0
102
RTVSPost2010PropOp35
 70
     1
102
RTVSPost2010Prop36
280
     0
102
RTVSPost2010PropOp36
 70
     1
102
RTVSPost2010Prop37
 90
       50
102
RTVSPost2010PropOp37
 70
     1
102
RTVSPost2010Prop38
140
0.0
102
RTVSPost2010PropOp38
 70
     1
102
RTVSPost2010Prop39
140
1.0
102
RTVSPost2010PropOp39
 70
     1
102
RTVSPost2010Prop40
 90
        0
102
RTVSPost2010PropOp40
 70
     1
102
RTVSPost2010Prop41ColorIndex
 90
       18
102
RTVSPost2010Prop41ColorRGB
 90
        0
102
RTVSPost2010PropOp41
 70
     1
102
RTVSPost2010Prop42
 90
       50
102
RTVSPost2010PropOp42
 70
     1
102
RTVSPost2010Prop43
 90
        3
102
RTVSPost2010PropOp43
 70
     1
102
RTVSPost2010Prop44ColorIndex
 90
        5
102
RTVSPost2010Prop44ColorRGB
 90
      255
102
RTVSPost2010PropOp44
 70
     1
102
RTVSPost2010Prop45
280
     0
102
RTVSPost2010PropOp45
 70
     1
102
RTVSPost2010Prop46
 90
       50
102
RTVSPost2010PropOp46
 70
     1
102
RTVSPost2010Prop47
 90
       50
102
RTVSPost2010PropOp47
 70
     1
102
RTVSPost2010Prop48
 90
       50
102
RTVSPost2010PropOp48
 70
     1
102
RTVSPost2010Prop49
280
     0
102
RTVSPost2010PropOp49
 70
     1
102
RTVSPost2010Prop50
 90
       50
102
RTVSPost2010PropOp50
 70
     1
102
RTVSPost2010Prop51ColorIndex
 90
      256
102
RTVSPost2010Prop51ColorRGB
 90
-16777216
102
RTVSPost2010PropOp51
 70
     0
102
RTVSPost2010Prop52
140
1.0
102
RTVSPost2010PropOp52
 70
     0
102
RTVSPost2010Prop53
 90
        2
102
RTVSPost2010PropOp53
 70
     1
102
RTVSPost2010Prop54
  1
strokes_ogs.tif
102
RTVSPost2010PropOp54
 70
     1
102
RTVSPost2010Prop55
280
     0
102
RTVSPost2010PropOp55
 70
     1
102
RTVSPost2010Prop56
140
1.0
102
RTVSPost2010PropOp56
 70
     1
102
RTVSPost2010Prop57
140
1.0
102
RTVSPost2010PropOp57
 70
     1
  0
XRECORD
  5
1C0
102
{ACAD_REACTORS
330
1BF
102
}
330
1BF
100
AcDbXrecord
280
     1
102
RTVSPost2010Prop28
280
     0
102
RTVSPost2010PropOp28
 70
     1
102
RTVSPost2010Prop29
280
     1
102
RTVSPost2010PropOp29
 70
     1
102
RTVSPost2010Prop30
280
     1
102
RTVSPost2010PropOp30
 70
     1
102
RTVSPost2010Prop31
280
     0
102
RTVSPost2010PropOp31
 70
     1
102
RTVSPost2010Prop32
280
     0
102
RTVSPost2010PropOp32
 70
     1
102
RTVSPost2010Prop33
280
     0
102
RTVSPost2010PropOp33
 70
     1
102
RTVSPost2010Prop34
280
     0
102
RTVSPost2010PropOp34
 70
     1
102
RTVSPost2010Prop35
280
     0
102
RTVSPost2010PropOp35
 70
     1
102
RTVSPost2010Prop36
280
     0
102
RTVSPost2010PropOp36
 70
     1
102
RTVSPost2010Prop37
 90
       50
102
RTVSPost2010PropOp37
 70
     1
102
RTVSPost2010Prop38
140
0.0
102
RTVSPost2010PropOp38
 70
     1
102
RTVSPost2010Prop39
140
1.0
102
RTVSPost2010PropOp39
 70
     1
102
RTVSPost2010Prop40
 90
        0
102
RTVSPost2010PropOp40
 70
     1
102
RTVSPost2010Prop41ColorIndex
 90
       18
102
RTVSPost2010Prop41ColorRGB
 90
        0
102
RTVSPost2010PropOp41
 70
     1
102
RTVSPost2010Prop42
 90
       50
102
RTVSPost2010PropOp42
 70
     1
102
RTVSPost2010Prop43
 90
        3
102
RTVSPost2010PropOp43
 70
     1
102
RTVSPost2010Prop44ColorIndex
 90
        5
102
RTVSPost2010Prop44ColorRGB
 90
      255
102
RTVSPost2010PropOp44
 70
     1
102
RTVSPost2010Prop45
280
     0
102
RTVSPost2010PropOp45
 70
     1
102
RTVSPost2010Prop46
 90
       50
102
RTVSPost2010PropOp46
 70
     1
102
RTVSPost2010Prop47
 90
       50
102
RTVSPost2010PropOp47
 70
     1
102
RTVSPost2010Prop48
 90
       50
102
RTVSPost2010PropOp48
 70
     1
102
RTVSPost2010Prop49
280
     0
102
RTVSPost2010PropOp49
 70
     1
102
RTVSPost2010Prop50
 90
       50
102
RTVSPost2010PropOp50
 70
     1
102
RTVSPost2010Prop51ColorIndex
 90
      256
102
RTVSPost2010Prop51ColorRGB
 90
-16777216
102
RTVSPost2010PropOp51
 70
     0
102
RTVSPost2010Prop52
140
1.0
102
RTVSPost2010PropOp52
 70
     0
102
RTVSPost2010Prop53
 90
        2
102
RTVSPost2010PropOp53
 70
     1
102
RTVSPost2010Prop54
  1
strokes_ogs.tif
102
RTVSPost2010PropOp54
 70
     1
102
RTVSPost2010Prop55
280
     0
102
RTVSPost2010PropOp55
 70
     1
102
RTVSPost2010Prop56
140
1.0
102
RTVSPost2010PropOp56
 70
     1
102
RTVSPost2010Prop57
140
1.0
102
RTVSPost2010PropOp57
 70
     1
  0
XRECORD
  5
1C4
102
{ACAD_REACTORS
330
1C3
102
}
330
1C3
100
AcDbXrecord
280
     1
102
RTVSPost2010Prop28
280
     0
102
RTVSPost2010PropOp28
 70
     1
102
RTVSPost2010Prop29
280
     1
102
RTVSPost2010PropOp29
 70
     1
102
RTVSPost2010Prop30
280
     1
102
RTVSPost2010PropOp30
 70
     1
102
RTVSPost2010Prop31
280
     0
102
RTVSPost2010PropOp31
 70
     1
102
RTVSPost2010Prop32
280
     0
102
RTVSPost2010PropOp32
 70
     1
102
RTVSPost2010Prop33
280
     0
102
RTVSPost2010PropOp33
 70
     1
102
RTVSPost2010Prop34
280
     0
102
RTVSPost2010PropOp34
 70
     1
102
RTVSPost2010Prop35
280
     0
102
RTVSPost2010PropOp35
 70
     1
102
RTVSPost2010Prop36
280
     0
102
RTVSPost2010PropOp36
 70
     1
102
RTVSPost2010Prop37
 90
       50
102
RTVSPost2010PropOp37
 70
     1
102
RTVSPost2010Prop38
140
0.0
102
RTVSPost2010PropOp38
 70
     1
102
RTVSPost2010Prop39
140
1.0
102
RTVSPost2010PropOp39
 70
     1
102
RTVSPost2010Prop40
 90
        0
102
RTVSPost2010PropOp40
 70
     1
102
RTVSPost2010Prop41ColorIndex
 90
       18
102
RTVSPost2010Prop41ColorRGB
 90
        0
102
RTVSPost2010PropOp41
 70
     1
102
RTVSPost2010Prop42
 90
       50
102
RTVSPost2010PropOp42
 70
     1
102
RTVSPost2010Prop43
 90
        3
102
RTVSPost2010PropOp43
 70
     1
102
RTVSPost2010Prop44ColorIndex
 90
        5
102
RTVSPost2010Prop44ColorRGB
 90
      255
102
RTVSPost2010PropOp44
 70
     1
102
RTVSPost2010Prop45
280
     0
102
RTVSPost2010PropOp45
 70
     1
102
RTVSPost2010Prop46
 90
       50
102
RTVSPost2010PropOp46
 70
     1
102
RTVSPost2010Prop47
 90
       50
102
RTVSPost2010PropOp47
 70
     1
102
RTVSPost2010Prop48
 90
       50
102
RTVSPost2010PropOp48
 70
     1
102
RTVSPost2010Prop49
280
     0
102
RTVSPost2010PropOp49
 70
     1
102
RTVSPost2010Prop50
 90
       50
102
RTVSPost2010PropOp50
 70
     1
102
RTVSPost2010Prop51ColorIndex
 90
      256
102
RTVSPost2010Prop51ColorRGB
 90
-16777216
102
RTVSPost2010PropOp51
 70
     0
102
RTVSPost2010Prop52
140
1.0
102
RTVSPost2010PropOp52
 70
     0
102
RTVSPost2010Prop53
 90
        2
102
RTVSPost2010PropOp53
 70
     1
102
RTVSPost2010Prop54
  1
strokes_ogs.tif
102
RTVSPost2010PropOp54
 70
     1
102
RTVSPost2010Prop55
280
     0
102
RTVSPost2010PropOp55
 70
     1
102
RTVSPost2010Prop56
140
1.0
102
RTVSPost2010PropOp56
 70
     1
102
RTVSPost2010Prop57
140
1.0
102
RTVSPost2010PropOp57
 70
     1
  0
XRECORD
  5
1DE
102
{ACAD_REACTORS
330
1DD
102
}
330
1DD
100
AcDbXrecord
280
     1
102
RTVSPost2010Prop28
280
     0
102
RTVSPost2010PropOp28
 70
     0
102
RTVSPost2010Prop29
280
     1
102
RTVSPost2010PropOp29
 70
     0
102
RTVSPost2010Prop30
280
     1
102
RTVSPost2010PropOp30
 70
     0
102
RTVSPost2010Prop31
280
     0
102
RTVSPost2010PropOp31
 70
     0
102
RTVSPost2010Prop32
280
     0
102
RTVSPost2010PropOp32
 70
     0
102
RTVSPost2010Prop33
280
     0
102
RTVSPost2010PropOp33
 70
     0
102
RTVSPost2010Prop34
280
     0
102
RTVSPost2010PropOp34
 70
     0
102
RTVSPost2010Prop35
280
     0
102
RTVSPost2010PropOp35
 70
     0
102
RTVSPost2010Prop36
280
     0
102
RTVSPost2010PropOp36
 70
     0
102
RTVSPost2010Prop37
 90
       50
102
RTVSPost2010PropOp37
 70
     0
102
RTVSPost2010Prop38
140
0.0
102
RTVSPost2010PropOp38
 70
     0
102
RTVSPost2010Prop39
140
1.0
102
RTVSPost2010PropOp39
 70
     0
102
RTVSPost2010Prop40
 90
        0
102
RTVSPost2010PropOp40
 70
     0
102
RTVSPost2010Prop41ColorIndex
 90
       18
102
RTVSPost2010Prop41ColorRGB
 90
        0
102
RTVSPost2010PropOp41
 70
     0
102
RTVSPost2010Prop42
 90
       50
102
RTVSPost2010PropOp42
 70
     0
102
RTVSPost2010Prop43
 90
        3
102
RTVSPost2010PropOp43
 70
     0
102
RTVSPost2010Prop44ColorIndex
 90
        5
102
RTVSPost2010Prop44ColorRGB
 90
      255
102
RTVSPost2010PropOp44
 70
     0
102
RTVSPost2010Prop45
280
     0
102
RTVSPost2010PropOp45
 70
     0
102
RTVSPost2010Prop46
 90
       50
102
RTVSPost2010PropOp46
 70
     0
102
RTVSPost2010Prop47
 90
       50
102
RTVSPost2010PropOp47
 70
     0
102
RTVSPost2010Prop48
 90
       50
102
RTVSPost2010PropOp48
 70
     0
102
RTVSPost2010Prop49
280
     0
102
RTVSPost2010PropOp49
 70
     0
102
RTVSPost2010Prop50
 90
       50
102
RTVSPost2010PropOp50
 70
     0
102
RTVSPost2010Prop51ColorIndex
 90
      256
102
RTVSPost2010Prop51ColorRGB
 90
-16777216
102
RTVSPost2010PropOp51
 70
     0
102
RTVSPost2010Prop52
140
1.0
102
RTVSPost2010PropOp52
 70
     0
102
RTVSPost2010Prop53
 90
        2
102
RTVSPost2010PropOp53
 70
     0
102
RTVSPost2010Prop54
  1
strokes_ogs.tif
102
RTVSPost2010PropOp54
 70
     0
102
RTVSPost2010Prop55
280
     0
102
RTVSPost2010PropOp55
 70
     0
102
RTVSPost2010Prop56
140
1.0
102
RTVSPost2010PropOp56
 70
     0
102
RTVSPost2010Prop57
140
1.0
102
RTVSPost2010PropOp57
 70
     0
  0
XRECORD
  5
1CC
102
{ACAD_REACTORS
330
1CB
102
}
330
1CB
100
AcDbXrecord
280
     1
102
RTVSPost2010Prop28
280
     0
102
RTVSPost2010PropOp28
 70
     1
102
RTVSPost2010Prop29
280
     1
102
RTVSPost2010PropOp29
 70
     1
102
RTVSPost2010Prop30
280
     1
102
RTVSPost2010PropOp30
 70
     1
102
RTVSPost2010Prop31
280
     0
102
RTVSPost2010PropOp31
 70
     1
102
RTVSPost2010Prop32
280
     0
102
RTVSPost2010PropOp32
 70
     1
102
RTVSPost2010Prop33
280
     0
102
RTVSPost2010PropOp33
 70
     1
102
RTVSPost2010Prop34
280
     0
102
RTVSPost2010PropOp34
 70
     1
102
RTVSPost2010Prop35
280
     0
102
RTVSPost2010PropOp35
 70
     1
102
RTVSPost2010Prop36
280
     0
102
RTVSPost2010PropOp36
 70
     1
102
RTVSPost2010Prop37
 90
       50
102
RTVSPost2010PropOp37
 70
     1
102
RTVSPost2010Prop38
140
0.0
102
RTVSPost2010PropOp38
 70
     1
102
RTVSPost2010Prop39
140
1.0
102
RTVSPost2010PropOp39
 70
     1
102
RTVSPost2010Prop40
 90
        0
102
RTVSPost2010PropOp40
 70
     1
102
RTVSPost2010Prop41ColorIndex
 90
       18
102
RTVSPost2010Prop41ColorRGB
 90
        0
102
RTVSPost2010PropOp41
 70
     1
102
RTVSPost2010Prop42
 90
       50
102
RTVSPost2010PropOp42
 70
     1
102
RTVSPost2010Prop43
 90
        3
102
RTVSPost2010PropOp43
 70
     1
102
RTVSPost2010Prop44ColorIndex
 90
        5
102
RTVSPost2010Prop44ColorRGB
 90
      255
102
RTVSPost2010PropOp44
 70
     1
102
RTVSPost2010Prop45
280
     0
102
RTVSPost2010PropOp45
 70
     1
102
RTVSPost2010Prop46
 90
       50
102
RTVSPost2010PropOp46
 70
     1
102
RTVSPost2010Prop47
 90
       50
102
RTVSPost2010PropOp47
 70
     1
102
RTVSPost2010Prop48
 90
       50
102
RTVSPost2010PropOp48
 70
     1
102
RTVSPost2010Prop49
280
     0
102
RTVSPost2010PropOp49
 70
     1
102
RTVSPost2010Prop50
 90
       50
102
RTVSPost2010PropOp50
 70
     1
102
RTVSPost2010Prop51ColorIndex
 90
      256
102
RTVSPost2010Prop51ColorRGB
 90
-16777216
102
RTVSPost2010PropOp51
 70
     0
102
RTVSPost2010Prop52
140
1.0
102
RTVSPost2010PropOp52
 70
     0
102
RTVSPost2010Prop53
 90
        2
102
RTVSPost2010PropOp53
 70
     1
102
RTVSPost2010Prop54
  1
strokes_ogs.tif
102
RTVSPost2010PropOp54
 70
     1
102
RTVSPost2010Prop55
280
     0
102
RTVSPost2010PropOp55
 70
     1
102
RTVSPost2010Prop56
140
1.0
102
RTVSPost2010PropOp56
 70
     1
102
RTVSPost2010Prop57
140
1.0
102
RTVSPost2010PropOp57
 70
     1
  0
XRECORD
  5
1B0
102
{ACAD_REACTORS
330
1AF
102
}
330
1AF
100
AcDbXrecord
280
     1
102
RTVSPost2010Prop28
280
     0
102
RTVSPost2010PropOp28
 70
     1
102
RTVSPost2010Prop29
280
     1
102
RTVSPost2010PropOp29
 70
     1
102
RTVSPost2010Prop30
280
     1
102
RTVSPost2010PropOp30
 70
     1
102
RTVSPost2010Prop31
280
     0
102
RTVSPost2010PropOp31
 70
     1
102
RTVSPost2010Prop32
280
     0
102
RTVSPost2010PropOp32
 70
     1
102
RTVSPost2010Prop33
280
     0
102
RTVSPost2010PropOp33
 70
     1
102
RTVSPost2010Prop34
280
     0
102
RTVSPost2010PropOp34
 70
     1
102
RTVSPost2010Prop35
280
     0
102
RTVSPost2010PropOp35
 70
     1
102
RTVSPost2010Prop36
280
     0
102
RTVSPost2010PropOp36
 70
     1
102
RTVSPost2010Prop37
 90
       50
102
RTVSPost2010PropOp37
 70
     1
102
RTVSPost2010Prop38
140
0.0
102
RTVSPost2010PropOp38
 70
     1
102
RTVSPost2010Prop39
140
1.0
102
RTVSPost2010PropOp39
 70
     1
102
RTVSPost2010Prop40
 90
        0
102
RTVSPost2010PropOp40
 70
     1
102
RTVSPost2010Prop41ColorIndex
 90
       18
102
RTVSPost2010Prop41ColorRGB
 90
        0
102
RTVSPost2010PropOp41
 70
     1
102
RTVSPost2010Prop42
 90
       50
102
RTVSPost2010PropOp42
 70
     1
102
RTVSPost2010Prop43
 90
        3
102
RTVSPost2010PropOp43
 70
     1
102
RTVSPost2010Prop44ColorIndex
 90
        5
102
RTVSPost2010Prop44ColorRGB
 90
      255
102
RTVSPost2010PropOp44
 70
     1
102
RTVSPost2010Prop45
280
     0
102
RTVSPost2010PropOp45
 70
     1
102
RTVSPost2010Prop46
 90
       50
102
RTVSPost2010PropOp46
 70
     1
102
RTVSPost2010Prop47
 90
       50
102
RTVSPost2010PropOp47
 70
     1
102
RTVSPost2010Prop48
 90
       50
102
RTVSPost2010PropOp48
 70
     1
102
RTVSPost2010Prop49
280
     0
102
RTVSPost2010PropOp49
 70
     1
102
RTVSPost2010Prop50
 90
       50
102
RTVSPost2010PropOp50
 70
     1
102
RTVSPost2010Prop51ColorIndex
 90
      256
102
RTVSPost2010Prop51ColorRGB
 90
-16777216
102
RTVSPost2010PropOp51
 70
     0
102
RTVSPost2010Prop52
140
1.0
102
RTVSPost2010PropOp52
 70
     0
102
RTVSPost2010Prop53
 90
        2
102
RTVSPost2010PropOp53
 70
     1
102
RTVSPost2010Prop54
  1
strokes_ogs.tif
102
RTVSPost2010PropOp54
 70
     1
102
RTVSPost2010Prop55
280
     0
102
RTVSPost2010PropOp55
 70
     1
102
RTVSPost2010Prop56
140
1.0
102
RTVSPost2010PropOp56
 70
     1
102
RTVSPost2010Prop57
140
1.0
102
RTVSPost2010PropOp57
 70
     1
  0
XRECORD
  5
1B2
102
{ACAD_REACTORS
330
1B1
102
}
330
1B1
100
AcDbXrecord
280
     1
102
RTVSPost2010Prop28
280
     0
102
RTVSPost2010PropOp28
 70
     1
102
RTVSPost2010Prop29
280
     1
102
RTVSPost2010PropOp29
 70
     1
102
RTVSPost2010Prop30
280
     1
102
RTVSPost2010PropOp30
 70
     1
102
RTVSPost2010Prop31
280
     0
102
RTVSPost2010PropOp31
 70
     1
102
RTVSPost2010Prop32
280
     0
102
RTVSPost2010PropOp32
 70
     1
102
RTVSPost2010Prop33
280
     0
102
RTVSPost2010PropOp33
 70
     1
102
RTVSPost2010Prop34
280
     0
102
RTVSPost2010PropOp34
 70
     1
102
RTVSPost2010Prop35
280
     0
102
RTVSPost2010PropOp35
 70
     1
102
RTVSPost2010Prop36
280
     0
102
RTVSPost2010PropOp36
 70
     1
102
RTVSPost2010Prop37
 90
       50
102
RTVSPost2010PropOp37
 70
     1
102
RTVSPost2010Prop38
140
0.0
102
RTVSPost2010PropOp38
 70
     1
102
RTVSPost2010Prop39
140
1.0
102
RTVSPost2010PropOp39
 70
     1
102
RTVSPost2010Prop40
 90
        0
102
RTVSPost2010PropOp40
 70
     1
102
RTVSPost2010Prop41ColorIndex
 90
       18
102
RTVSPost2010Prop41ColorRGB
 90
        0
102
RTVSPost2010PropOp41
 70
     1
102
RTVSPost2010Prop42
 90
       50
102
RTVSPost2010PropOp42
 70
     1
102
RTVSPost2010Prop43
 90
        3
102
RTVSPost2010PropOp43
 70
     1
102
RTVSPost2010Prop44ColorIndex
 90
        5
102
RTVSPost2010Prop44ColorRGB
 90
      255
102
RTVSPost2010PropOp44
 70
     1
102
RTVSPost2010Prop45
280
     0
102
RTVSPost2010PropOp45
 70
     1
102
RTVSPost2010Prop46
 90
       50
102
RTVSPost2010PropOp46
 70
     1
102
RTVSPost2010Prop47
 90
       50
102
RTVSPost2010PropOp47
 70
     1
102
RTVSPost2010Prop48
 90
       50
102
RTVSPost2010PropOp48
 70
     1
102
RTVSPost2010Prop49
280
     0
102
RTVSPost2010PropOp49
 70
     1
102
RTVSPost2010Prop50
 90
       50
102
RTVSPost2010PropOp50
 70
     1
102
RTVSPost2010Prop51ColorIndex
 90
      256
102
RTVSPost2010Prop51ColorRGB
 90
-16777216
102
RTVSPost2010PropOp51
 70
     0
102
RTVSPost2010Prop52
140
1.0
102
RTVSPost2010PropOp52
 70
     0
102
RTVSPost2010Prop53
 90
        2
102
RTVSPost2010PropOp53
 70
     1
102
RTVSPost2010Prop54
  1
strokes_ogs.tif
102
RTVSPost2010PropOp54
 70
     1
102
RTVSPost2010Prop55
280
     0
102
RTVSPost2010PropOp55
 70
     1
102
RTVSPost2010Prop56
140
1.0
102
RTVSPost2010PropOp56
 70
     1
102
RTVSPost2010Prop57
140
1.0
102
RTVSPost2010PropOp57
 70
     1
  0
XRECORD
  5
1B4
102
{ACAD_REACTORS
330
1B3
102
}
330
1B3
100
AcDbXrecord
280
     1
102
RTVSPost2010Prop28
280
     0
102
RTVSPost2010PropOp28
 70
     1
102
RTVSPost2010Prop29
280
     1
102
RTVSPost2010PropOp29
 70
     1
102
RTVSPost2010Prop30
280
     1
102
RTVSPost2010PropOp30
 70
     1
102
RTVSPost2010Prop31
280
     0
102
RTVSPost2010PropOp31
 70
     1
102
RTVSPost2010Prop32
280
     0
102
RTVSPost2010PropOp32
 70
     1
102
RTVSPost2010Prop33
280
     0
102
RTVSPost2010PropOp33
 70
     1
102
RTVSPost2010Prop34
280
     0
102
RTVSPost2010PropOp34
 70
     1
102
RTVSPost2010Prop35
280
     0
102
RTVSPost2010PropOp35
 70
     1
102
RTVSPost2010Prop36
280
     0
102
RTVSPost2010PropOp36
 70
     1
102
RTVSPost2010Prop37
 90
       50
102
RTVSPost2010PropOp37
 70
     1
102
RTVSPost2010Prop38
140
0.0
102
RTVSPost2010PropOp38
 70
     1
102
RTVSPost2010Prop39
140
1.0
102
RTVSPost2010PropOp39
 70
     1
102
RTVSPost2010Prop40
 90
        0
102
RTVSPost2010PropOp40
 70
     1
102
RTVSPost2010Prop41ColorIndex
 90
       18
102
RTVSPost2010Prop41ColorRGB
 90
        0
102
RTVSPost2010PropOp41
 70
     1
102
RTVSPost2010Prop42
 90
       50
102
RTVSPost2010PropOp42
 70
     1
102
RTVSPost2010Prop43
 90
        3
102
RTVSPost2010PropOp43
 70
     1
102
RTVSPost2010Prop44ColorIndex
 90
        5
102
RTVSPost2010Prop44ColorRGB
 90
      255
102
RTVSPost2010PropOp44
 70
     1
102
RTVSPost2010Prop45
280
     0
102
RTVSPost2010PropOp45
 70
     1
102
RTVSPost2010Prop46
 90
       50
102
RTVSPost2010PropOp46
 70
     1
102
RTVSPost2010Prop47
 90
       50
102
RTVSPost2010PropOp47
 70
     1
102
RTVSPost2010Prop48
 90
       50
102
RTVSPost2010PropOp48
 70
     1
102
RTVSPost2010Prop49
280
     0
102
RTVSPost2010PropOp49
 70
     1
102
RTVSPost2010Prop50
 90
       50
102
RTVSPost2010PropOp50
 70
     1
102
RTVSPost2010Prop51ColorIndex
 90
      256
102
RTVSPost2010Prop51ColorRGB
 90
-16777216
102
RTVSPost2010PropOp51
 70
     0
102
RTVSPost2010Prop52
140
1.0
102
RTVSPost2010PropOp52
 70
     0
102
RTVSPost2010Prop53
 90
        2
102
RTVSPost2010PropOp53
 70
     1
102
RTVSPost2010Prop54
  1
strokes_ogs.tif
102
RTVSPost2010PropOp54
 70
     1
102
RTVSPost2010Prop55
280
     0
102
RTVSPost2010PropOp55
 70
     1
102
RTVSPost2010Prop56
140
1.0
102
RTVSPost2010PropOp56
 70
     1
102
RTVSPost2010Prop57
140
1.0
102
RTVSPost2010PropOp57
 70
     1
  0
XRECORD
  5
1B6
102
{ACAD_REACTORS
330
1B5
102
}
330
1B5
100
AcDbXrecord
280
     1
102
RTVSPost2010Prop28
280
     0
102
RTVSPost2010PropOp28
 70
     1
102
RTVSPost2010Prop29
280
     1
102
RTVSPost2010PropOp29
 70
     1
102
RTVSPost2010Prop30
280
     1
102
RTVSPost2010PropOp30
 70
     1
102
RTVSPost2010Prop31
280
     0
102
RTVSPost2010PropOp31
 70
     1
102
RTVSPost2010Prop32
280
     0
102
RTVSPost2010PropOp32
 70
     1
102
RTVSPost2010Prop33
280
     0
102
RTVSPost2010PropOp33
 70
     1
102
RTVSPost2010Prop34
280
     0
102
RTVSPost2010PropOp34
 70
     1
102
RTVSPost2010Prop35
280
     0
102
RTVSPost2010PropOp35
 70
     1
102
RTVSPost2010Prop36
280
     0
102
RTVSPost2010PropOp36
 70
     1
102
RTVSPost2010Prop37
 90
       50
102
RTVSPost2010PropOp37
 70
     1
102
RTVSPost2010Prop38
140
0.0
102
RTVSPost2010PropOp38
 70
     1
102
RTVSPost2010Prop39
140
1.0
102
RTVSPost2010PropOp39
 70
     1
102
RTVSPost2010Prop40
 90
        0
102
RTVSPost2010PropOp40
 70
     1
102
RTVSPost2010Prop41ColorIndex
 90
       18
102
RTVSPost2010Prop41ColorRGB
 90
        0
102
RTVSPost2010PropOp41
 70
     1
102
RTVSPost2010Prop42
 90
       50
102
RTVSPost2010PropOp42
 70
     1
102
RTVSPost2010Prop43
 90
        3
102
RTVSPost2010PropOp43
 70
     1
102
RTVSPost2010Prop44ColorIndex
 90
        5
102
RTVSPost2010Prop44ColorRGB
 90
      255
102
RTVSPost2010PropOp44
 70
     1
102
RTVSPost2010Prop45
280
     0
102
RTVSPost2010PropOp45
 70
     1
102
RTVSPost2010Prop46
 90
       50
102
RTVSPost2010PropOp46
 70
     1
102
RTVSPost2010Prop47
 90
       50
102
RTVSPost2010PropOp47
 70
     1
102
RTVSPost2010Prop48
 90
       50
102
RTVSPost2010PropOp48
 70
     1
102
RTVSPost2010Prop49
280
     0
102
RTVSPost2010PropOp49
 70
     1
102
RTVSPost2010Prop50
 90
       50
102
RTVSPost2010PropOp50
 70
     1
102
RTVSPost2010Prop51ColorIndex
 90
      256
102
RTVSPost2010Prop51ColorRGB
 90
-16777216
102
RTVSPost2010PropOp51
 70
     0
102
RTVSPost2010Prop52
140
1.0
102
RTVSPost2010PropOp52
 70
     0
102
RTVSPost2010Prop53
 90
        2
102
RTVSPost2010PropOp53
 70
     1
102
RTVSPost2010Prop54
  1
strokes_ogs.tif
102
RTVSPost2010PropOp54
 70
     1
102
RTVSPost2010Prop55
280
     0
102
RTVSPost2010PropOp55
 70
     1
102
RTVSPost2010Prop56
140
1.0
102
RTVSPost2010PropOp56
 70
     1
102
RTVSPost2010Prop57
140
1.0
102
RTVSPost2010PropOp57
 70
     1
  0
XRECORD
  5
1BE
102
{ACAD_REACTORS
330
1BD
102
}
330
1BD
100
AcDbXrecord
280
     1
102
RTVSPost2010Prop28
280
     0
102
RTVSPost2010PropOp28
 70
     1
102
RTVSPost2010Prop29
280
     1
102
RTVSPost2010PropOp29
 70
     1
102
RTVSPost2010Prop30
280
     1
102
RTVSPost2010PropOp30
 70
     1
102
RTVSPost2010Prop31
280
     0
102
RTVSPost2010PropOp31
 70
     1
102
RTVSPost2010Prop32
280
     0
102
RTVSPost2010PropOp32
 70
     1
102
RTVSPost2010Prop33
280
     0
102
RTVSPost2010PropOp33
 70
     1
102
RTVSPost2010Prop34
280
     0
102
RTVSPost2010PropOp34
 70
     1
102
RTVSPost2010Prop35
280
     0
102
RTVSPost2010PropOp35
 70
     1
102
RTVSPost2010Prop36
280
     0
102
RTVSPost2010PropOp36
 70
     1
102
RTVSPost2010Prop37
 90
       50
102
RTVSPost2010PropOp37
 70
     1
102
RTVSPost2010Prop38
140
0.0
102
RTVSPost2010PropOp38
 70
     1
102
RTVSPost2010Prop39
140
1.0
102
RTVSPost2010PropOp39
 70
     1
102
RTVSPost2010Prop40
 90
        0
102
RTVSPost2010PropOp40
 70
     1
102
RTVSPost2010Prop41ColorIndex
 90
       18
102
RTVSPost2010Prop41ColorRGB
 90
        0
102
RTVSPost2010PropOp41
 70
     1
102
RTVSPost2010Prop42
 90
       50
102
RTVSPost2010PropOp42
 70
     1
102
RTVSPost2010Prop43
 90
        3
102
RTVSPost2010PropOp43
 70
     1
102
RTVSPost2010Prop44ColorIndex
 90
        5
102
RTVSPost2010Prop44ColorRGB
 90
      255
102
RTVSPost2010PropOp44
 70
     1
102
RTVSPost2010Prop45
280
     0
102
RTVSPost2010PropOp45
 70
     1
102
RTVSPost2010Prop46
 90
       50
102
RTVSPost2010PropOp46
 70
     1
102
RTVSPost2010Prop47
 90
       50
102
RTVSPost2010PropOp47
 70
     1
102
RTVSPost2010Prop48
 90
       50
102
RTVSPost2010PropOp48
 70
     1
102
RTVSPost2010Prop49
280
     0
102
RTVSPost2010PropOp49
 70
     1
102
RTVSPost2010Prop50
 90
       50
102
RTVSPost2010PropOp50
 70
     1
102
RTVSPost2010Prop51ColorIndex
 90
      256
102
RTVSPost2010Prop51ColorRGB
 90
-16777216
102
RTVSPost2010PropOp51
 70
     0
102
RTVSPost2010Prop52
140
1.0
102
RTVSPost2010PropOp52
 70
     0
102
RTVSPost2010Prop53
 90
        2
102
RTVSPost2010PropOp53
 70
     1
102
RTVSPost2010Prop54
  1
strokes_ogs.tif
102
RTVSPost2010PropOp54
 70
     1
102
RTVSPost2010Prop55
280
     0
102
RTVSPost2010PropOp55
 70
     1
102
RTVSPost2010Prop56
140
1.0
102
RTVSPost2010PropOp56
 70
     1
102
RTVSPost2010Prop57
140
1.0
102
RTVSPost2010PropOp57
 70
     1
  0
XRECORD
  5
1DA
102
{ACAD_REACTORS
330
1D9
102
}
330
1D9
100
AcDbXrecord
280
     1
102
RTVSPost2010Prop28
280
     0
102
RTVSPost2010PropOp28
 70
     0
102
RTVSPost2010Prop29
280
     1
102
RTVSPost2010PropOp29
 70
     0
102
RTVSPost2010Prop30
280
     1
102
RTVSPost2010PropOp30
 70
     0
102
RTVSPost2010Prop31
280
     0
102
RTVSPost2010PropOp31
 70
     0
102
RTVSPost2010Prop32
280
     0
102
RTVSPost2010PropOp32
 70
     0
102
RTVSPost2010Prop33
280
     0
102
RTVSPost2010PropOp33
 70
     0
102
RTVSPost2010Prop34
280
     0
102
RTVSPost2010PropOp34
 70
     0
102
RTVSPost2010Prop35
280
     0
102
RTVSPost2010PropOp35
 70
     0
102
RTVSPost2010Prop36
280
     0
102
RTVSPost2010PropOp36
 70
     0
102
RTVSPost2010Prop37
 90
       50
102
RTVSPost2010PropOp37
 70
     0
102
RTVSPost2010Prop38
140
0.0
102
RTVSPost2010PropOp38
 70
     0
102
RTVSPost2010Prop39
140
1.0
102
RTVSPost2010PropOp39
 70
     0
102
RTVSPost2010Prop40
 90
        0
102
RTVSPost2010PropOp40
 70
     0
102
RTVSPost2010Prop41ColorIndex
 90
       18
102
RTVSPost2010Prop41ColorRGB
 90
        0
102
RTVSPost2010PropOp41
 70
     0
102
RTVSPost2010Prop42
 90
       50
102
RTVSPost2010PropOp42
 70
     0
102
RTVSPost2010Prop43
 90
        3
102
RTVSPost2010PropOp43
 70
     0
102
RTVSPost2010Prop44ColorIndex
 90
        5
102
RTVSPost2010Prop44ColorRGB
 90
      255
102
RTVSPost2010PropOp44
 70
     0
102
RTVSPost2010Prop45
280
     0
102
RTVSPost2010PropOp45
 70
     0
102
RTVSPost2010Prop46
 90
       50
102
RTVSPost2010PropOp46
 70
     0
102
RTVSPost2010Prop47
 90
       50
102
RTVSPost2010PropOp47
 70
     0
102
RTVSPost2010Prop48
 90
       50
102
RTVSPost2010PropOp48
 70
     0
102
RTVSPost2010Prop49
280
     0
102
RTVSPost2010PropOp49
 70
     0
102
RTVSPost2010Prop50
 90
       50
102
RTVSPost2010PropOp50
 70
     0
102
RTVSPost2010Prop51ColorIndex
 90
      256
102
RTVSPost2010Prop51ColorRGB
 90
-16777216
102
RTVSPost2010PropOp51
 70
     0
102
RTVSPost2010Prop52
140
1.0
102
RTVSPost2010PropOp52
 70
     0
102
RTVSPost2010Prop53
 90
        2
102
RTVSPost2010PropOp53
 70
     0
102
RTVSPost2010Prop54
  1
strokes_ogs.tif
102
RTVSPost2010PropOp54
 70
     0
102
RTVSPost2010Prop55
280
     0
102
RTVSPost2010PropOp55
 70
     0
102
RTVSPost2010Prop56
140
1.0
102
RTVSPost2010PropOp56
 70
     0
102
RTVSPost2010Prop57
140
1.0
102
RTVSPost2010PropOp57
 70
     0
  0
XRECORD
  5
1CA
102
{ACAD_REACTORS
330
1C9
102
}
330
1C9
100
AcDbXrecord
280
     1
102
RTVSPost2010Prop28
280
     0
102
RTVSPost2010PropOp28
 70
     1
102
RTVSPost2010Prop29
280
     1
102
RTVSPost2010PropOp29
 70
     1
102
RTVSPost2010Prop30
280
     1
102
RTVSPost2010PropOp30
 70
     1
102
RTVSPost2010Prop31
280
     0
102
RTVSPost2010PropOp31
 70
     1
102
RTVSPost2010Prop32
280
     0
102
RTVSPost2010PropOp32
 70
     1
102
RTVSPost2010Prop33
280
     0
102
RTVSPost2010PropOp33
 70
     1
102
RTVSPost2010Prop34
280
     0
102
RTVSPost2010PropOp34
 70
     1
102
RTVSPost2010Prop35
280
     0
102
RTVSPost2010PropOp35
 70
     1
102
RTVSPost2010Prop36
280
     0
102
RTVSPost2010PropOp36
 70
     1
102
RTVSPost2010Prop37
 90
       50
102
RTVSPost2010PropOp37
 70
     1
102
RTVSPost2010Prop38
140
0.0
102
RTVSPost2010PropOp38
 70
     1
102
RTVSPost2010Prop39
140
1.0
102
RTVSPost2010PropOp39
 70
     1
102
RTVSPost2010Prop40
 90
        0
102
RTVSPost2010PropOp40
 70
     1
102
RTVSPost2010Prop41ColorIndex
 90
       18
102
RTVSPost2010Prop41ColorRGB
 90
        0
102
RTVSPost2010PropOp41
 70
     1
102
RTVSPost2010Prop42
 90
       50
102
RTVSPost2010PropOp42
 70
     1
102
RTVSPost2010Prop43
 90
        3
102
RTVSPost2010PropOp43
 70
     1
102
RTVSPost2010Prop44ColorIndex
 90
        5
102
RTVSPost2010Prop44ColorRGB
 90
      255
102
RTVSPost2010PropOp44
 70
     1
102
RTVSPost2010Prop45
280
     0
102
RTVSPost2010PropOp45
 70
     1
102
RTVSPost2010Prop46
 90
       50
102
RTVSPost2010PropOp46
 70
     1
102
RTVSPost2010Prop47
 90
       50
102
RTVSPost2010PropOp47
 70
     1
102
RTVSPost2010Prop48
 90
       50
102
RTVSPost2010PropOp48
 70
     1
102
RTVSPost2010Prop49
280
     0
102
RTVSPost2010PropOp49
 70
     1
102
RTVSPost2010Prop50
 90
       50
102
RTVSPost2010PropOp50
 70
     1
102
RTVSPost2010Prop51ColorIndex
 90
      256
102
RTVSPost2010Prop51ColorRGB
 90
-16777216
102
RTVSPost2010PropOp51
 70
     0
102
RTVSPost2010Prop52
140
1.0
102
RTVSPost2010PropOp52
 70
     0
102
RTVSPost2010Prop53
 90
        2
102
RTVSPost2010PropOp53
 70
     1
102
RTVSPost2010Prop54
  1
strokes_ogs.tif
102
RTVSPost2010PropOp54
 70
     1
102
RTVSPost2010Prop55
280
     0
102
RTVSPost2010PropOp55
 70
     1
102
RTVSPost2010Prop56
140
1.0
102
RTVSPost2010PropOp56
 70
     1
102
RTVSPost2010Prop57
140
1.0
102
RTVSPost2010PropOp57
 70
     1
  0
XRECORD
  5
1DC
102
{ACAD_REACTORS
330
1DB
102
}
330
1DB
100
AcDbXrecord
280
     1
102
RTVSPost2010Prop28
280
     0
102
RTVSPost2010PropOp28
 70
     0
102
RTVSPost2010Prop29
280
     1
102
RTVSPost2010PropOp29
 70
     0
102
RTVSPost2010Prop30
280
     1
102
RTVSPost2010PropOp30
 70
     0
102
RTVSPost2010Prop31
280
     0
102
RTVSPost2010PropOp31
 70
     0
102
RTVSPost2010Prop32
280
     0
102
RTVSPost2010PropOp32
 70
     0
102
RTVSPost2010Prop33
280
     0
102
RTVSPost2010PropOp33
 70
     0
102
RTVSPost2010Prop34
280
     0
102
RTVSPost2010PropOp34
 70
     0
102
RTVSPost2010Prop35
280
     0
102
RTVSPost2010PropOp35
 70
     0
102
RTVSPost2010Prop36
280
     0
102
RTVSPost2010PropOp36
 70
     0
102
RTVSPost2010Prop37
 90
       50
102
RTVSPost2010PropOp37
 70
     0
102
RTVSPost2010Prop38
140
0.0
102
RTVSPost2010PropOp38
 70
     0
102
RTVSPost2010Prop39
140
1.0
102
RTVSPost2010PropOp39
 70
     0
102
RTVSPost2010Prop40
 90
        0
102
RTVSPost2010PropOp40
 70
     0
102
RTVSPost2010Prop41ColorIndex
 90
       18
102
RTVSPost2010Prop41ColorRGB
 90
        0
102
RTVSPost2010PropOp41
 70
     0
102
RTVSPost2010Prop42
 90
       50
102
RTVSPost2010PropOp42
 70
     0
102
RTVSPost2010Prop43
 90
        3
102
RTVSPost2010PropOp43
 70
     0
102
RTVSPost2010Prop44ColorIndex
 90
        5
102
RTVSPost2010Prop44ColorRGB
 90
      255
102
RTVSPost2010PropOp44
 70
     0
102
RTVSPost2010Prop45
280
     0
102
RTVSPost2010PropOp45
 70
     0
102
RTVSPost2010Prop46
 90
       50
102
RTVSPost2010PropOp46
 70
     0
102
RTVSPost2010Prop47
 90
       50
102
RTVSPost2010PropOp47
 70
     0
102
RTVSPost2010Prop48
 90
       50
102
RTVSPost2010PropOp48
 70
     0
102
RTVSPost2010Prop49
280
     0
102
RTVSPost2010PropOp49
 70
     0
102
RTVSPost2010Prop50
 90
       50
102
RTVSPost2010PropOp50
 70
     0
102
RTVSPost2010Prop51ColorIndex
 90
      256
102
RTVSPost2010Prop51ColorRGB
 90
-16777216
102
RTVSPost2010PropOp51
 70
     0
102
RTVSPost2010Prop52
140
1.0
102
RTVSPost2010PropOp52
 70
     0
102
RTVSPost2010Prop53
 90
        2
102
RTVSPost2010PropOp53
 70
     0
102
RTVSPost2010Prop54
  1
strokes_ogs.tif
102
RTVSPost2010PropOp54
 70
     0
102
RTVSPost2010Prop55
280
     0
102
RTVSPost2010PropOp55
 70
     0
102
RTVSPost2010Prop56
140
1.0
102
RTVSPost2010PropOp56
 70
     0
102
RTVSPost2010Prop57
140
1.0
102
RTVSPost2010PropOp57
 70
     0
  0
XRECORD
  5
1C2
102
{ACAD_REACTORS
330
1C1
102
}
330
1C1
100
AcDbXrecord
280
     1
102
RTVSPost2010Prop28
280
     0
102
RTVSPost2010PropOp28
 70
     1
102
RTVSPost2010Prop29
280
     1
102
RTVSPost2010PropOp29
 70
     1
102
RTVSPost2010Prop30
280
     1
102
RTVSPost2010PropOp30
 70
     1
102
RTVSPost2010Prop31
280
     0
102
RTVSPost2010PropOp31
 70
     1
102
RTVSPost2010Prop32
280
     0
102
RTVSPost2010PropOp32
 70
     1
102
RTVSPost2010Prop33
280
     0
102
RTVSPost2010PropOp33
 70
     1
102
RTVSPost2010Prop34
280
     0
102
RTVSPost2010PropOp34
 70
     1
102
RTVSPost2010Prop35
280
     0
102
RTVSPost2010PropOp35
 70
     1
102
RTVSPost2010Prop36
280
     0
102
RTVSPost2010PropOp36
 70
     1
102
RTVSPost2010Prop37
 90
       50
102
RTVSPost2010PropOp37
 70
     1
102
RTVSPost2010Prop38
140
0.0
102
RTVSPost2010PropOp38
 70
     1
102
RTVSPost2010Prop39
140
1.0
102
RTVSPost2010PropOp39
 70
     1
102
RTVSPost2010Prop40
 90
        0
102
RTVSPost2010PropOp40
 70
     1
102
RTVSPost2010Prop41ColorIndex
 90
       18
102
RTVSPost2010Prop41ColorRGB
 90
        0
102
RTVSPost2010PropOp41
 70
     1
102
RTVSPost2010Prop42
 90
       50
102
RTVSPost2010PropOp42
 70
     1
102
RTVSPost2010Prop43
 90
        3
102
RTVSPost2010PropOp43
 70
     1
102
RTVSPost2010Prop44ColorIndex
 90
        5
102
RTVSPost2010Prop44ColorRGB
 90
      255
102
RTVSPost2010PropOp44
 70
     1
102
RTVSPost2010Prop45
280
     0
102
RTVSPost2010PropOp45
 70
     1
102
RTVSPost2010Prop46
 90
       50
102
RTVSPost2010PropOp46
 70
     1
102
RTVSPost2010Prop47
 90
       50
102
RTVSPost2010PropOp47
 70
     1
102
RTVSPost2010Prop48
 90
       50
102
RTVSPost2010PropOp48
 70
     1
102
RTVSPost2010Prop49
280
     0
102
RTVSPost2010PropOp49
 70
     1
102
RTVSPost2010Prop50
 90
       50
102
RTVSPost2010PropOp50
 70
     1
102
RTVSPost2010Prop51ColorIndex
 90
      256
102
RTVSPost2010Prop51ColorRGB
 90
-16777216
102
RTVSPost2010PropOp51
 70
     0
102
RTVSPost2010Prop52
140
1.0
102
RTVSPost2010PropOp52
 70
     0
102
RTVSPost2010Prop53
 90
        2
102
RTVSPost2010PropOp53
 70
     1
102
RTVSPost2010Prop54
  1
strokes_ogs.tif
102
RTVSPost2010PropOp54
 70
     1
102
RTVSPost2010Prop55
280
     0
102
RTVSPost2010PropOp55
 70
     1
102
RTVSPost2010Prop56
140
1.0
102
RTVSPost2010PropOp56
 70
     1
102
RTVSPost2010Prop57
140
1.0
102
RTVSPost2010PropOp57
 70
     1
  0
XRECORD
  5
1D8
102
{ACAD_REACTORS
330
1D7
102
}
330
1D7
100
AcDbXrecord
280
     1
102
RTVSPost2010Prop28
280
     0
102
RTVSPost2010PropOp28
 70
     1
102
RTVSPost2010Prop29
280
     1
102
RTVSPost2010PropOp29
 70
     1
102
RTVSPost2010Prop30
280
     1
102
RTVSPost2010PropOp30
 70
     1
102
RTVSPost2010Prop31
280
     0
102
RTVSPost2010PropOp31
 70
     1
102
RTVSPost2010Prop32
280
     0
102
RTVSPost2010PropOp32
 70
     1
102
RTVSPost2010Prop33
280
     0
102
RTVSPost2010PropOp33
 70
     1
102
RTVSPost2010Prop34
280
     0
102
RTVSPost2010PropOp34
 70
     1
102
RTVSPost2010Prop35
280
     0
102
RTVSPost2010PropOp35
 70
     1
102
RTVSPost2010Prop36
280
     0
102
RTVSPost2010PropOp36
 70
     1
102
RTVSPost2010Prop37
 90
       50
102
RTVSPost2010PropOp37
 70
     1
102
RTVSPost2010Prop38
140
0.0
102
RTVSPost2010PropOp38
 70
     1
102
RTVSPost2010Prop39
140
1.0
102
RTVSPost2010PropOp39
 70
     1
102
RTVSPost2010Prop40
 90
        0
102
RTVSPost2010PropOp40
 70
     1
102
RTVSPost2010Prop41ColorIndex
 90
       18
102
RTVSPost2010Prop41ColorRGB
 90
        0
102
RTVSPost2010PropOp41
 70
     1
102
RTVSPost2010Prop42
 90
       50
102
RTVSPost2010PropOp42
 70
     1
102
RTVSPost2010Prop43
 90
        3
102
RTVSPost2010PropOp43
 70
     1
102
RTVSPost2010Prop44ColorIndex
 90
        5
102
RTVSPost2010Prop44ColorRGB
 90
      255
102
RTVSPost2010PropOp44
 70
     1
102
RTVSPost2010Prop45
280
     0
102
RTVSPost2010PropOp45
 70
     1
102
RTVSPost2010Prop46
 90
       50
102
RTVSPost2010PropOp46
 70
     1
102
RTVSPost2010Prop47
 90
       50
102
RTVSPost2010PropOp47
 70
     1
102
RTVSPost2010Prop48
 90
       50
102
RTVSPost2010PropOp48
 70
     1
102
RTVSPost2010Prop49
280
     0
102
RTVSPost2010PropOp49
 70
     1
102
RTVSPost2010Prop50
 90
       50
102
RTVSPost2010PropOp50
 70
     1
102
RTVSPost2010Prop51ColorIndex
 90
      256
102
RTVSPost2010Prop51ColorRGB
 90
-16777216
102
RTVSPost2010PropOp51
 70
     0
102
RTVSPost2010Prop52
140
1.0
102
RTVSPost2010PropOp52
 70
     0
102
RTVSPost2010Prop53
 90
        2
102
RTVSPost2010PropOp53
 70
     1
102
RTVSPost2010Prop54
  1
strokes_ogs.tif
102
RTVSPost2010PropOp54
 70
     1
102
RTVSPost2010Prop55
280
     0
102
RTVSPost2010PropOp55
 70
     1
102
RTVSPost2010Prop56
140
1.0
102
RTVSPost2010PropOp56
 70
     1
102
RTVSPost2010Prop57
140
1.0
102
RTVSPost2010PropOp57
 70
     1
  0
XRECORD
  5
1D6
102
{ACAD_REACTORS
330
1D5
102
}
330
1D5
100
AcDbXrecord
280
     1
102
RTVSPost2010Prop28
280
     0
102
RTVSPost2010PropOp28
 70
     1
102
RTVSPost2010Prop29
280
     1
102
RTVSPost2010PropOp29
 70
     1
102
RTVSPost2010Prop30
280
     1
102
RTVSPost2010PropOp30
 70
     1
102
RTVSPost2010Prop31
280
     0
102
RTVSPost2010PropOp31
 70
     1
102
RTVSPost2010Prop32
280
     0
102
RTVSPost2010PropOp32
 70
     1
102
RTVSPost2010Prop33
280
     0
102
RTVSPost2010PropOp33
 70
     1
102
RTVSPost2010Prop34
280
     0
102
RTVSPost2010PropOp34
 70
     1
102
RTVSPost2010Prop35
280
     0
102
RTVSPost2010PropOp35
 70
     1
102
RTVSPost2010Prop36
280
     0
102
RTVSPost2010PropOp36
 70
     1
102
RTVSPost2010Prop37
 90
       50
102
RTVSPost2010PropOp37
 70
     1
102
RTVSPost2010Prop38
140
0.0
102
RTVSPost2010PropOp38
 70
     1
102
RTVSPost2010Prop39
140
1.0
102
RTVSPost2010PropOp39
 70
     1
102
RTVSPost2010Prop40
 90
        0
102
RTVSPost2010PropOp40
 70
     1
102
RTVSPost2010Prop41ColorIndex
 90
       18
102
RTVSPost2010Prop41ColorRGB
 90
        0
102
RTVSPost2010PropOp41
 70
     1
102
RTVSPost2010Prop42
 90
       50
102
RTVSPost2010PropOp42
 70
     1
102
RTVSPost2010Prop43
 90
        3
102
RTVSPost2010PropOp43
 70
     1
102
RTVSPost2010Prop44ColorIndex
 90
        5
102
RTVSPost2010Prop44ColorRGB
 90
      255
102
RTVSPost2010PropOp44
 70
     1
102
RTVSPost2010Prop45
280
     0
102
RTVSPost2010PropOp45
 70
     1
102
RTVSPost2010Prop46
 90
       50
102
RTVSPost2010PropOp46
 70
     1
102
RTVSPost2010Prop47
 90
       50
102
RTVSPost2010PropOp47
 70
     1
102
RTVSPost2010Prop48
 90
       50
102
RTVSPost2010PropOp48
 70
     1
102
RTVSPost2010Prop49
280
     0
102
RTVSPost2010PropOp49
 70
     1
102
RTVSPost2010Prop50
 90
       50
102
RTVSPost2010PropOp50
 70
     1
102
RTVSPost2010Prop51ColorIndex
 90
      256
102
RTVSPost2010Prop51ColorRGB
 90
-16777216
102
RTVSPost2010PropOp51
 70
     0
102
RTVSPost2010Prop52
140
1.0
102
RTVSPost2010PropOp52
 70
     0
102
RTVSPost2010Prop53
 90
        2
102
RTVSPost2010PropOp53
 70
     1
102
RTVSPost2010Prop54
  1
strokes_ogs.tif
102
RTVSPost2010PropOp54
 70
     1
102
RTVSPost2010Prop55
280
     0
102
RTVSPost2010PropOp55
 70
     1
102
RTVSPost2010Prop56
140
1.0
102
RTVSPost2010PropOp56
 70
     1
102
RTVSPost2010Prop57
140
1.0
102
RTVSPost2010PropOp57
 70
     1
  0
XRECORD
  5
1D0
102
{ACAD_REACTORS
330
1CF
102
}
330
1CF
100
AcDbXrecord
280
     1
102
RTVSPost2010Prop28
280
     0
102
RTVSPost2010PropOp28
 70
     1
102
RTVSPost2010Prop29
280
     1
102
RTVSPost2010PropOp29
 70
     1
102
RTVSPost2010Prop30
280
     1
102
RTVSPost2010PropOp30
 70
     1
102
RTVSPost2010Prop31
280
     0
102
RTVSPost2010PropOp31
 70
     1
102
RTVSPost2010Prop32
280
     0
102
RTVSPost2010PropOp32
 70
     1
102
RTVSPost2010Prop33
280
     0
102
RTVSPost2010PropOp33
 70
     1
102
RTVSPost2010Prop34
280
     0
102
RTVSPost2010PropOp34
 70
     1
102
RTVSPost2010Prop35
280
     0
102
RTVSPost2010PropOp35
 70
     1
102
RTVSPost2010Prop36
280
     0
102
RTVSPost2010PropOp36
 70
     1
102
RTVSPost2010Prop37
 90
       50
102
RTVSPost2010PropOp37
 70
     1
102
RTVSPost2010Prop38
140
0.0
102
RTVSPost2010PropOp38
 70
     1
102
RTVSPost2010Prop39
140
1.0
102
RTVSPost2010PropOp39
 70
     1
102
RTVSPost2010Prop40
 90
        0
102
RTVSPost2010PropOp40
 70
     1
102
RTVSPost2010Prop41ColorIndex
 90
       18
102
RTVSPost2010Prop41ColorRGB
 90
        0
102
RTVSPost2010PropOp41
 70
     1
102
RTVSPost2010Prop42
 90
       50
102
RTVSPost2010PropOp42
 70
     1
102
RTVSPost2010Prop43
 90
        3
102
RTVSPost2010PropOp43
 70
     1
102
RTVSPost2010Prop44ColorIndex
 90
        5
102
RTVSPost2010Prop44ColorRGB
 90
      255
102
RTVSPost2010PropOp44
 70
     1
102
RTVSPost2010Prop45
280
     0
102
RTVSPost2010PropOp45
 70
     1
102
RTVSPost2010Prop46
 90
       50
102
RTVSPost2010PropOp46
 70
     1
102
RTVSPost2010Prop47
 90
       50
102
RTVSPost2010PropOp47
 70
     1
102
RTVSPost2010Prop48
 90
       50
102
RTVSPost2010PropOp48
 70
     1
102
RTVSPost2010Prop49
280
     0
102
RTVSPost2010PropOp49
 70
     1
102
RTVSPost2010Prop50
 90
       50
102
RTVSPost2010PropOp50
 70
     1
102
RTVSPost2010Prop51ColorIndex
 90
      256
102
RTVSPost2010Prop51ColorRGB
 90
-16777216
102
RTVSPost2010PropOp51
 70
     0
102
RTVSPost2010Prop52
140
1.0
102
RTVSPost2010PropOp52
 70
     0
102
RTVSPost2010Prop53
 90
        2
102
RTVSPost2010PropOp53
 70
     1
102
RTVSPost2010Prop54
  1
strokes_ogs.tif
102
RTVSPost2010PropOp54
 70
     1
102
RTVSPost2010Prop55
280
     0
102
RTVSPost2010PropOp55
 70
     1
102
RTVSPost2010Prop56
140
1.0
102
RTVSPost2010PropOp56
 70
     1
102
RTVSPost2010Prop57
140
1.0
102
RTVSPost2010PropOp57
 70
     1
  0
XRECORD
  5
1D2
102
{ACAD_REACTORS
330
1D1
102
}
330
1D1
100
AcDbXrecord
280
     1
102
RTVSPost2010Prop28
280
     0
102
RTVSPost2010PropOp28
 70
     1
102
RTVSPost2010Prop29
280
     1
102
RTVSPost2010PropOp29
 70
     1
102
RTVSPost2010Prop30
280
     1
102
RTVSPost2010PropOp30
 70
     1
102
RTVSPost2010Prop31
280
     0
102
RTVSPost2010PropOp31
 70
     1
102
RTVSPost2010Prop32
280
     0
102
RTVSPost2010PropOp32
 70
     1
102
RTVSPost2010Prop33
280
     0
102
RTVSPost2010PropOp33
 70
     1
102
RTVSPost2010Prop34
280
     0
102
RTVSPost2010PropOp34
 70
     1
102
RTVSPost2010Prop35
280
     0
102
RTVSPost2010PropOp35
 70
     1
102
RTVSPost2010Prop36
280
     0
102
RTVSPost2010PropOp36
 70
     1
102
RTVSPost2010Prop37
 90
       50
102
RTVSPost2010PropOp37
 70
     1
102
RTVSPost2010Prop38
140
0.0
102
RTVSPost2010PropOp38
 70
     1
102
RTVSPost2010Prop39
140
1.0
102
RTVSPost2010PropOp39
 70
     1
102
RTVSPost2010Prop40
 90
        0
102
RTVSPost2010PropOp40
 70
     1
102
RTVSPost2010Prop41ColorIndex
 90
       18
102
RTVSPost2010Prop41ColorRGB
 90
        0
102
RTVSPost2010PropOp41
 70
     1
102
RTVSPost2010Prop42
 90
       50
102
RTVSPost2010PropOp42
 70
     1
102
RTVSPost2010Prop43
 90
        3
102
RTVSPost2010PropOp43
 70
     1
102
RTVSPost2010Prop44ColorIndex
 90
        5
102
RTVSPost2010Prop44ColorRGB
 90
      255
102
RTVSPost2010PropOp44
 70
     1
102
RTVSPost2010Prop45
280
     0
102
RTVSPost2010PropOp45
 70
     1
102
RTVSPost2010Prop46
 90
       50
102
RTVSPost2010PropOp46
 70
     1
102
RTVSPost2010Prop47
 90
       50
102
RTVSPost2010PropOp47
 70
     1
102
RTVSPost2010Prop48
 90
       50
102
RTVSPost2010PropOp48
 70
     1
102
RTVSPost2010Prop49
280
     0
102
RTVSPost2010PropOp49
 70
     1
102
RTVSPost2010Prop50
 90
       50
102
RTVSPost2010PropOp50
 70
     1
102
RTVSPost2010Prop51ColorIndex
 90
      256
102
RTVSPost2010Prop51ColorRGB
 90
-16777216
102
RTVSPost2010PropOp51
 70
     0
102
RTVSPost2010Prop52
140
1.0
102
RTVSPost2010PropOp52
 70
     0
102
RTVSPost2010Prop53
 90
        2
102
RTVSPost2010PropOp53
 70
     1
102
RTVSPost2010Prop54
  1
strokes_ogs.tif
102
RTVSPost2010PropOp54
 70
     1
102
RTVSPost2010Prop55
280
     0
102
RTVSPost2010PropOp55
 70
     1
102
RTVSPost2010Prop56
140
1.0
102
RTVSPost2010PropOp56
 70
     1
102
RTVSPost2010Prop57
140
1.0
102
RTVSPost2010PropOp57
 70
     1
  0
XRECORD
  5
1C8
102
{ACAD_REACTORS
330
1C7
102
}
330
1C7
100
AcDbXrecord
280
     1
102
RTVSPost2010Prop28
280
     0
102
RTVSPost2010PropOp28
 70
     1
102
RTVSPost2010Prop29
280
     1
102
RTVSPost2010PropOp29
 70
     1
102
RTVSPost2010Prop30
280
     1
102
RTVSPost2010PropOp30
 70
     1
102
RTVSPost2010Prop31
280
     0
102
RTVSPost2010PropOp31
 70
     1
102
RTVSPost2010Prop32
280
     0
102
RTVSPost2010PropOp32
 70
     1
102
RTVSPost2010Prop33
280
     0
102
RTVSPost2010PropOp33
 70
     1
102
RTVSPost2010Prop34
280
     0
102
RTVSPost2010PropOp34
 70
     1
102
RTVSPost2010Prop35
280
     0
102
RTVSPost2010PropOp35
 70
     1
102
RTVSPost2010Prop36
280
     0
102
RTVSPost2010PropOp36
 70
     1
102
RTVSPost2010Prop37
 90
       50
102
RTVSPost2010PropOp37
 70
     1
102
RTVSPost2010Prop38
140
0.0
102
RTVSPost2010PropOp38
 70
     1
102
RTVSPost2010Prop39
140
1.0
102
RTVSPost2010PropOp39
 70
     1
102
RTVSPost2010Prop40
 90
        0
102
RTVSPost2010PropOp40
 70
     1
102
RTVSPost2010Prop41ColorIndex
 90
       18
102
RTVSPost2010Prop41ColorRGB
 90
        0
102
RTVSPost2010PropOp41
 70
     1
102
RTVSPost2010Prop42
 90
       50
102
RTVSPost2010PropOp42
 70
     1
102
RTVSPost2010Prop43
 90
        3
102
RTVSPost2010PropOp43
 70
     1
102
RTVSPost2010Prop44ColorIndex
 90
        5
102
RTVSPost2010Prop44ColorRGB
 90
      255
102
RTVSPost2010PropOp44
 70
     1
102
RTVSPost2010Prop45
280
     0
102
RTVSPost2010PropOp45
 70
     1
102
RTVSPost2010Prop46
 90
       50
102
RTVSPost2010PropOp46
 70
     1
102
RTVSPost2010Prop47
 90
       50
102
RTVSPost2010PropOp47
 70
     1
102
RTVSPost2010Prop48
 90
       50
102
RTVSPost2010PropOp48
 70
     1
102
RTVSPost2010Prop49
280
     0
102
RTVSPost2010PropOp49
 70
     1
102
RTVSPost2010Prop50
 90
       50
102
RTVSPost2010PropOp50
 70
     1
102
RTVSPost2010Prop51ColorIndex
 90
      256
102
RTVSPost2010Prop51ColorRGB
 90
-16777216
102
RTVSPost2010PropOp51
 70
     0
102
RTVSPost2010Prop52
140
1.0
102
RTVSPost2010PropOp52
 70
     0
102
RTVSPost2010Prop53
 90
        2
102
RTVSPost2010PropOp53
 70
     1
102
RTVSPost2010Prop54
  1
strokes_ogs.tif
102
RTVSPost2010PropOp54
 70
     1
102
RTVSPost2010Prop55
280
     0
102
RTVSPost2010PropOp55
 70
     1
102
RTVSPost2010Prop56
140
1.0
102
RTVSPost2010PropOp56
 70
     1
102
RTVSPost2010Prop57
140
1.0
102
RTVSPost2010PropOp57
 70
     1
  0
XRECORD
  5
1BC
102
{ACAD_REACTORS
330
1BB
102
}
330
1BB
100
AcDbXrecord
280
     1
102
RTVSPost2010Prop28
280
     0
102
RTVSPost2010PropOp28
 70
     1
102
RTVSPost2010Prop29
280
     1
102
RTVSPost2010PropOp29
 70
     1
102
RTVSPost2010Prop30
280
     1
102
RTVSPost2010PropOp30
 70
     1
102
RTVSPost2010Prop31
280
     0
102
RTVSPost2010PropOp31
 70
     1
102
RTVSPost2010Prop32
280
     0
102
RTVSPost2010PropOp32
 70
     1
102
RTVSPost2010Prop33
280
     0
102
RTVSPost2010PropOp33
 70
     1
102
RTVSPost2010Prop34
280
     0
102
RTVSPost2010PropOp34
 70
     1
102
RTVSPost2010Prop35
280
     0
102
RTVSPost2010PropOp35
 70
     1
102
RTVSPost2010Prop36
280
     0
102
RTVSPost2010PropOp36
 70
     1
102
RTVSPost2010Prop37
 90
       50
102
RTVSPost2010PropOp37
 70
     1
102
RTVSPost2010Prop38
140
0.0
102
RTVSPost2010PropOp38
 70
     1
102
RTVSPost2010Prop39
140
1.0
102
RTVSPost2010PropOp39
 70
     1
102
RTVSPost2010Prop40
 90
        0
102
RTVSPost2010PropOp40
 70
     1
102
RTVSPost2010Prop41ColorIndex
 90
       18
102
RTVSPost2010Prop41ColorRGB
 90
        0
102
RTVSPost2010PropOp41
 70
     1
102
RTVSPost2010Prop42
 90
       50
102
RTVSPost2010PropOp42
 70
     1
102
RTVSPost2010Prop43
 90
        3
102
RTVSPost2010PropOp43
 70
     1
102
RTVSPost2010Prop44ColorIndex
 90
        5
102
RTVSPost2010Prop44ColorRGB
 90
      255
102
RTVSPost2010PropOp44
 70
     1
102
RTVSPost2010Prop45
280
     0
102
RTVSPost2010PropOp45
 70
     1
102
RTVSPost2010Prop46
 90
       50
102
RTVSPost2010PropOp46
 70
     1
102
RTVSPost2010Prop47
 90
       50
102
RTVSPost2010PropOp47
 70
     1
102
RTVSPost2010Prop48
 90
       50
102
RTVSPost2010PropOp48
 70
     1
102
RTVSPost2010Prop49
280
     0
102
RTVSPost2010PropOp49
 70
     1
102
RTVSPost2010Prop50
 90
       50
102
RTVSPost2010PropOp50
 70
     1
102
RTVSPost2010Prop51ColorIndex
 90
      256
102
RTVSPost2010Prop51ColorRGB
 90
-16777216
102
RTVSPost2010PropOp51
 70
     0
102
RTVSPost2010Prop52
140
1.0
102
RTVSPost2010PropOp52
 70
     0
102
RTVSPost2010Prop53
 90
        2
102
RTVSPost2010PropOp53
 70
     1
102
RTVSPost2010Prop54
  1
strokes_ogs.tif
102
RTVSPost2010PropOp54
 70
     1
102
RTVSPost2010Prop55
280
     0
102
RTVSPost2010PropOp55
 70
     1
102
RTVSPost2010Prop56
140
1.0
102
RTVSPost2010PropOp56
 70
     1
102
RTVSPost2010Prop57
140
1.0
102
RTVSPost2010PropOp57
 70
     1
  0
XRECORD
  5
1D4
102
{ACAD_REACTORS
330
1D3
102
}
330
1D3
100
AcDbXrecord
280
     1
102
RTVSPost2010Prop28
280
     0
102
RTVSPost2010PropOp28
 70
     1
102
RTVSPost2010Prop29
280
     1
102
RTVSPost2010PropOp29
 70
     1
102
RTVSPost2010Prop30
280
     1
102
RTVSPost2010PropOp30
 70
     1
102
RTVSPost2010Prop31
280
     0
102
RTVSPost2010PropOp31
 70
     1
102
RTVSPost2010Prop32
280
     0
102
RTVSPost2010PropOp32
 70
     1
102
RTVSPost2010Prop33
280
     0
102
RTVSPost2010PropOp33
 70
     1
102
RTVSPost2010Prop34
280
     0
102
RTVSPost2010PropOp34
 70
     1
102
RTVSPost2010Prop35
280
     0
102
RTVSPost2010PropOp35
 70
     1
102
RTVSPost2010Prop36
280
     0
102
RTVSPost2010PropOp36
 70
     1
102
RTVSPost2010Prop37
 90
       50
102
RTVSPost2010PropOp37
 70
     1
102
RTVSPost2010Prop38
140
0.0
102
RTVSPost2010PropOp38
 70
     1
102
RTVSPost2010Prop39
140
1.0
102
RTVSPost2010PropOp39
 70
     1
102
RTVSPost2010Prop40
 90
        0
102
RTVSPost2010PropOp40
 70
     1
102
RTVSPost2010Prop41ColorIndex
 90
       18
102
RTVSPost2010Prop41ColorRGB
 90
        0
102
RTVSPost2010PropOp41
 70
     1
102
RTVSPost2010Prop42
 90
       50
102
RTVSPost2010PropOp42
 70
     1
102
RTVSPost2010Prop43
 90
        3
102
RTVSPost2010PropOp43
 70
     1
102
RTVSPost2010Prop44ColorIndex
 90
        5
102
RTVSPost2010Prop44ColorRGB
 90
      255
102
RTVSPost2010PropOp44
 70
     1
102
RTVSPost2010Prop45
280
     0
102
RTVSPost2010PropOp45
 70
     1
102
RTVSPost2010Prop46
 90
       50
102
RTVSPost2010PropOp46
 70
     1
102
RTVSPost2010Prop47
 90
       50
102
RTVSPost2010PropOp47
 70
     1
102
RTVSPost2010Prop48
 90
       50
102
RTVSPost2010PropOp48
 70
     1
102
RTVSPost2010Prop49
280
     0
102
RTVSPost2010PropOp49
 70
     1
102
RTVSPost2010Prop50
 90
       50
102
RTVSPost2010PropOp50
 70
     1
102
RTVSPost2010Prop51ColorIndex
 90
      256
102
RTVSPost2010Prop51ColorRGB
 90
-16777216
102
RTVSPost2010PropOp51
 70
     0
102
RTVSPost2010Prop52
140
1.0
102
RTVSPost2010PropOp52
 70
     0
102
RTVSPost2010Prop53
 90
        2
102
RTVSPost2010PropOp53
 70
     1
102
RTVSPost2010Prop54
  1
strokes_ogs.tif
102
RTVSPost2010PropOp54
 70
     1
102
RTVSPost2010Prop55
280
     0
102
RTVSPost2010PropOp55
 70
     1
102
RTVSPost2010Prop56
140
1.0
102
RTVSPost2010PropOp56
 70
     1
102
RTVSPost2010Prop57
140
1.0
102
RTVSPost2010PropOp57
 70
     1
  0
ENDSEC
  0
EOF
