  0
SECTION
  2
HEADER
  9
$ACADVER
  1
AC1024
  9
$ACADMAINTVER
 70
   205
  9
$DWGCODEPAGE
  3
ANSI_1251
  9
$INSBASE
 10
0.0
 20
0.0
 30
0.0
  9
$EXTMIN
 10
1.000000000000000E+20
 20
1.000000000000000E+20
 30
1.000000000000000E+20
  9
$EXTMAX
 10
-1.000000000000000E+20
 20
-1.000000000000000E+20
 30
-1.000000000000000E+20
  9
$LIMMIN
 10
0.0
 20
0.0
  9
$LIMMAX
 10
12.0
 20
9.0
  9
$ORTHOMODE
 70
     0
  9
$REGENMODE
 70
     1
  9
$FILLMODE
 70
     1
  9
$QTEXTMODE
 70
     0
  9
$MIRRTEXT
 70
     1
  9
$LTSCALE
 40
1.0
  9
$ATTMODE
 70
     1
  9
$TEXTSIZE
 40
0.2
  9
$TRACEWID
 40
0.05
  9
$TEXTSTYLE
  7
Standard
  9
$CLAYER
  8
OracDecor_cornice_mouldings
  9
$CELTYPE
  6
ByLayer
  9
$CECOLOR
 62
   256
  9
$CELTSCALE
 40
1.0
  9
$DISPSILH
 70
     0
  9
$DIMSCALE
 40
1.0
  9
$DIMASZ
 40
0.18
  9
$DIMEXO
 40
0.0625
  9
$DIMDLI
 40
0.38
  9
$DIMRND
 40
0.0
  9
$DIMDLE
 40
0.0
  9
$DIMEXE
 40
0.18
  9
$DIMTP
 40
0.0
  9
$DIMTM
 40
0.0
  9
$DIMTXT
 40
0.18
  9
$DIMCEN
 40
0.09
  9
$DIMTSZ
 40
0.0
  9
$DIMTOL
 70
     0
  9
$DIMLIM
 70
     0
  9
$DIMTIH
 70
     1
  9
$DIMTOH
 70
     1
  9
$DIMSE1
 70
     0
  9
$DIMSE2
 70
     0
  9
$DIMTAD
 70
     0
  9
$DIMZIN
 70
     0
  9
$DIMBLK
  1

  9
$DIMASO
 70
     1
  9
$DIMSHO
 70
     1
  9
$DIMPOST
  1

  9
$DIMAPOST
  1

  9
$DIMALT
 70
     0
  9
$DIMALTD
 70
     2
  9
$DIMALTF
 40
25.4
  9
$DIMLFAC
 40
1.0
  9
$DIMTOFL
 70
     0
  9
$DIMTVP
 40
0.0
  9
$DIMTIX
 70
     0
  9
$DIMSOXD
 70
     0
  9
$DIMSAH
 70
     0
  9
$DIMBLK1
  1

  9
$DIMBLK2
  1

  9
$DIMSTYLE
  2
Standard
  9
$DIMCLRD
 70
     0
  9
$DIMCLRE
 70
     0
  9
$DIMCLRT
 70
     0
  9
$DIMTFAC
 40
1.0
  9
$DIMGAP
 40
0.09
  9
$DIMJUST
 70
     0
  9
$DIMSD1
 70
     0
  9
$DIMSD2
 70
     0
  9
$DIMTOLJ
 70
     1
  9
$DIMTZIN
 70
     0
  9
$DIMALTZ
 70
     0
  9
$DIMALTTZ
 70
     0
  9
$DIMUPT
 70
     0
  9
$DIMDEC
 70
     4
  9
$DIMTDEC
 70
     4
  9
$DIMALTU
 70
     2
  9
$DIMALTTD
 70
     2
  9
$DIMTXSTY
  7
Standard
  9
$DIMAUNIT
 70
     0
  9
$DIMADEC
 70
     0
  9
$DIMALTRND
 40
0.0
  9
$DIMAZIN
 70
     0
  9
$DIMDSEP
 70
    46
  9
$DIMATFIT
 70
     3
  9
$DIMFRAC
 70
     0
  9
$DIMLDRBLK
  1

  9
$DIMLUNIT
 70
     2
  9
$DIMLWD
 70
    -2
  9
$DIMLWE
 70
    -2
  9
$DIMTMOVE
 70
     0
  9
$DIMFXL
 40
1.0
  9
$DIMFXLON
 70
     0
  9
$DIMJOGANG
 40
0.7853981633974483
  9
$DIMTFILL
 70
     0
  9
$DIMTFILLCLR
 70
     0
  9
$DIMARCSYM
 70
     0
  9
$DIMLTYPE
  6

  9
$DIMLTEX1
  6

  9
$DIMLTEX2
  6

  9
$DIMTXTDIRECTION
 70
     0
  9
$LUNITS
 70
     2
  9
$LUPREC
 70
     4
  9
$SKETCHINC
 40
0.1
  9
$FILLETRAD
 40
0.5
  9
$AUNITS
 70
     0
  9
$AUPREC
 70
     0
  9
$MENU
  1
.
  9
$ELEVATION
 40
0.0
  9
$PELEVATION
 40
0.0
  9
$THICKNESS
 40
0.0
  9
$LIMCHECK
 70
     0
  9
$CHAMFERA
 40
0.5
  9
$CHAMFERB
 40
0.5
  9
$CHAMFERC
 40
1.0
  9
$CHAMFERD
 40
0.0
  9
$SKPOLY
 70
     0
  9
$TDCREATE
 40
2451380.930432396
  9
$TDUCREATE
 40
2451380.805432396
  9
$TDUPDATE
 40
2451380.966180555
  9
$TDUUPDATE
 40
2451380.841180556
  9
$TDINDWG
 40
0.0075619560
  9
$TDUSRTIMER
 40
0.0075529167
  9
$USRTIMER
 70
     1
  9
$ANGBASE
 50
0.0
  9
$ANGDIR
 70
     0
  9
$PDMODE
 70
     0
  9
$PDSIZE
 40
0.0
  9
$PLINEWID
 40
0.0
  9
$SPLFRAME
 70
     0
  9
$SPLINETYPE
 70
     6
  9
$SPLINESEGS
 70
     8
  9
$HANDSEED
  5
1E4
  9
$SURFTAB1
 70
     6
  9
$SURFTAB2
 70
     6
  9
$SURFTYPE
 70
     6
  9
$SURFU
 70
     6
  9
$SURFV
 70
     6
  9
$UCSBASE
  2

  9
$UCSNAME
  2

  9
$UCSORG
 10
0.0
 20
0.0
 30
0.0
  9
$UCSXDIR
 10
1.0
 20
0.0
 30
0.0
  9
$UCSYDIR
 10
0.0
 20
1.0
 30
0.0
  9
$UCSORTHOREF
  2

  9
$UCSORTHOVIEW
 70
     0
  9
$UCSORGTOP
 10
0.0
 20
0.0
 30
0.0
  9
$UCSORGBOTTOM
 10
0.0
 20
0.0
 30
0.0
  9
$UCSORGLEFT
 10
0.0
 20
0.0
 30
0.0
  9
$UCSORGRIGHT
 10
0.0
 20
0.0
 30
0.0
  9
$UCSORGFRONT
 10
0.0
 20
0.0
 30
0.0
  9
$UCSORGBACK
 10
0.0
 20
0.0
 30
0.0
  9
$PUCSBASE
  2

  9
$PUCSNAME
  2

  9
$PUCSORG
 10
0.0
 20
0.0
 30
0.0
  9
$PUCSXDIR
 10
1.0
 20
0.0
 30
0.0
  9
$PUCSYDIR
 10
0.0
 20
1.0
 30
0.0
  9
$PUCSORTHOREF
  2

  9
$PUCSORTHOVIEW
 70
     0
  9
$PUCSORGTOP
 10
0.0
 20
0.0
 30
0.0
  9
$PUCSORGBOTTOM
 10
0.0
 20
0.0
 30
0.0
  9
$PUCSORGLEFT
 10
0.0
 20
0.0
 30
0.0
  9
$PUCSORGRIGHT
 10
0.0
 20
0.0
 30
0.0
  9
$PUCSORGFRONT
 10
0.0
 20
0.0
 30
0.0
  9
$PUCSORGBACK
 10
0.0
 20
0.0
 30
0.0
  9
$USERI1
 70
     0
  9
$USERI2
 70
     0
  9
$USERI3
 70
     0
  9
$USERI4
 70
     0
  9
$USERI5
 70
     0
  9
$USERR1
 40
0.0
  9
$USERR2
 40
0.0
  9
$USERR3
 40
0.0
  9
$USERR4
 40
0.0
  9
$USERR5
 40
0.0
  9
$WORLDVIEW
 70
     1
  9
$SHADEDGE
 70
     3
  9
$SHADEDIF
 70
    70
  9
$TILEMODE
 70
     1
  9
$MAXACTVP
 70
    64
  9
$PINSBASE
 10
0.0
 20
0.0
 30
0.0
  9
$PLIMCHECK
 70
     0
  9
$PEXTMIN
 10
1.000000000000000E+20
 20
1.000000000000000E+20
 30
1.000000000000000E+20
  9
$PEXTMAX
 10
-1.000000000000000E+20
 20
-1.000000000000000E+20
 30
-1.000000000000000E+20
  9
$PLIMMIN
 10
0.0
 20
0.0
  9
$PLIMMAX
 10
12.0
 20
9.0
  9
$UNITMODE
 70
     0
  9
$VISRETAIN
 70
     1
  9
$PLINEGEN
 70
     0
  9
$PSLTSCALE
 70
     1
  9
$TREEDEPTH
 70
  3020
  9
$CMLSTYLE
  2
Standard
  9
$CMLJUST
 70
     0
  9
$CMLSCALE
 40
1.0
  9
$PROXYGRAPHICS
 70
     1
  9
$MEASUREMENT
 70
     1
  9
$CELWEIGHT
370
    -1
  9
$ENDCAPS
280
     0
  9
$JOINSTYLE
280
     0
  9
$LWDISPLAY
290
     0
  9
$INSUNITS
 70
     4
  9
$HYPERLINKBASE
  1

  9
$STYLESHEET
  1

  9
$XEDIT
290
     1
  9
$CEPSNTYPE
380
     0
  9
$PSTYLEMODE
290
     1
  9
$FINGERPRINTGUID
  2
{12F50282-3ED8-11D3-A8B7-0060B0F84BC6}
  9
$VERSIONGUID
  2
{12F50293-3ED8-11D3-A8B7-0060B0F84BC6}
  9
$EXTNAMES
290
     1
  9
$PSVPSCALE
 40
0.0
  9
$OLESTARTUP
290
     0
  9
$SORTENTS
280
   127
  9
$INDEXCTL
280
     0
  9
$HIDETEXT
280
     0
  9
$XCLIPFRAME
280
     2
  9
$HALOGAP
280
     0
  9
$OBSCOLOR
 70
   257
  9
$OBSLTYPE
280
     0
  9
$INTERSECTIONDISPLAY
280
     0
  9
$INTERSECTIONCOLOR
 70
   257
  9
$DIMASSOC
280
     1
  9
$PROJECTNAME
  1

  9
$CAMERADISPLAY
290
     0
  9
$LENSLENGTH
 40
50.0
  9
$CAMERAHEIGHT
 40
0.0
  9
$STEPSPERSEC
 40
2.0
  9
$STEPSIZE
 40
6.0
  9
$3DDWFPREC
 40
2.0
  9
$PSOLWIDTH
 40
0.25
  9
$PSOLHEIGHT
 40
4.0
  9
$LOFTANG1
 40
1.570796326794896
  9
$LOFTANG2
 40
1.570796326794896
  9
$LOFTMAG1
 40
0.0
  9
$LOFTMAG2
 40
0.0
  9
$LOFTPARAM
 70
     7
  9
$LOFTNORMALS
280
     1
  9
$LATITUDE
 40
37.795
  9
$LONGITUDE
 40
-122.394
  9
$NORTHDIRECTION
 40
0.0
  9
$TIMEZONE
 70
 -8000
  9
$LIGHTGLYPHDISPLAY
280
     1
  9
$TILEMODELIGHTSYNCH
280
     1
  9
$CMATERIAL
347
AB
  9
$SOLIDHIST
280
     0
  9
$SHOWHIST
280
     1
  9
$DWFFRAME
280
     2
  9
$DGNFRAME
280
     0
  9
$REALWORLDSCALE
290
     1
  9
$INTERFERECOLOR
 62
     1
  9
$INTERFEREOBJVS
345
CD
  9
$INTERFEREVPVS
346
CA
  9
$CSHADOW
280
     0
  9
$SHADOWPLANELOCATION
 40
0.0
  0
ENDSEC
  0
SECTION
  2
CLASSES
  0
CLASS
  1
ACDBDICTIONARYWDFLT
  2
AcDbDictionaryWithDefault
  3
ObjectDBX Classes
 90
        0
 91
        1
280
     0
281
     0
  0
CLASS
  1
ACDBPLACEHOLDER
  2
AcDbPlaceHolder
  3
ObjectDBX Classes
 90
        0
 91
        2
280
     0
281
     0
  0
CLASS
  1
LAYOUT
  2
AcDbLayout
  3
ObjectDBX Classes
 90
        0
 91
        3
280
     0
281
     0
  0
CLASS
  1
MATERIAL
  2
AcDbMaterial
  3
ObjectDBX Classes
 90
     1153
 91
        3
280
     0
281
     0
  0
CLASS
  1
VISUALSTYLE
  2
AcDbVisualStyle
  3
ObjectDBX Classes
 90
     4095
 91
       24
280
     0
281
     0
  0
CLASS
  1
TABLESTYLE
  2
AcDbTableStyle
  3
ObjectDBX Classes
 90
     4095
 91
        1
280
     0
281
     0
  0
CLASS
  1
SCALE
  2
AcDbScale
  3
ObjectDBX Classes
 90
     1153
 91
       17
280
     0
281
     0
  0
CLASS
  1
MLEADERSTYLE
  2
AcDbMLeaderStyle
  3
ACDB_MLEADERSTYLE_CLASS
 90
     4095
 91
        1
280
     0
281
     0
  0
CLASS
  1
ACDBSECTIONVIEWSTYLE
  2
AcDbSectionViewStyle
  3
ObjectDBX Classes
 90
     1025
 91
        1
280
     0
281
     0
  0
CLASS
  1
ACDBDETAILVIEWSTYLE
  2
AcDbDetailViewStyle
  3
ObjectDBX Classes
 90
     1025
 91
        1
280
     0
281
     0
  0
CLASS
  1
MESH
  2
AcDbSubDMesh
  3
ObjectDBX Classes
 90
        0
 91
        1
280
     0
281
     1
  0
CLASS
  1
DICTIONARYVAR
  2
AcDbDictionaryVar
  3
ObjectDBX Classes
 90
        0
 91
        9
280
     0
281
     0
  0
CLASS
  1
CELLSTYLEMAP
  2
AcDbCellStyleMap
  3
ObjectDBX Classes
 90
     1152
 91
        1
280
     0
281
     0
  0
ENDSEC
  0
SECTION
  2
TABLES
  0
TABLE
  2
VPORT
  5
8
330
0
100
AcDbSymbolTable
 70
     1
  0
VPORT
  5
A8
330
8
100
AcDbSymbolTableRecord
100
AcDbViewportTableRecord
  2
*Active
 70
     0
 10
0.0
 20
0.0
 11
1.0
 21
1.0
 12
-0.0001240803248947
 22
-57.56293106079102
 13
0.0
 23
0.0
 14
0.5
 24
0.5
 15
0.5
 25
0.5
 16
-1.0
 26
-1.0
 36
1.0
 17
0.0
 27
0.0
 37
0.0
 40
1204.99914416893
 41
1.529379719564691
 42
50.0
 43
0.0
 44
0.0
 50
0.0
 51
0.0
 71
     0
 72
   100
 73
     1
 74
     3
 75
     0
 76
     0
 77
     0
 78
     0
281
     0
 65
     1
110
0.0
120
0.0
130
0.0
111
1.0
121
0.0
131
0.0
112
0.0
122
1.0
132
0.0
 79
     0
146
0.0
348
C9
 60
     3
 61
     5
292
     1
282
     1
141
0.0
142
0.0
 63
   250
421
  3355443
  0
ENDTAB
  0
TABLE
  2
LTYPE
  5
5
330
0
100
AcDbSymbolTable
 70
     1
  0
LTYPE
  5
14
330
5
100
AcDbSymbolTableRecord
100
AcDbLinetypeTableRecord
  2
ByBlock
 70
     0
  3

 72
    65
 73
     0
 40
0.0
  0
LTYPE
  5
15
330
5
100
AcDbSymbolTableRecord
100
AcDbLinetypeTableRecord
  2
ByLayer
 70
     0
  3

 72
    65
 73
     0
 40
0.0
  0
LTYPE
  5
16
330
5
100
AcDbSymbolTableRecord
100
AcDbLinetypeTableRecord
  2
Continuous
 70
     0
  3
Solid line
 72
    65
 73
     0
 40
0.0
  0
ENDTAB
  0
TABLE
  2
LAYER
  5
2
330
0
100
AcDbSymbolTable
 70
     3
  0
LAYER
  5
10
330
2
100
AcDbSymbolTableRecord
100
AcDbLayerTableRecord
  2
0
 70
     0
 62
     7
  6
Continuous
370
    -3
390
F
347
BB
  0
LAYER
  5
2B
330
2
100
AcDbSymbolTableRecord
100
AcDbLayerTableRecord
  2
ASHADE
 70
     4
 62
     7
  6
Continuous
370
    -3
390
2D
347
BB
  0
LAYER
  5
F8
330
2
100
AcDbSymbolTableRecord
100
AcDbLayerTableRecord
  2
OracDecor_cornice_mouldings
 70
     0
 62
   134
420
  1873329
  6
Continuous
370
    -3
390
F
347
BB
  0
ENDTAB
  0
TABLE
  2
STYLE
  5
3
330
0
100
AcDbSymbolTable
 70
     2
  0
STYLE
  5
11
330
3
100
AcDbSymbolTableRecord
100
AcDbTextStyleTableRecord
  2
Standard
 70
     0
 40
0.0
 41
1.0
 50
0.0
 71
     0
 42
0.2
  3
txt
  4

  0
STYLE
  5
2C
330
3
100
AcDbSymbolTableRecord
100
AcDbTextStyleTableRecord
  2
ASHADE
 70
     0
 40
0.2
 41
1.0
 50
0.0
 71
     0
 42
0.2
  3
simplex
  4

  0
ENDTAB
  0
TABLE
  2
VIEW
  5
6
330
0
100
AcDbSymbolTable
 70
     0
  0
ENDTAB
  0
TABLE
  2
UCS
  5
7
330
0
100
AcDbSymbolTable
 70
     0
  0
ENDTAB
  0
TABLE
  2
APPID
  5
9
330
0
100
AcDbSymbolTable
 70
     6
  0
APPID
  5
12
330
9
100
AcDbSymbolTableRecord
100
AcDbRegAppTableRecord
  2
ACAD
 70
     0
  0
APPID
  5
8F
330
9
100
AcDbSymbolTableRecord
100
AcDbRegAppTableRecord
  2
AVE_RENDER
 70
     0
  0
APPID
  5
90
330
9
100
AcDbSymbolTableRecord
100
AcDbRegAppTableRecord
  2
AVE_ENTITY_MATERIAL
 70
     0
  0
APPID
  5
9C
330
9
100
AcDbSymbolTableRecord
100
AcDbRegAppTableRecord
  2
AVE_FINISH
 70
     0
  0
APPID
  5
9D
330
9
100
AcDbSymbolTableRecord
100
AcDbRegAppTableRecord
  2
AVE_MATERIAL
 70
     0
  0
APPID
  5
9E
330
9
100
AcDbSymbolTableRecord
100
AcDbRegAppTableRecord
  2
AVE_GLOBAL
 70
     0
  0
ENDTAB
  0
TABLE
  2
DIMSTYLE
  5
A
330
0
100
AcDbSymbolTable
 70
     1
100
AcDbDimStyleTable
 71
     0
  0
DIMSTYLE
105
27
330
A
100
AcDbSymbolTableRecord
100
AcDbDimStyleTableRecord
  2
Standard
 70
     0
340
11
  0
ENDTAB
  0
TABLE
  2
BLOCK_RECORD
  5
1
330
0
100
AcDbSymbolTable
 70
     6
  0
BLOCK_RECORD
  5
1F
330
1
100
AcDbSymbolTableRecord
100
AcDbBlockTableRecord
  2
*Model_Space
340
22
 70
     0
280
     1
281
     0
  0
BLOCK_RECORD
  5
1B
330
1
100
AcDbSymbolTableRecord
100
AcDbBlockTableRecord
  2
*Paper_Space
340
1E
 70
     0
280
     1
281
     0
  0
BLOCK_RECORD
  5
23
330
1
100
AcDbSymbolTableRecord
100
AcDbBlockTableRecord
  2
*Paper_Space0
340
26
 70
     0
280
     1
281
     0
  0
BLOCK_RECORD
  5
2E
330
1
100
AcDbSymbolTableRecord
100
AcDbBlockTableRecord
  2
direct
340
0
 70
     0
280
     1
281
     0
  0
BLOCK_RECORD
  5
42
330
1
100
AcDbSymbolTableRecord
100
AcDbBlockTableRecord
  2
overhead
340
0
 70
     0
280
     1
281
     0
  0
BLOCK_RECORD
  5
5F
330
1
100
AcDbSymbolTableRecord
100
AcDbBlockTableRecord
  2
sh_spot
340
0
 70
     0
280
     1
281
     0
  0
BLOCK_RECORD
  5
91
330
1
100
AcDbSymbolTableRecord
100
AcDbBlockTableRecord
  2
AVE_RENDER
340
0
102
{BLKREFS
331
94
331
95
331
96
331
97
331
98
331
99
331
9A
331
9B
102
}
 70
     0
280
     1
281
     0
  0
BLOCK_RECORD
  5
9F
330
1
100
AcDbSymbolTableRecord
100
AcDbBlockTableRecord
  2
AVE_GLOBAL
340
0
102
{BLKREFS
331
A2
102
}
 70
     0
280
     1
281
     0
  0
ENDTAB
  0
ENDSEC
  0
SECTION
  2
BLOCKS
  0
BLOCK
  5
20
330
1F
100
AcDbEntity
  8
0
100
AcDbBlockBegin
  2
*Model_Space
 70
     0
 10
0.0
 20
0.0
 30
0.0
  3
*Model_Space
  1

  0
ENDBLK
  5
21
330
1F
100
AcDbEntity
  8
0
100
AcDbBlockEnd
  0
BLOCK
  5
1C
330
1B
100
AcDbEntity
 67
     1
  8
0
100
AcDbBlockBegin
  2
*Paper_Space
 70
     0
 10
0.0
 20
0.0
 30
0.0
  3
*Paper_Space
  1

  0
ENDBLK
  5
1D
330
1B
100
AcDbEntity
 67
     1
  8
0
100
AcDbBlockEnd
  0
BLOCK
  5
24
330
23
100
AcDbEntity
 67
     1
  8
0
100
AcDbBlockBegin
  2
*Paper_Space0
 70
     0
 10
0.0
 20
0.0
 30
0.0
  3
*Paper_Space0
  1

  0
ENDBLK
  5
25
330
23
100
AcDbEntity
 67
     1
  8
0
100
AcDbBlockEnd
  0
BLOCK
  5
40
330
2E
100
AcDbEntity
  8
0
100
AcDbBlockBegin
  2
direct
 70
     2
 10
0.0
 20
0.0
 30
0.0
  3
direct
  1

  0
ATTDEF
  5
2F
330
2E
100
AcDbEntity
  8
ASHADE
  6
Continuous
 62
     1
100
AcDbText
 10
0.0
 20
-0.1
 30
0.0
 40
0.2
  1

  7
ASHADE
 72
     1
 11
0.0
 21
-0.1
 31
0.0
100
AcDbAttributeDefinition
280
     0
  3
Light Name
  2
SNAME
 70
     0
280
     0
  0
ARC
  5
30
330
2E
100
AcDbEntity
  8
ASHADE
  6
Continuous
 62
     7
100
AcDbCircle
 10
0.0
 20
0.0
 30
0.0
 40
0.3
100
AcDbArc
 50
205.6792886194569
 51
334.3207113805431
  0
ARC
  5
31
330
2E
100
AcDbEntity
  8
ASHADE
  6
Continuous
 62
     7
100
AcDbCircle
 10
0.0
 20
0.0
 30
0.0
 40
0.3
100
AcDbArc
 50
25.67928861945685
 51
154.3207113805431
  0
LINE
  5
32
330
2E
100
AcDbEntity
  8
ASHADE
  6
Continuous
 62
     7
100
AcDbLine
 10
-0.21
 20
0.2142428528562855
 30
0.0
 11
-0.21
 21
0.5
 31
0.0
  0
LINE
  5
33
330
2E
100
AcDbEntity
  8
ASHADE
  6
Continuous
 62
     7
100
AcDbLine
 10
-0.11
 20
0.2791057147390572
 30
0.0
 11
-0.11
 21
0.5
 31
0.0
  0
LINE
  5
34
330
2E
100
AcDbEntity
  8
ASHADE
  6
Continuous
 62
     7
100
AcDbLine
 10
0.21
 20
0.2142428528562855
 30
0.0
 11
0.21
 21
0.5
 31
0.0
  0
ATTDEF
  5
35
330
2E
100
AcDbEntity
  8
ASHADE
  6
Continuous
 62
     7
100
AcDbText
 10
0.0
 20
0.25
 30
0.0
 40
0.01
  1

100
AcDbAttributeDefinition
280
     0
  3
Look-at Y
  2
LAY
 70
     1
280
     0
  0
ATTDEF
  5
36
330
2E
100
AcDbEntity
  8
ASHADE
  6
Continuous
 62
     7
100
AcDbText
 10
0.0
 20
0.22
 30
0.0
 40
0.01
  1
1
100
AcDbAttributeDefinition
280
     0
  3
Light Intensity
  2
INTENSITY
 70
     1
280
     0
  0
ATTDEF
  5
37
330
2E
100
AcDbEntity
  8
ASHADE
  6
Continuous
 62
     7
100
AcDbText
 10
0.0
 20
0.16
 30
0.0
 40
0.01
  1
-1
100
AcDbAttributeDefinition
280
     0
  3
*not used*
  2
BEAMD
 70
     1
280
     0
  0
ATTDEF
  5
38
330
2E
100
AcDbEntity
  8
ASHADE
  6
Continuous
 62
     7
100
AcDbText
 10
0.0
 20
0.175
 30
0.0
 40
0.01
  1
-1
100
AcDbAttributeDefinition
280
     0
  3
*not used*
  2
CONED
 70
     1
280
     0
  0
ATTDEF
  5
39
330
2E
100
AcDbEntity
  8
ASHADE
  6
Continuous
 62
     7
100
AcDbText
 10
0.0
 20
0.19
 30
0.0
 40
0.01
  1
0
100
AcDbAttributeDefinition
280
     0
  3
Depth Map Size
  2
CONEA
 70
     1
280
     0
  0
ATTDEF
  5
3A
330
2E
100
AcDbEntity
  8
ASHADE
  6
Continuous
 62
     7
100
AcDbText
 10
0.0
 20
0.2050000000000001
 30
0.0
 40
0.01
  1
1,1,1
100
AcDbAttributeDefinition
280
     0
  3
Light Color (RGB)
  2
COLOR
 70
     1
280
     0
  0
ATTDEF
  5
3B
330
2E
100
AcDbEntity
  8
ASHADE
  6
Continuous
 62
     7
100
AcDbText
 10
0.0
 20
0.235
 30
0.0
 40
0.01
  1

100
AcDbAttributeDefinition
280
     0
  3
Look-at Z
  2
LAZ
 70
     1
280
     0
  0
LINE
  5
3C
330
2E
100
AcDbEntity
  8
ASHADE
  6
Continuous
 62
     7
100
AcDbLine
 10
0.0
 20
0.3
 30
0.0
 11
0.0
 21
0.5
 31
0.0
  0
LINE
  5
3D
330
2E
100
AcDbEntity
  8
ASHADE
  6
Continuous
 62
     7
100
AcDbLine
 10
0.11
 20
0.2791057147390572
 30
0.0
 11
0.11
 21
0.5
 31
0.0
  0
ATTDEF
  5
3E
330
2E
100
AcDbEntity
  8
ASHADE
  6
Continuous
 62
     7
100
AcDbText
 10
0.0
 20
0.265
 30
0.0
 40
0.01
  1

100
AcDbAttributeDefinition
280
     0
  3
Look-at X
  2
LAX
 70
     1
280
     0
  0
ATTDEF
  5
3F
330
2E
100
AcDbEntity
  8
ASHADE
  6
Continuous
 62
     7
100
AcDbText
 10
0.0
 20
0.28
 30
0.0
 40
0.01
  1

100
AcDbAttributeDefinition
280
     0
  3

  2
GNAME
 70
     1
280
     0
  0
ENDBLK
  5
41
330
2E
100
AcDbEntity
  8
0
100
AcDbBlockEnd
  0
BLOCK
  5
5D
330
42
100
AcDbEntity
  8
0
100
AcDbBlockBegin
  2
overhead
 70
     2
 10
0.0
 20
0.0
 30
0.0
  3
overhead
  1

  0
ATTDEF
  5
43
330
42
100
AcDbEntity
  8
ASHADE
  6
Continuous
 62
     1
100
AcDbText
 10
0.0
 20
-0.1
 30
0.0
 40
0.2
  1

  7
ASHADE
 72
     1
 11
0.0
 21
-0.1
 31
0.0
100
AcDbAttributeDefinition
280
     0
  3
Light Name
  2
SNAME
 70
     0
280
     0
  0
ARC
  5
44
330
42
100
AcDbEntity
  8
ASHADE
  6
Continuous
 62
     7
100
AcDbCircle
 10
0.0
 20
0.0
 30
0.0
 40
0.3
100
AcDbArc
 50
205.6792886194569
 51
334.3207113805431
  0
LINE
  5
45
330
42
100
AcDbEntity
  8
ASHADE
  6
Continuous
 62
     7
100
AcDbLine
 10
-0.2041413561583015
 20
-0.2198324514393848
 30
0.0
 11
-0.2721884748777353
 21
-0.2931099352525131
 31
0.0
  0
LINE
  5
46
330
42
100
AcDbEntity
  8
ASHADE
  6
Continuous
 62
     7
100
AcDbLine
 10
-0.1096591641591904
 20
-0.2792398032442862
 30
0.0
 11
-0.1279356915190555
 21
-0.3257797704516673
 31
0.0
  0
LINE
  5
47
330
42
100
AcDbEntity
  8
ASHADE
  6
Continuous
 62
     7
100
AcDbLine
 10
0.0
 20
-0.2999999999999999
 30
0.0
 11
0.0
 21
-0.4
 31
0.0
  0
LINE
  5
48
330
42
100
AcDbEntity
  8
ASHADE
  6
Continuous
 62
     7
100
AcDbLine
 10
0.1096591641591904
 20
-0.2792398032442862
 30
0.0
 11
0.1279356915190555
 21
-0.3257797704516673
 31
0.0
  0
LINE
  5
49
330
42
100
AcDbEntity
  8
ASHADE
  6
Continuous
 62
     7
100
AcDbLine
 10
0.2041413561583015
 20
-0.2198324514393848
 30
0.0
 11
0.2721884748777353
 21
-0.2931099352525131
 31
0.0
  0
ARC
  5
4A
330
42
100
AcDbEntity
  8
ASHADE
  6
Continuous
 62
     7
100
AcDbCircle
 10
0.0
 20
0.0
 30
0.0
 40
0.3
100
AcDbArc
 50
25.67928861945685
 51
154.3207113805431
  0
LINE
  5
4B
330
42
100
AcDbEntity
  8
ASHADE
  6
Continuous
 62
     7
100
AcDbLine
 10
-0.2703701166919155
 20
0.13
 30
0.0
 11
-0.3154318028072347
 21
0.1516666666666666
 31
0.0
  0
LINE
  5
4C
330
42
100
AcDbEntity
  8
ASHADE
  6
Continuous
 62
     7
100
AcDbLine
 10
-0.2703701166919155
 20
-0.13
 30
0.0
 11
-0.3154318028072347
 21
-0.1516666666666666
 31
0.0
  0
LINE
  5
4D
330
42
100
AcDbEntity
  8
ASHADE
  6
Continuous
 62
     7
100
AcDbLine
 10
-0.2041413561583015
 20
0.2198324514393849
 30
0.0
 11
-0.2721884748777353
 21
0.2931099352525131
 31
0.0
  0
LINE
  5
4E
330
42
100
AcDbEntity
  8
ASHADE
  6
Continuous
 62
     7
100
AcDbLine
 10
-0.1096591641591904
 20
0.2792398032442862
 30
0.0
 11
-0.1279356915190555
 21
0.3257797704516674
 31
0.0
  0
LINE
  5
4F
330
42
100
AcDbEntity
  8
ASHADE
  6
Continuous
 62
     7
100
AcDbLine
 10
0.2703701166919155
 20
-0.13
 30
0.0
 11
0.3154318028072347
 21
-0.1516666666666666
 31
0.0
  0
LINE
  5
50
330
42
100
AcDbEntity
  8
ASHADE
  6
Continuous
 62
     7
100
AcDbLine
 10
0.2703701166919155
 20
0.13
 30
0.0
 11
0.3154318028072347
 21
0.1516666666666666
 31
0.0
  0
LINE
  5
51
330
42
100
AcDbEntity
  8
ASHADE
  6
Continuous
 62
     7
100
AcDbLine
 10
0.0
 20
0.3
 30
0.0
 11
0.0
 21
0.4
 31
0.0
  0
ATTDEF
  5
52
330
42
100
AcDbEntity
  8
ASHADE
  6
Continuous
 62
     7
100
AcDbText
 10
0.0
 20
0.22
 30
0.0
 40
0.01
  1
1
100
AcDbAttributeDefinition
280
     0
  3
Light Intensity
  2
INTENSITY
 70
     1
280
     0
  0
ATTDEF
  5
53
330
42
100
AcDbEntity
  8
ASHADE
  6
Continuous
 62
     7
100
AcDbText
 10
0.0
 20
0.16
 30
0.0
 40
0.01
  1
-1
100
AcDbAttributeDefinition
280
     0
  3
*not used*
  2
BEAMD
 70
     1
280
     0
  0
ATTDEF
  5
54
330
42
100
AcDbEntity
  8
ASHADE
  6
Continuous
 62
     7
100
AcDbText
 10
0.0
 20
0.175
 30
0.0
 40
0.01
  1
-1
100
AcDbAttributeDefinition
280
     0
  3
*not used*
  2
CONED
 70
     1
280
     0
  0
ATTDEF
  5
55
330
42
100
AcDbEntity
  8
ASHADE
  6
Continuous
 62
     7
100
AcDbText
 10
0.0
 20
0.19
 30
0.0
 40
0.01
  1
0
100
AcDbAttributeDefinition
280
     0
  3
Depth Map Size
  2
CONEA
 70
     1
280
     0
  0
ATTDEF
  5
56
330
42
100
AcDbEntity
  8
ASHADE
  6
Continuous
 62
     7
100
AcDbText
 10
0.0
 20
0.2050000000000001
 30
0.0
 40
0.01
  1
1,1,1
100
AcDbAttributeDefinition
280
     0
  3
Light Color (RGB)
  2
COLOR
 70
     1
280
     0
  0
ATTDEF
  5
57
330
42
100
AcDbEntity
  8
ASHADE
  6
Continuous
 62
     7
100
AcDbText
 10
0.0
 20
0.235
 30
0.0
 40
0.01
  1

100
AcDbAttributeDefinition
280
     0
  3
Look-at Z
  2
LAZ
 70
     1
280
     0
  0
ATTDEF
  5
58
330
42
100
AcDbEntity
  8
ASHADE
  6
Continuous
 62
     7
100
AcDbText
 10
0.0
 20
0.25
 30
0.0
 40
0.01
  1

100
AcDbAttributeDefinition
280
     0
  3
Look-at Y
  2
LAY
 70
     1
280
     0
  0
ATTDEF
  5
59
330
42
100
AcDbEntity
  8
ASHADE
  6
Continuous
 62
     7
100
AcDbText
 10
0.0
 20
0.265
 30
0.0
 40
0.01
  1

100
AcDbAttributeDefinition
280
     0
  3
Look-at X
  2
LAX
 70
     1
280
     0
  0
ATTDEF
  5
5A
330
42
100
AcDbEntity
  8
ASHADE
  6
Continuous
 62
     7
100
AcDbText
 10
0.0
 20
0.28
 30
0.0
 40
0.01
  1

100
AcDbAttributeDefinition
280
     0
  3

  2
GNAME
 70
     1
280
     0
  0
LINE
  5
5B
330
42
100
AcDbEntity
  8
ASHADE
  6
Continuous
 62
     7
100
AcDbLine
 10
0.1096591641591904
 20
0.2792398032442862
 30
0.0
 11
0.1279356915190555
 21
0.3257797704516674
 31
0.0
  0
LINE
  5
5C
330
42
100
AcDbEntity
  8
ASHADE
  6
Continuous
 62
     7
100
AcDbLine
 10
0.2041413561583015
 20
0.2198324514393849
 30
0.0
 11
0.2721884748777353
 21
0.2931099352525131
 31
0.0
  0
ENDBLK
  5
5E
330
42
100
AcDbEntity
  8
0
100
AcDbBlockEnd
  0
BLOCK
  5
85
330
5F
100
AcDbEntity
  8
0
100
AcDbBlockBegin
  2
sh_spot
 70
     2
 10
0.0
 20
0.0
 30
0.0
  3
sh_spot
  1

  0
LINE
  5
60
330
5F
100
AcDbEntity
  8
ASHADE
  6
Continuous
 62
     7
100
AcDbLine
 10
0.25
 20
0.26
 30
0.0
 11
-0.25
 21
0.26
 31
0.0
  0
LINE
  5
61
330
5F
100
AcDbEntity
  8
ASHADE
  6
Continuous
 62
     7
100
AcDbLine
 10
-0.25
 20
-0.3399999999999999
 30
0.0
 11
0.25
 21
-0.3399999999999999
 31
0.0
  0
ATTDEF
  5
62
330
5F
100
AcDbEntity
  8
ASHADE
  6
Continuous
 62
     1
100
AcDbText
 10
0.0
 20
-0.1
 30
0.0
 40
0.2
  1

  7
ASHADE
 72
     1
 11
0.0
 21
-0.1
 31
0.0
100
AcDbAttributeDefinition
280
     0
  3
Light Name
  2
SNAME
 70
     0
280
     0
  0
LINE
  5
63
330
5F
100
AcDbEntity
  8
ASHADE
  6
Continuous
 62
     7
100
AcDbLine
 10
-0.25
 20
-0.13
 30
0.0
 11
-0.25
 21
-0.3399999999999999
 31
0.0
  0
LINE
  5
64
330
5F
100
AcDbEntity
  8
ASHADE
  6
Continuous
 62
     7
100
AcDbLine
 10
-0.25
 20
-0.18
 30
0.0
 11
-0.29
 21
-0.18
 31
0.0
  0
LINE
  5
65
330
5F
100
AcDbEntity
  8
ASHADE
  6
Continuous
 62
     7
100
AcDbLine
 10
-0.29
 20
-0.22
 30
0.0
 11
-0.25
 21
-0.22
 31
0.0
  0
LINE
  5
66
330
5F
100
AcDbEntity
  8
ASHADE
  6
Continuous
 62
     7
100
AcDbLine
 10
-0.29
 20
-0.18
 30
0.0
 11
-0.29
 21
-0.22
 31
0.0
  0
LINE
  5
67
330
5F
100
AcDbEntity
  8
ASHADE
  6
Continuous
 62
     7
100
AcDbLine
 10
-0.1045454545454545
 20
0.26
 30
0.0
 11
-0.15
 21
0.46
 31
0.0
  0
LINE
  5
68
330
5F
100
AcDbEntity
  8
ASHADE
  6
Continuous
 62
     7
100
AcDbLine
 10
-0.21
 20
0.26
 30
0.0
 11
-0.301304347826087
 21
0.46
 31
0.0
  0
LINE
  5
69
330
5F
100
AcDbEntity
  8
ASHADE
  6
Continuous
 62
     7
100
AcDbLine
 10
-0.25
 20
0.26
 30
0.0
 11
-0.25
 21
0.13
 31
0.0
  0
LINE
  5
6A
330
5F
100
AcDbEntity
  8
ASHADE
  6
Continuous
 62
     7
100
AcDbLine
 10
-0.25
 20
0.22
 30
0.0
 11
-0.29
 21
0.22
 31
0.0
  0
LINE
  5
6B
330
5F
100
AcDbEntity
  8
ASHADE
  6
Continuous
 62
     7
100
AcDbLine
 10
-0.29
 20
0.1799999999999999
 30
0.0
 11
-0.25
 21
0.1799999999999999
 31
0.0
  0
LINE
  5
6C
330
5F
100
AcDbEntity
  8
ASHADE
  6
Continuous
 62
     7
100
AcDbLine
 10
-0.29
 20
0.22
 30
0.0
 11
-0.29
 21
0.1799999999999999
 31
0.0
  0
ATTDEF
  5
6D
330
5F
100
AcDbEntity
  8
ASHADE
  6
Continuous
 62
     7
100
AcDbText
 10
0.0
 20
-0.24
 30
0.0
 40
0.01
  1
0
100
AcDbAttributeDefinition
280
     0
  3
Depth Map Size
  2
ZSIZE
 70
     1
280
     0
  0
ATTDEF
  5
6E
330
5F
100
AcDbEntity
  8
ASHADE
  6
Continuous
 62
     7
100
AcDbText
 10
0.0
 20
-0.3300000000000001
 30
0.0
 40
0.01
  1
0,0,0
100
AcDbAttributeDefinition
280
     0
  3
Look-from XYZ
  2
LFXYZ
 70
     1
280
     0
  0
ATTDEF
  5
6F
330
5F
100
AcDbEntity
  8
ASHADE
  6
Continuous
 62
     7
100
AcDbText
 10
0.0
 20
-0.315
 30
0.0
 40
0.01
  1
0.0
100
AcDbAttributeDefinition
280
     0
  3
Beam Distribution
  2
BEAMDI
 70
     1
280
     0
  0
ATTDEF
  5
70
330
5F
100
AcDbEntity
  8
ASHADE
  6
Continuous
 62
     7
100
AcDbText
 10
0.0
 20
-0.3
 30
0.0
 40
0.01
  1
0.0
100
AcDbAttributeDefinition
280
     0
  3
Cone Delta
  2
CONEDE
 70
     1
280
     0
  0
ATTDEF
  5
71
330
5F
100
AcDbEntity
  8
ASHADE
  6
Continuous
 62
     7
100
AcDbText
 10
0.0
 20
-0.2850000000000001
 30
0.0
 40
0.01
  1
10.0
100
AcDbAttributeDefinition
280
     0
  3
Cone Angle
  2
CONEAN
 70
     1
280
     0
  0
ATTDEF
  5
72
330
5F
100
AcDbEntity
  8
ASHADE
  6
Continuous
 62
     7
100
AcDbText
 10
0.0
 20
-0.27
 30
0.0
 40
0.01
  1
-1
100
AcDbAttributeDefinition
280
     0
  3
*not used*
  2
BIASMAX
 70
     1
280
     0
  0
ATTDEF
  5
73
330
5F
100
AcDbEntity
  8
ASHADE
  6
Continuous
 62
     7
100
AcDbText
 10
0.0
 20
-0.255
 30
0.0
 40
0.01
  1
-1
100
AcDbAttributeDefinition
280
     0
  3
*not used*
  2
BIASMIN
 70
     1
280
     0
  0
ATTDEF
  5
74
330
5F
100
AcDbEntity
  8
ASHADE
  6
Continuous
 62
     7
100
AcDbText
 10
0.0
 20
-0.225
 30
0.0
 40
0.01
  1
1,1,1
100
AcDbAttributeDefinition
280
     0
  3
Light Color (RGB)
  2
COLOR
 70
     1
280
     0
  0
ATTDEF
  5
75
330
5F
100
AcDbEntity
  8
ASHADE
  6
Continuous
 62
     7
100
AcDbText
 10
0.0
 20
-0.21
 30
0.0
 40
0.01
  1
1
100
AcDbAttributeDefinition
280
     0
  3
Light Intensity
  2
INTENSITY
 70
     1
280
     0
  0
ATTDEF
  5
76
330
5F
100
AcDbEntity
  8
ASHADE
  6
Continuous
 62
     7
100
AcDbText
 10
0.0
 20
-0.15
 30
0.0
 40
0.01
  1

100
AcDbAttributeDefinition
280
     0
  3

  2
GNAME
 70
     1
280
     0
  0
ATTDEF
  5
77
330
5F
100
AcDbEntity
  8
ASHADE
  6
Continuous
 62
     7
100
AcDbText
 10
0.0
 20
-0.195
 30
0.0
 40
0.01
  1

100
AcDbAttributeDefinition
280
     0
  3
Look-at Z
  2
LAZ
 70
     1
280
     0
  0
ATTDEF
  5
78
330
5F
100
AcDbEntity
  8
ASHADE
  6
Continuous
 62
     7
100
AcDbText
 10
0.0
 20
-0.18
 30
0.0
 40
0.01
  1

100
AcDbAttributeDefinition
280
     0
  3
Look-at Y
  2
LAY
 70
     1
280
     0
  0
ATTDEF
  5
79
330
5F
100
AcDbEntity
  8
ASHADE
  6
Continuous
 62
     7
100
AcDbText
 10
0.0
 20
-0.165
 30
0.0
 40
0.01
  1

100
AcDbAttributeDefinition
280
     0
  3
Look-at X
  2
LAX
 70
     1
280
     0
  0
LINE
  5
7A
330
5F
100
AcDbEntity
  8
ASHADE
  6
Continuous
 62
     7
100
AcDbLine
 10
0.25
 20
-0.3399999999999999
 30
0.0
 11
0.25
 21
-0.13
 31
0.0
  0
LINE
  5
7B
330
5F
100
AcDbEntity
  8
ASHADE
  6
Continuous
 62
     7
100
AcDbLine
 10
0.25
 20
-0.18
 30
0.0
 11
0.29
 21
-0.18
 31
0.0
  0
LINE
  5
7C
330
5F
100
AcDbEntity
  8
ASHADE
  6
Continuous
 62
     7
100
AcDbLine
 10
0.29
 20
-0.22
 30
0.0
 11
0.25
 21
-0.22
 31
0.0
  0
LINE
  5
7D
330
5F
100
AcDbEntity
  8
ASHADE
  6
Continuous
 62
     7
100
AcDbLine
 10
0.29
 20
-0.18
 30
0.0
 11
0.29
 21
-0.22
 31
0.0
  0
LINE
  5
7E
330
5F
100
AcDbEntity
  8
ASHADE
  6
Continuous
 62
     7
100
AcDbLine
 10
0.21
 20
0.26
 30
0.0
 11
0.301304347826087
 21
0.46
 31
0.0
  0
LINE
  5
7F
330
5F
100
AcDbEntity
  8
ASHADE
  6
Continuous
 62
     7
100
AcDbLine
 10
0.1045454545454545
 20
0.26
 30
0.0
 11
0.15
 21
0.46
 31
0.0
  0
LINE
  5
80
330
5F
100
AcDbEntity
  8
ASHADE
  6
Continuous
 62
     7
100
AcDbLine
 10
0.0
 20
0.26
 30
0.0
 11
0.0
 21
0.46
 31
0.0
  0
LINE
  5
81
330
5F
100
AcDbEntity
  8
ASHADE
  6
Continuous
 62
     7
100
AcDbLine
 10
0.25
 20
0.13
 30
0.0
 11
0.25
 21
0.26
 31
0.0
  0
LINE
  5
82
330
5F
100
AcDbEntity
  8
ASHADE
  6
Continuous
 62
     7
100
AcDbLine
 10
0.25
 20
0.22
 30
0.0
 11
0.29
 21
0.22
 31
0.0
  0
LINE
  5
83
330
5F
100
AcDbEntity
  8
ASHADE
  6
Continuous
 62
     7
100
AcDbLine
 10
0.29
 20
0.1799999999999999
 30
0.0
 11
0.25
 21
0.1799999999999999
 31
0.0
  0
LINE
  5
84
330
5F
100
AcDbEntity
  8
ASHADE
  6
Continuous
 62
     7
100
AcDbLine
 10
0.29
 20
0.22
 30
0.0
 11
0.29
 21
0.1799999999999999
 31
0.0
  0
ENDBLK
  5
86
330
5F
100
AcDbEntity
  8
0
100
AcDbBlockEnd
  0
BLOCK
  5
92
330
91
100
AcDbEntity
  8
ASHADE
100
AcDbBlockBegin
  2
AVE_RENDER
 70
     0
 10
0.0
 20
0.0
 30
0.0
  3
AVE_RENDER
  1
AVE_RENDER
  0
ENDBLK
  5
93
330
91
100
AcDbEntity
  8
0
100
AcDbBlockEnd
  0
BLOCK
  5
A0
330
9F
100
AcDbEntity
  8
ASHADE
100
AcDbBlockBegin
  2
AVE_GLOBAL
 70
     0
 10
0.0
 20
0.0
 30
0.0
  3
AVE_GLOBAL
  1
AVE_GLOBAL
  0
ENDBLK
  5
A1
330
9F
100
AcDbEntity
  8
0
100
AcDbBlockEnd
  0
ENDSEC
  0
SECTION
  2
ENTITIES
  0
INSERT
  5
94
330
1F
100
AcDbEntity
  8
ASHADE
 62
     1
100
AcDbBlockReference
  2
AVE_RENDER
 10
0.0
 20
0.0
 30
0.0
1001
AVE_RENDER
1002
{
1070
     7
1000
Pref
1070
    30
1070
    20
1070
     1
1070
     0
1000

1070
    10
1070
     1
1070
    10
1040
1.0
1070
     1
1040
0.3
1040
0.7
1040
0.0
1040
10.0
1010
-1.0
1020
-1.0
1030
-1.0
1040
0.3
1070
    49
1070
     0
1070
     0
1010
1.0
1020
1.0
1030
1.0
1040
45.0
1070
     1
1070
     0
1000
WCS
1040
0.0
1070
     0
1040
10.0
1002
}
  0
INSERT
  5
95
330
1F
100
AcDbEntity
  8
ASHADE
 62
     3
100
AcDbBlockReference
  2
AVE_RENDER
 10
0.0
 20
0.0
 30
0.0
1001
AVE_RENDER
1002
{
1070
     0
1000
Full Opt
1070
     0
1070
     1
1070
     1
1070
     1
1070
     0
1070
     0
1070
     0
1070
     1
1070
     1
1040
0.0001
1040
0.0001
1002
}
  0
INSERT
  5
96
330
1F
100
AcDbEntity
  8
ASHADE
 62
     4
100
AcDbBlockReference
  2
AVE_RENDER
 10
0.0
 20
0.0
 30
0.0
1001
AVE_RENDER
1002
{
1070
     0
1000
Quick Opt
1070
     0
1070
     1
1070
     1
1070
     1
1070
     0
1070
     0
1070
     1
1002
}
  0
INSERT
  5
97
330
1F
100
AcDbEntity
  8
ASHADE
 62
     5
100
AcDbBlockReference
  2
AVE_RENDER
 10
0.0
 20
0.0
 30
0.0
1001
AVE_RENDER
1002
{
1070
     1
1000
Scanl Opt
1070
     2
1070
     0
1070
     2
1040
2.0
1040
4.0
1070
     0
1070
     1
1070
     0
1040
0.03
1002
}
  0
INSERT
  5
98
330
1F
100
AcDbEntity
  8
ASHADE
 62
     6
100
AcDbBlockReference
  2
AVE_RENDER
 10
0.0
 20
0.0
 30
0.0
1001
AVE_RENDER
1002
{
1070
     2
1000
Raytr Opt
1070
     2
1070
     0
1070
     2
1040
2.0
1040
4.0
1070
     0
1070
     1
1070
     1
1040
0.03
1070
     3
1040
0.03
1002
}
  0
INSERT
  5
99
330
1F
100
AcDbEntity
  8
ASHADE
 62
     7
100
AcDbBlockReference
  2
AVE_RENDER
 10
0.0
 20
0.0
 30
0.0
1001
AVE_RENDER
1002
{
1070
     0
1000
RFile Opt
1070
     1
1070
   640
1070
   480
1070
 10000
1070
     1
1070
     8
1070
     8
1070
     0
1070
     0
1070
     0
1070
     0
1070
     0
1070
     0
1070
     0
1002
}
  0
INSERT
  5
9A
330
1F
100
AcDbEntity
  8
ASHADE
 62
     8
100
AcDbBlockReference
  2
AVE_RENDER
 10
0.0
 20
0.0
 30
0.0
1001
AVE_RENDER
1002
{
1070
     0
1000
Fog Opt
1070
     0
1070
     0
1040
0.0
1040
1.0
1040
0.0
1040
1.0
1010
0.5
1020
0.5
1030
0.5
1002
}
  0
INSERT
  5
9B
330
1F
100
AcDbEntity
  8
ASHADE
 62
     9
100
AcDbBlockReference
  2
AVE_RENDER
 10
0.0
 20
0.0
 30
0.0
1001
AVE_RENDER
1002
{
1070
     0
1000
BG Opt
1070
     0
1070
     1
1010
0.0
1020
0.0
1030
0.0
1010
1.0
1020
0.0
1030
0.0
1010
0.0
1020
1.0
1030
0.0
1010
0.0
1020
0.0
1030
1.0
1040
0.5
1040
0.33
1040
0.0
1000

1070
     1
1000

1070
     1
1070
     1
1040
1.0
1040
1.0
1040
0.0
1040
0.0
1070
     0
1002
}
  0
INSERT
  5
A2
330
1F
100
AcDbEntity
  8
ASHADE
 62
     1
100
AcDbBlockReference
  2
AVE_GLOBAL
 10
0.0
 20
0.0
 30
0.0
1001
AVE_MATERIAL
1002
{
1000
*GLOBAL*
1000
2
1000
Global finish.
1002
{
1002
}
1002
{
1070
    63
1002
{
1002
{
1010
-1.0
1020
-1.0
1030
-1.0
1002
}
1040
0.1000000014901161
1000

1040
0.0
1002
{
1002
}
1040
0.0
1002
{
1002
}
1040
0.0
1002
}
1002
{
1002
{
1010
-1.0
1020
-1.0
1030
-1.0
1002
}
1040
0.6999999880790711
1000

1040
0.0
1002
{
1002
}
1040
0.0
1002
{
1002
}
1040
0.0
1002
}
1002
{
1002
{
1010
-1.0
1020
-1.0
1030
-1.0
1002
}
1040
0.2000000029802322
1000

1040
0.0
1002
{
1002
}
1040
0.0
1002
{
1002
}
1040
0.0
1002
}
1002
{
1070
     0
1002
{
1070
     1
1002
{
1040
1.0
1040
1.0
1000

1040
0.0
1002
{
1002
}
1040
0.0
1002
{
1002
}
1040
0.0
1002
}
1002
}
1040
1.0
1040
0.0
1040
0.0
1002
}
1002
{
1040
1.0
1040
1.0
1000

1040
0.0
1002
{
1002
}
1040
0.0
1002
{
1002
}
1040
0.0
1002
}
1002
{
1040
0.5
1040
1.0
1000

1040
0.0
1002
{
1002
}
1040
0.0
1002
{
1002
}
1040
0.0
1002
}
1002
{
1070
     0
1040
0.0
1002
{
1002
}
1040
1.0
1002
{
1002
}
1040
0.0
1002
}
1002
{
1040
0.0
1002
{
1002
{
1010
0.0
1020
0.0
1030
0.0
1002
}
1040
1.0
1000

1040
0.0
1002
{
1002
}
1040
0.0
1002
{
1002
}
1040
0.0
1002
}
1002
}
1002
{
1002
{
1070
     1
1002
{
1040
0.0
1040
1.0
1000

1040
0.0
1002
{
1002
}
1040
0.0
1002
{
1002
}
1040
0.0
1002
}
1002
}
1040
0.0
1002
{
1002
}
1010
1.0
1020
0.0
1030
0.0
1010
0.0
1020
1.0
1030
0.0
1010
0.0
1020
0.0
1030
1.0
1070
     0
1002
}
1002
{
1002
{
1040
1.0
1040
1.0
1002
{
1070
     1
1002
{
1040
1.0
1040
1.0
1000

1040
0.0
1002
{
1002
}
1040
0.0
1002
{
1002
}
1040
0.0
1002
}
1002
}
1002
}
1070
     0
1040
0.0
1002
{
1002
}
1002
}
1002
{
1002
}
1002
}
1002
{
1071
        3
1070
     3
1070
     0
1002
{
1070
     2
1070
     0
1070
     0
1040
0.0
1002
}
1070
     0
1070
     2
1002
{
1002
}
1002
}
1002
{
1040
8030.0
1040
190.3000030517578
1040
0.3050000071525574
1040
228.0
1040
545.0
1040
14.0
1040
17.39999961853027
1040
0.4560000002384186
1002
}
1002
}
  0
MESH
  5
F9
330
1F
100
AcDbEntity
  8
OracDecor_cornice_mouldings
 62
    61
420
 14083225
160
             51632
310
B0C900009A0500000C00000013000000020000003C0000000600000002000000000000A0FF3F8F400000002045E215C0000000C0FC9F61C0000000A0FF3F8F4000000000004006BF000000C0FC9F61C00C000000130000000A0000003C0000000600000002000000000000A0FF3F8F400000002045E215C0000000C0FC9F61
310
C00000006000408FC00000002045E215C0000000C0FC9F61C00C00000013000000120000003C00000006000000020000000000006000408FC00000002045E215C0000000C0FC9F61C00000006000408FC000000000004006BF000000C0FC9F61C00C000000130000001A0000003C0000000600000002000000000000A0FF3F
310
8F4000000000004006BF000000C0FC9F61C00000006000408FC000000000004006BF000000C0FC9F61C00C00000013000000220000003C0000000600000002000000000000A0FF3F8F4000000000C2D923C000000040A59660C0000000A0FF3F8F400000002045E215C0000000C0FC9F61C00C000000130000002A0000003C
310
0000000600000002000000000000A0FF3F8F4000000000C2D923C000000040A59660C00000006000408FC000000000C2D923C000000040A59660C00C00000013000000320000003C00000006000000020000000000006000408FC000000000C2D923C000000040A59660C00000006000408FC00000002045E215C0000000C0
310
FC9F61C00C000000130000003A0000003C0000000600000002000000000000A0FF3F8F400000004037BA1FC000000040667960C0000000A0FF3F8F4000000000C2D923C000000040A59660C00C00000013000000420000003C0000000600000002000000000000A0FF3F8F400000004037BA1FC000000040667960C0000000
310
6000408FC00000000037BA1FC000000040667960C00C000000130000004A0000003C00000006000000020000000000006000408FC00000000037BA1FC000000040667960C00000006000408FC000000000C2D923C000000040A59660C00C00000013000000520000003C0000000600000002000000000000A0FF3F8F400000
310
004037BA1FC000000040667960C0000000A0FF3F8F40000000407A111DC000000040A86C60C00C000000130000005A0000003C00000006000000020000000000006000408FC0000000007A111DC000000040A86C60C0000000A0FF3F8F40000000407A111DC000000040A86C60C00C00000013000000620000003C00000006
310
000000020000000000006000408FC00000000037BA1FC000000040667960C00000006000408FC0000000007A111DC000000040A86C60C00C000000130000006A0000003C0000000600000002000000000000A0FF3F8F40000000C001191AC000000000075660C0000000A0FF3F8F40000000407A111DC000000040A86C60C0
310
0C00000013000000720000003C00000006000000020000000000006000408FC00000008001191AC000000000075660C0000000A0FF3F8F40000000C001191AC000000000075660C00C000000130000007A0000003C00000006000000020000000000006000408FC0000000007A111DC000000040A86C60C00000006000408F
310
C00000008001191AC000000000075660C00C00000013000000820000003C0000000600000002000000000000A0FF3F8F400000008087FF17C000000080153A60C0000000A0FF3F8F40000000C001191AC000000000075660C00C000000130000008A0000003C00000006000000020000000000006000408FC00000000087FF
310
17C000000080153A60C0000000A0FF3F8F400000008087FF17C000000080153A60C00C00000013000000920000003C00000006000000020000000000006000408FC00000008001191AC000000000075660C00000006000408FC00000000087FF17C000000080153A60C00C000000130000009A0000003C0000000600000002
310
000000000000A0FF3F8F40000000001BEB16C000000080CE1A60C0000000A0FF3F8F400000008087FF17C000000080153A60C00C00000013000000A20000003C00000006000000020000000000006000408FC0000000001BEB16C000000080CE1A60C0000000A0FF3F8F40000000001BEB16C000000080CE1A60C00C000000
310
13000000AA0000003C00000006000000020000000000006000408FC00000000087FF17C000000080153A60C00000006000408FC0000000001BEB16C000000080CE1A60C00C00000013000000B20000003C0000000600000002000000000000A0FF3F8F40000000004EEF16C0000000A0D0F45FC0000000A0FF3F8F40000000
310
001BEB16C000000080CE1A60C00C00000013000000BA0000003C00000006000000020000000000006000408FC0000000004EEF16C0000000A0D0F45FC0000000A0FF3F8F40000000004EEF16C0000000A0D0F45FC00C00000013000000C20000003C00000006000000020000000000006000408FC0000000001BEB16C00000
310
0080CE1A60C00000006000408FC0000000004EEF16C0000000A0D0F45FC00C00000013000000CA0000003C0000000600000002000000000000A0FF3F8F4000000080D30B18C00000002065B65FC0000000A0FF3F8F40000000004EEF16C0000000A0D0F45FC00C00000013000000D20000003C000000060000000200000000
310
00006000408FC000000000D30B18C00000002065B65FC0000000A0FF3F8F4000000080D30B18C00000002065B65FC00C00000013000000DA0000003C00000006000000020000000000006000408FC0000000004EEF16C0000000A0D0F45FC00000006000408FC000000000D30B18C00000002065B65FC00C00000013000000
310
E20000003C0000000600000002000000000000A0FF3F8F4000000080872C1AC0000000A0C47E5FC0000000A0FF3F8F4000000080D30B18C00000002065B65FC00C00000013000000EA0000003C00000006000000020000000000006000408FC000000040872C1AC0000000A0C47E5FC0000000A0FF3F8F4000000080872C1A
310
C0000000A0C47E5FC00C00000013000000F20000003C00000006000000020000000000006000408FC000000000D30B18C00000002065B65FC00000006000408FC000000040872C1AC0000000A0C47E5FC00C00000013000000FA0000003C0000000600000002000000000000A0FF3F8F4000000080D72A1DC000000060E051
310
5FC0000000A0FF3F8F4000000080872C1AC0000000A0C47E5FC00C00000013000000020100003C00000006000000020000000000006000408FC000000040D72A1DC000000080E0515FC0000000A0FF3F8F4000000080D72A1DC000000060E0515FC00C000000130000000A0100003C00000006000000020000000000006000
310
408FC000000040872C1AC0000000A0C47E5FC00000006000408FC000000040D72A1DC000000080E0515FC00C00000013000000120100003C0000000600000002000000000000A0FF3F8F40000000C0DCD61FC0000000E0B8385FC0000000A0FF3F8F4000000080D72A1DC000000060E0515FC00C000000130000001A010000
310
3C0000000600000002000000000000A0FF3F8F40000000C0DCD61FC0000000E0B8385FC00000006000408FC000000080DCD61FC0000000E0B8385FC00C00000013000000220100003C00000006000000020000000000006000408FC000000080DCD61FC0000000E0B8385FC00000006000408FC000000040D72A1DC0000000
310
80E0515FC00C000000130000002A0100003C0000000600000002000000000000A0FF3F8F40000000204D9F30C0000000E0713E5EC0000000A0FF3F8F40000000C0DCD61FC0000000E0B8385FC00C00000013000000320100003C0000000600000002000000000000A0FF3F8F40000000204D9F30C0000000E0713E5EC00000
310
006000408FC0000000204D9F30C0000000E0713E5EC00C000000130000003A0100003C00000006000000020000000000006000408FC0000000204D9F30C0000000E0713E5EC00000006000408FC000000080DCD61FC0000000E0B8385FC00C00000013000000420100003C0000000600000002000000000000A0FF3F8F4000
310
0000A0B6E731C0000000A0050A5EC0000000A0FF3F8F40000000204D9F30C0000000E0713E5EC00C000000130000004A0100003C0000000600000002000000000000A0FF3F8F40000000A0B6E731C0000000A0050A5EC00000006000408FC0000000A0B6E731C0000000A0050A5EC00C00000013000000520100003C000000
310
06000000020000000000006000408FC0000000204D9F30C0000000E0713E5EC00000006000408FC0000000A0B6E731C0000000A0050A5EC00C000000130000005A0100003C0000000600000002000000000000A0FF3F8F400000002096FF32C0000000A0E6C65DC0000000A0FF3F8F40000000A0B6E731C0000000A0050A5E
310
C00C00000013000000620100003C0000000600000002000000000000A0FF3F8F400000002096FF32C0000000A0E6C65DC00000006000408FC00000002096FF32C0000000A0E6C65DC00C000000130000006A0100003C00000006000000020000000000006000408FC0000000A0B6E731C0000000A0050A5EC0000000600040
310
8FC00000002096FF32C0000000A0E6C65DC00C00000013000000720100003C0000000600000002000000000000A0FF3F8F40000000A009DC33C000000060B0775DC0000000A0FF3F8F400000002096FF32C0000000A0E6C65DC00C000000130000007A0100003C0000000600000002000000000000A0FF3F8F40000000A009
310
DC33C000000060B0775DC00000006000408FC00000008009DC33C000000060B0775DC00C00000013000000820100003C00000006000000020000000000006000408FC00000002096FF32C0000000A0E6C65DC00000006000408FC00000008009DC33C000000060B0775DC00C000000130000008A0100003C00000006000000
310
02000000000000A0FF3F8F40000000E07D7434C000000020771F5DC0000000A0FF3F8F40000000A009DC33C000000060B0775DC00C00000013000000920100003C0000000600000002000000000000A0FF3F8F40000000E07D7434C000000020771F5DC00000006000408FC0000000C07D7434C000000020771F5DC00C0000
310
00130000009A0100003C00000006000000020000000000006000408FC00000008009DC33C000000060B0775DC00000006000408FC0000000C07D7434C000000020771F5DC00C00000013000000A20100003C0000000600000002000000000000A0FF3F8F400000006005C334C000000020A9C15CC0000000A0FF3F8F400000
310
00E07D7434C000000020771F5DC00C00000013000000AA0100003C0000000600000002000000000000A0FF3F8F400000006005C334C000000020A9C15CC00000006000408FC00000004005C334C000000020A9C15CC00C00000013000000B20100003C00000006000000020000000000006000408FC0000000C07D7434C000
310
000020771F5DC00000006000408FC00000004005C334C000000020A9C15CC00C00000013000000BA0100003C0000000600000002000000000000A0FF3F8F400000006092C434C000000060EB615CC0000000A0FF3F8F400000006005C334C000000020A9C15CC00C00000013000000C20100003C0000000600000002000000
310
000000A0FF3F8F400000006092C434C000000060EB615CC00000006000408FC00000004092C434C000000060EB615CC00C00000013000000CA0100003C00000006000000020000000000006000408FC00000004005C334C000000020A9C15CC00000006000408FC00000004092C434C000000060EB615CC00C000000130000
310
00D20100003C0000000600000002000000000000A0FF3F8F4000000080157934C000000060F7035CC0000000A0FF3F8F400000006092C434C000000060EB615CC00C00000013000000DA0100003C0000000600000002000000000000A0FF3F8F4000000080157934C000000060F7035CC00000006000408FC0000000601579
310
34C000000060F7035CC00C00000013000000E20100003C00000006000000020000000000006000408FC00000004092C434C000000060EB615CC00000006000408FC000000060157934C000000060F7035CC00C00000013000000EA0100003C0000000600000002000000000000A0FF3F8F40000000207EE333C0000000A073
310
AB5BC0000000A0FF3F8F4000000080157934C000000060F7035CC00C00000013000000F20100003C0000000600000002000000000000A0FF3F8F40000000207EE333C0000000A073AB5BC00000006000408FC0000000007EE333C0000000A073AB5BC00C00000013000000FA0100003C000000060000000200000000000060
310
00408FC000000060157934C000000060F7035CC00000006000408FC0000000007EE333C0000000A073AB5BC00C00000013000000020200003C0000000600000002000000000000A0FF3F8F40000000A09D0933C000000060D15B5BC0000000A0FF3F8F40000000207EE333C0000000A073AB5BC00C000000130000000A0200
310
003C0000000600000002000000000000A0FF3F8F40000000A09D0933C000000060D15B5BC00000006000408FC0000000809D0933C000000060D15B5BC00C00000013000000120200003C00000006000000020000000000006000408FC0000000007EE333C0000000A073AB5BC00000006000408FC0000000809D0933C00000
310
0060D15B5BC00C000000130000001A0200003C0000000600000002000000000000A0FF3F8F4000000040EDF331C0000000A028185BC0000000A0FF3F8F40000000A09D0933C000000060D15B5BC00C00000013000000220200003C0000000600000002000000000000A0FF3F8F4000000040EDF331C0000000A028185BC000
310
00006000408FC000000020EDF331C0000000A028185BC00C000000130000002A0200003C00000006000000020000000000006000408FC0000000809D0933C000000060D15B5BC00000006000408FC000000020EDF331C0000000A028185BC00C00000013000000320200003C0000000600000002000000000000A0FF3F8F40
310
000000C038AD30C0000000C01AE35AC0000000A0FF3F8F4000000040EDF331C0000000A028185BC00C000000130000003A0200003C00000006000000020000000000006000408FC0000000C038AD30C0000000C01AE35AC0000000A0FF3F8F40000000C038AD30C0000000C01AE35AC00C00000013000000420200003C0000
310
0006000000020000000000006000408FC0000000C038AD30C0000000C01AE35AC00000006000408FC000000020EDF331C0000000A028185BC00C000000130000004A0200003C0000000600000002000000000000A0FF3F8F4000000040AC842EC00000002034B85AC0000000A0FF3F8F40000000C038AD30C0000000C01AE3
310
5AC00C00000013000000520200003C0000000600000002000000000000A0FF3F8F4000000040AC842EC00000002034B85AC00000006000408FC000000040AC842EC00000002034B85AC00C000000130000005A0200003C00000006000000020000000000006000408FC0000000C038AD30C0000000C01AE35AC00000006000
310
408FC000000040AC842EC00000002034B85AC00C00000013000000620200003C0000000600000002000000000000A0FF3F8F4000000040AC842EC00000002034B85AC0000000A0FF3F8F40000000007D342EC0000000001BB15AC00C000000130000006A0200003C00000006000000020000000000006000408FC000000000
310
7D342EC0000000001BB15AC0000000A0FF3F8F40000000007D342EC0000000001BB15AC00C00000013000000720200003C00000006000000020000000000006000408FC000000040AC842EC00000002034B85AC00000006000408FC0000000007D342EC0000000001BB15AC00C000000130000007A0200003C000000060000
310
0002000000000000A0FF3F8F400000004060FF2DC000000080E7A65AC0000000A0FF3F8F40000000007D342EC0000000001BB15AC00C00000013000000820200003C00000006000000020000000000006000408FC00000004060FF2DC000000080E7A65AC0000000A0FF3F8F400000004060FF2DC000000080E7A65AC00C00
310
0000130000008A0200003C00000006000000020000000000006000408FC0000000007D342EC0000000001BB15AC00000006000408FC00000004060FF2DC000000080E7A65AC00C00000013000000920200003C0000000600000002000000000000A0FF3F8F4000000040CDEC2DC000000000099B5AC0000000A0FF3F8F4000
310
00004060FF2DC000000080E7A65AC00C000000130000009A0200003C0000000600000002000000000000A0FF3F8F4000000040CDEC2DC000000000099B5AC00000006000408FC000000040CDEC2DC000000000099B5AC00C00000013000000A20200003C00000006000000020000000000006000408FC000000040CDEC2DC0
310
00000000099B5AC00000006000408FC00000004060FF2DC000000080E7A65AC00C00000013000000AA0200003C0000000600000002000000000000A0FF3F8F4000000040CDEC2DC0000000E07EE159C0000000A0FF3F8F4000000040CDEC2DC000000000099B5AC00C00000013000000B20200003C00000006000000020000
310
00000000A0FF3F8F4000000040CDEC2DC0000000E07EE159C00000006000408FC000000040CDEC2DC0000000E07EE159C00C00000013000000BA0200003C00000006000000020000000000006000408FC000000040CDEC2DC0000000E07EE159C00000006000408FC000000040CDEC2DC000000000099B5AC00C0000001300
310
0000C20200003C0000000600000002000000000000A0FF3F8F40000000400F1A28C000000020108C59C0000000A0FF3F8F4000000040CDEC2DC0000000E07EE159C00C00000013000000CA0200003C0000000600000002000000000000A0FF3F8F40000000400F1A28C000000020108C59C00000006000408FC0000000200F
310
1A28C000000020108C59C00C00000013000000D20200003C00000006000000020000000000006000408FC000000040CDEC2DC0000000E07EE159C00000006000408FC0000000200F1A28C000000020108C59C00C00000013000000DA0200003C0000000600000002000000000000A0FF3F8F40000000400F1A28C000000020
310
108C59C0000000A0FF3F8F4000000020E0C927C000000000F78459C00C00000013000000E20200003C00000006000000020000000000006000408FC000000000E0C927C000000000F78459C0000000A0FF3F8F4000000020E0C927C000000000F78459C00C00000013000000EA0200003C0000000600000002000000000000
310
6000408FC0000000200F1A28C000000020108C59C00000006000408FC000000000E0C927C000000000F78459C00C00000013000000F20200003C0000000600000002000000000000A0FF3F8F4000000040C39427C0000000A0C37A59C0000000A0FF3F8F4000000020E0C927C000000000F78459C00C00000013000000FA02
310
00003C00000006000000020000000000006000408FC000000020C39427C0000000A0C37A59C0000000A0FF3F8F4000000040C39427C0000000A0C37A59C00C00000013000000020300003C00000006000000020000000000006000408FC000000000E0C927C000000000F78459C00000006000408FC000000020C39427C000
310
0000A0C37A59C00C000000130000000A0300003C0000000600000002000000000000A0FF3F8F4000000020308227C000000000E56E59C0000000A0FF3F8F4000000040C39427C0000000A0C37A59C00C00000013000000120300003C0000000600000002000000000000A0FF3F8F4000000020308227C000000000E56E59C0
310
0000006000408FC000000000308227C000000000E56E59C00C000000130000001A0300003C00000006000000020000000000006000408FC000000000308227C000000000E56E59C00000006000408FC000000020C39427C0000000A0C37A59C00C00000013000000220300003C0000000600000002000000000000A0FF3F8F
310
40000000E02F8227C000000000A91E4BC0000000A0FF3F8F4000000020308227C000000000E56E59C00C000000130000002A0300003C0000000600000002000000000000A0FF3F8F40000000E02F8227C000000000A91E4BC00000006000408FC0000000C02F8227C000000000A91E4BC00C00000013000000320300003C00
310
000006000000020000000000006000408FC000000000308227C000000000E56E59C00000006000408FC0000000C02F8227C000000000A91E4BC00C000000130000003A0300003C0000000600000002000000000000A0FF3F8F40000000E02F8227C000000000A91E4BC0000000A0FF3F8F4000000060218F27C0000000A0BC
310
0A4BC00C00000013000000420300003C00000006000000020000000000006000408FC000000040218F27C0000000A0BC0A4BC0000000A0FF3F8F4000000060218F27C0000000A0BC0A4BC00C000000130000004A0300003C00000006000000020000000000006000408FC0000000C02F8227C000000000A91E4BC000000060
310
00408FC000000040218F27C0000000A0BC0A4BC00C00000013000000520300003C0000000600000002000000000000A0FF3F8F40000000A0AAB427C000000080C5F84AC0000000A0FF3F8F4000000060218F27C0000000A0BC0A4BC00C000000130000005A0300003C00000006000000020000000000006000408FC0000000
310
80AAB427C000000080C5F84AC0000000A0FF3F8F40000000A0AAB427C000000080C5F84AC00C00000013000000620300003C00000006000000020000000000006000408FC000000040218F27C0000000A0BC0A4BC00000006000408FC000000080AAB427C000000080C5F84AC00C000000130000006A0300003C0000000600
310
000002000000000000A0FF3F8F40000000A01CEF27C00000000084EA4AC0000000A0FF3F8F40000000A0AAB427C000000080C5F84AC00C00000013000000720300003C00000006000000020000000000006000408FC0000000801CEF27C00000000084EA4AC0000000A0FF3F8F40000000A01CEF27C00000000084EA4AC00C
310
000000130000007A0300003C00000006000000020000000000006000408FC000000080AAB427C000000080C5F84AC00000006000408FC0000000801CEF27C00000000084EA4AC00C00000013000000820300003C0000000600000002000000000000A0FF3F8F4000000060C33828C0000000205CE14AC0000000A0FF3F8F40
310
000000A01CEF27C00000000084EA4AC00C000000130000008A0300003C00000006000000020000000000006000408FC000000040C33828C0000000205CE14AC0000000A0FF3F8F4000000060C33828C0000000205CE14AC00C00000013000000920300003C00000006000000020000000000006000408FC0000000801CEF27
310
C00000000084EA4AC00000006000408FC000000040C33828C0000000205CE14AC00C000000130000009A0300003C0000000600000002000000000000A0FF3F8F40000000A0718A28C00000000034DE4AC0000000A0FF3F8F4000000060C33828C0000000205CE14AC00C00000013000000A20300003C000000060000000200
310
0000000000A0FF3F8F40000000A0718A28C00000000034DE4AC00000006000408FC000000080718A28C00000000034DE4AC00C00000013000000AA0300003C00000006000000020000000000006000408FC000000080718A28C00000000034DE4AC00000006000408FC000000040C33828C0000000205CE14AC00C00000013
310
000000B20300003C0000000600000002000000000000A0FF3F8F40000000C03BC42FC00000000034DE4AC0000000A0FF3F8F40000000A0718A28C00000000034DE4AC00C00000013000000BA0300003C0000000600000002000000000000A0FF3F8F40000000C03BC42FC00000000034DE4AC00000006000408FC0000000C0
310
3BC42FC00000000034DE4AC00C00000013000000C20300003C00000006000000020000000000006000408FC0000000C03BC42FC00000000034DE4AC00000006000408FC000000080718A28C00000000034DE4AC00C00000013000000CA0300003C0000000600000002000000000000A0FF3F8F40000000C03BC42FC0000000
310
20A25948C0000000A0FF3F8F40000000C03BC42FC00000000034DE4AC00C00000013000000D20300003C0000000600000002000000000000A0FF3F8F40000000C03BC42FC000000020A25948C00000006000408FC0000000C03BC42FC000000020A25948C00C00000013000000DA0300003C00000006000000020000000000
310
006000408FC0000000C03BC42FC00000000034DE4AC00000006000408FC0000000C03BC42FC000000020A25948C00C00000013000000E20300003C0000000600000002000000000000A0FF3F8F40000000C03BC42FC000000020A25948C0000000A0FF3F8F40000000002DD12FC0000000C0B54548C00C00000013000000EA
310
0300003C00000006000000020000000000006000408FC0000000002DD12FC0000000C0B54548C0000000A0FF3F8F40000000002DD12FC0000000C0B54548C00C00000013000000F20300003C00000006000000020000000000006000408FC0000000C03BC42FC000000020A25948C00000006000408FC0000000002DD12FC0
310
000000C0B54548C00C00000013000000FA0300003C0000000600000002000000000000A0FF3F8F4000000040B6F62FC0000000C0BE3348C0000000A0FF3F8F40000000002DD12FC0000000C0B54548C00C00000013000000020400003C00000006000000020000000000006000408FC000000040B6F62FC0000000C0BE3348
310
C0000000A0FF3F8F4000000040B6F62FC0000000C0BE3348C00C000000130000000A0400003C00000006000000020000000000006000408FC0000000002DD12FC0000000C0B54548C00000006000408FC000000040B6F62FC0000000C0BE3348C00C00000013000000120400003C0000000600000002000000000000A0FF3F
310
8F4000000020941830C0000000407D2548C0000000A0FF3F8F4000000040B6F62FC0000000C0BE3348C00C000000130000001A0400003C00000006000000020000000000006000408FC000000020941830C0000000407D2548C0000000A0FF3F8F4000000020941830C0000000407D2548C00C00000013000000220400003C
310
00000006000000020000000000006000408FC000000040B6F62FC0000000C0BE3348C00000006000408FC000000020941830C0000000407D2548C00C000000130000002A0400003C0000000600000002000000000000A0FF3F8F4000000080673D30C000000060551C48C0000000A0FF3F8F4000000020941830C000000040
310
7D2548C00C00000013000000320400003C00000006000000020000000000006000408FC000000080673D30C000000060551C48C0000000A0FF3F8F4000000080673D30C000000060551C48C00C000000130000003A0400003C00000006000000020000000000006000408FC000000020941830C0000000407D2548C0000000
310
6000408FC000000080673D30C000000060551C48C00C00000013000000420400003C0000000600000002000000000000A0FF3F8F40000000A03E6630C0000000202D1948C0000000A0FF3F8F4000000080673D30C000000060551C48C00C000000130000004A0400003C0000000600000002000000000000A0FF3F8F400000
310
00A03E6630C0000000202D1948C00000006000408FC0000000A03E6630C0000000202D1948C00C00000013000000520400003C00000006000000020000000000006000408FC0000000A03E6630C0000000202D1948C00000006000408FC000000080673D30C000000060551C48C00C000000130000005A0400003C00000006
310
00000002000000000000A0FF3F8F40000000204B6734C0000000202D1948C0000000A0FF3F8F40000000A03E6630C0000000202D1948C00C00000013000000620400003C0000000600000002000000000000A0FF3F8F40000000204B6734C0000000202D1948C00000006000408FC0000000204B6734C0000000202D1948C0
310
0C000000130000006A0400003C00000006000000020000000000006000408FC0000000204B6734C0000000202D1948C00000006000408FC0000000A03E6630C0000000202D1948C00C00000013000000720400003C0000000600000002000000000000A0FF3F8F40000000204B6734C000000000E37C45C0000000A0FF3F8F
310
40000000204B6734C0000000202D1948C00C000000130000007A0400003C0000000600000002000000000000A0FF3F8F40000000204B6734C000000000E37C45C00000006000408FC0000000204B6734C000000000E37C45C00C00000013000000820400003C00000006000000020000000000006000408FC0000000204B67
310
34C000000000E37C45C00000006000408FC0000000204B6734C0000000202D1948C00C000000130000008A0400003C0000000600000002000000000000A0FF3F8F40000000204B6734C000000000E37C45C0000000A0FF3F8F4000000080107134C0000000A0F9CC44C00C00000013000000920400003C0000000600000002
310
0000000000006000408FC000000080107134C0000000A0F9CC44C0000000A0FF3F8F4000000080107134C0000000A0F9CC44C00C000000130000009A0400003C00000006000000020000000000006000408FC0000000204B6734C000000000E37C45C00000006000408FC000000080107134C0000000A0F9CC44C00C000000
310
13000000A20400003C0000000600000002000000000000A0FF3F8F40000000E0558E34C000000000A41D44C0000000A0FF3F8F4000000080107134C0000000A0F9CC44C00C00000013000000AA0400003C00000006000000020000000000006000408FC0000000E0558E34C000000000A41D44C0000000A0FF3F8F40000000
310
E0558E34C000000000A41D44C00C00000013000000B20400003C00000006000000020000000000006000408FC000000080107134C0000000A0F9CC44C00000006000408FC0000000E0558E34C000000000A41D44C00C00000013000000BA0400003C0000000600000002000000000000A0FF3F8F40000000E004BF34C00000
310
00A0536F43C0000000A0FF3F8F40000000E0558E34C000000000A41D44C00C00000013000000C20400003C00000006000000020000000000006000408FC0000000E004BF34C0000000A0536F43C0000000A0FF3F8F40000000E004BF34C0000000A0536F43C00C00000013000000CA0400003C000000060000000200000000
310
00006000408FC0000000E0558E34C000000000A41D44C00000006000408FC0000000E004BF34C0000000A0536F43C00C00000013000000D20400003C0000000600000002000000000000A0FF3F8F4000000040FA0235C0000000008BC242C0000000A0FF3F8F40000000E004BF34C0000000A0536F43C00C00000013000000
310
DA0400003C00000006000000020000000000006000408FC000000040FA0235C0000000008BC242C0000000A0FF3F8F4000000040FA0235C0000000008BC242C00C00000013000000E20400003C00000006000000020000000000006000408FC0000000E004BF34C0000000A0536F43C00000006000408FC000000040FA0235
310
C0000000008BC242C00C00000013000000EA0400003C0000000600000002000000000000A0FF3F8F40000000E0065A35C0000000E0C71742C0000000A0FF3F8F4000000040FA0235C0000000008BC242C00C00000013000000F20400003C00000006000000020000000000006000408FC0000000E0065A35C0000000E0C717
310
42C0000000A0FF3F8F40000000E0065A35C0000000E0C71742C00C00000013000000FA0400003C00000006000000020000000000006000408FC000000040FA0235C0000000008BC242C00000006000408FC0000000E0065A35C0000000E0C71742C00C00000013000000020500003C0000000600000002000000000000A0FF
310
3F8F40000000A0E5C335C000000020946F41C0000000A0FF3F8F40000000E0065A35C0000000E0C71742C00C000000130000000A0500003C00000006000000020000000000006000408FC0000000A0E5C335C000000020946F41C0000000A0FF3F8F40000000A0E5C335C000000020946F41C00C0000001300000012050000
310
3C00000006000000020000000000006000408FC0000000E0065A35C0000000E0C71742C00000006000408FC0000000A0E5C335C000000020946F41C00C000000130000001A0500003C0000000600000002000000000000A0FF3F8F4000000040434036C0000000E070CA40C0000000A0FF3F8F40000000A0E5C335C0000000
310
20946F41C00C00000013000000220500003C00000006000000020000000000006000408FC000000040434036C0000000E070CA40C0000000A0FF3F8F4000000040434036C0000000E070CA40C00C000000130000002A0500003C00000006000000020000000000006000408FC0000000A0E5C335C000000020946F41C00000
310
006000408FC000000040434036C0000000E070CA40C00C00000013000000320500003C0000000600000002000000000000A0FF3F8F4000000000C4CE36C000000060D52840C0000000A0FF3F8F4000000040434036C0000000E070CA40C00C000000130000003A0500003C00000006000000020000000000006000408FC000
310
0000E0C3CE36C000000060D52840C0000000A0FF3F8F4000000000C4CE36C000000060D52840C00C00000013000000420500003C00000006000000020000000000006000408FC000000040434036C0000000E070CA40C00000006000408FC0000000E0C3CE36C000000060D52840C00C000000130000004A0500003C000000
310
0600000002000000000000A0FF3F8F4000000000016F37C0000000806D163FC0000000A0FF3F8F4000000000C4CE36C000000060D52840C00C00000013000000520500003C00000006000000020000000000006000408FC0000000E0006F37C0000000806D163FC0000000A0FF3F8F4000000000016F37C0000000806D163F
310
C00C000000130000005A0500003C00000006000000020000000000006000408FC0000000E0C3CE36C000000060D52840C00000006000408FC0000000E0006F37C0000000806D163FC00C00000013000000620500003C0000000600000002000000000000A0FF3F8F4000000080872038C00000002011E43DC0000000A0FF3F
310
8F4000000000016F37C0000000806D163FC00C000000130000006A0500003C00000006000000020000000000006000408FC000000060872038C00000004011E43DC0000000A0FF3F8F4000000080872038C00000002011E43DC00C00000013000000720500003C00000006000000020000000000006000408FC0000000E000
310
6F37C0000000806D163FC00000006000408FC000000060872038C00000004011E43DC00C000000130000007A0500003C0000000600000002000000000000A0FF3F8F40000000E0C6E238C00000006091BB3CC0000000A0FF3F8F4000000080872038C00000002011E43DC00C00000013000000820500003C00000006000000
310
020000000000006000408FC0000000C0C6E238C00000008091BB3CC0000000A0FF3F8F40000000E0C6E238C00000006091BB3CC00C000000130000008A0500003C00000006000000020000000000006000408FC000000060872038C00000004011E43DC00000006000408FC0000000C0C6E238C00000008091BB3CC00C0000
310
0013000000920500003C0000000600000002000000000000A0FF3F8F40000000C02AB539C0000000A0CB9D3BC0000000A0FF3F8F40000000E0C6E238C00000006091BB3CC00C000000130000009A0500003C00000006000000020000000000006000408FC0000000A02AB539C0000000C0CB9D3BC0000000A0FF3F8F400000
310
00C02AB539C0000000A0CB9D3BC00C00000013000000A20500003C00000006000000020000000000006000408FC0000000C0C6E238C00000008091BB3CC00000006000408FC0000000A02AB539C0000000C0CB9D3BC00C00000013000000AA0500003C0000000600000002000000000000A0FF3F8F40000000E019973AC000
310
0000608E8B3AC0000000A0FF3F8F40000000C02AB539C0000000A0CB9D3BC00C00000013000000B20500003C00000006000000020000000000006000408FC0000000C019973AC0000000808E8B3AC0000000A0FF3F8F40000000E019973AC0000000608E8B3AC00C00000013000000BA0500003C0000000600000002000000
310
0000006000408FC0000000A02AB539C0000000C0CB9D3BC00000006000408FC0000000C019973AC0000000808E8B3AC00C00000013000000C20500003C0000000600000002000000000000A0FF3F8F4000000040F1873BC000000060A08539C0000000A0FF3F8F40000000E019973AC0000000608E8B3AC00C000000130000
310
00CA0500003C00000006000000020000000000006000408FC000000020F1873BC000000080A08539C0000000A0FF3F8F4000000040F1873BC000000060A08539C00C00000013000000D20500003C00000006000000020000000000006000408FC0000000C019973AC0000000808E8B3AC00000006000408FC000000020F187
310
3BC000000080A08539C00C00000013000000DA0500003C0000000600000002000000000000A0FF3F8F400000008000873CC0000000A0C58C38C0000000A0FF3F8F4000000040F1873BC000000060A08539C00C00000013000000E20500003C00000006000000020000000000006000408FC00000006000873CC0000000C0C5
310
8C38C0000000A0FF3F8F400000008000873CC0000000A0C58C38C00C00000013000000EA0500003C00000006000000020000000000006000408FC000000020F1873BC000000080A08539C00000006000408FC00000006000873CC0000000C0C58C38C00C00000013000000F20500003C0000000600000002000000000000A0
310
FF3F8F400000004076933DC0000000E0C9A137C0000000A0FF3F8F400000008000873CC0000000A0C58C38C00C00000013000000FA0500003C00000006000000020000000000006000408FC00000002076933DC0000000E0C9A137C0000000A0FF3F8F400000004076933DC0000000E0C9A137C00C00000013000000020600
310
003C00000006000000020000000000006000408FC00000006000873CC0000000C0C58C38C00000006000408FC00000002076933DC0000000E0C9A137C00C000000130000000A0600003C0000000600000002000000000000A0FF3F8F400000008089AC3EC0000000E059C536C0000000A0FF3F8F400000004076933DC00000
310
00E0C9A137C00C00000013000000120600003C00000006000000020000000000006000408FC00000008089AC3EC0000000E059C536C0000000A0FF3F8F400000008089AC3EC0000000E059C536C00C000000130000001A0600003C00000006000000020000000000006000408FC00000002076933DC0000000E0C9A137C000
310
00006000408FC00000008089AC3EC0000000E059C536C00C00000013000000220600003C0000000600000002000000000000A0FF3F8F40000000006FD13FC00000002014F835C0000000A0FF3F8F400000008089AC3EC0000000E059C536C00C000000130000002A0600003C00000006000000020000000000006000408FC0
310
000000006FD13FC00000006014F835C0000000A0FF3F8F40000000006FD13FC00000002014F835C00C00000013000000320600003C00000006000000020000000000006000408FC00000008089AC3EC0000000E059C536C00000006000408FC0000000006FD13FC00000006014F835C00C000000130000003A0600003C0000
310
000600000002000000000000A0FF3F8F40000000A0A98040C0000000608E3A35C0000000A0FF3F8F40000000006FD13FC00000002014F835C00C00000013000000420600003C00000006000000020000000000006000408FC0000000A0A98040C0000000608E3A35C0000000A0FF3F8F40000000A0A98040C0000000608E3A
310
35C00C000000130000004A0600003C00000006000000020000000000006000408FC0000000006FD13FC00000006014F835C00000006000408FC0000000A0A98040C0000000608E3A35C00C00000013000000520600003C0000000600000002000000000000A0FF3F8F4000000040A91D41C000000060598D34C0000000A0FF
310
3F8F40000000A0A98040C0000000608E3A35C00C000000130000005A0600003C00000006000000020000000000006000408FC000000040A91D41C000000060598D34C0000000A0FF3F8F4000000040A91D41C000000060598D34C00C00000013000000620600003C00000006000000020000000000006000408FC0000000A0
310
A98040C0000000608E3A35C00000006000408FC000000040A91D41C000000060598D34C00C000000130000006A0600003C0000000600000002000000000000A0FF3F8F40000000E035BF41C00000002002F133C0000000A0FF3F8F4000000040A91D41C000000060598D34C00C00000013000000720600003C000000060000
310
00020000000000006000408FC0000000E035BF41C00000006002F133C0000000A0FF3F8F40000000E035BF41C00000002002F133C00C000000130000007A0600003C00000006000000020000000000006000408FC000000040A91D41C000000060598D34C00000006000408FC0000000E035BF41C00000006002F133C00C00
310
000013000000820600003C0000000600000002000000000000A0FF3F8F40000000E0D86442C000000020F96533C0000000A0FF3F8F40000000E035BF41C00000002002F133C00C000000130000008A0600003C00000006000000020000000000006000408FC0000000E0D86442C000000060F96533C0000000A0FF3F8F4000
310
0000E0D86442C000000020F96533C00C00000013000000920600003C00000006000000020000000000006000408FC0000000E035BF41C00000006002F133C00000006000408FC0000000E0D86442C000000060F96533C00C000000130000009A0600003C0000000600000002000000000000A0FF3F8F40000000201A0E43C0
310
00000020A2EC32C0000000A0FF3F8F40000000E0D86442C000000020F96533C00C00000013000000A20600003C00000006000000020000000000006000408FC0000000201A0E43C000000060A2EC32C0000000A0FF3F8F40000000201A0E43C000000020A2EC32C00C00000013000000AA0600003C00000006000000020000
310
000000006000408FC0000000E0D86442C000000060F96533C00000006000408FC0000000201A0E43C000000060A2EC32C00C00000013000000B20600003C0000000600000002000000000000A0FF3F8F40000000607FBA43C0000000A0568532C0000000A0FF3F8F40000000201A0E43C000000020A2EC32C00C0000001300
310
0000BA0600003C00000006000000020000000000006000408FC0000000607FBA43C0000000E0568532C0000000A0FF3F8F40000000607FBA43C0000000A0568532C00C00000013000000C20600003C00000006000000020000000000006000408FC0000000201A0E43C000000060A2EC32C00000006000408FC0000000607F
310
BA43C0000000E0568532C00C00000013000000CA0600003C0000000600000002000000000000A0FF3F8F4000000060846944C000000020683032C0000000A0FF3F8F40000000607FBA43C0000000A0568532C00C00000013000000D20600003C00000006000000020000000000006000408FC000000060846944C000000060
310
683032C0000000A0FF3F8F4000000060846944C000000020683032C00C00000013000000DA0600003C00000006000000020000000000006000408FC0000000607FBA43C0000000E0568532C00000006000408FC000000060846944C000000060683032C00C00000013000000E20600003C0000000600000002000000000000
310
A0FF3F8F40000000E09B1A45C0000000E019EE31C0000000A0FF3F8F4000000060846944C000000020683032C00C00000013000000EA0600003C00000006000000020000000000006000408FC0000000E09B1A45C0000000E019EE31C0000000A0FF3F8F40000000E09B1A45C0000000E019EE31C00C00000013000000F206
310
00003C00000006000000020000000000006000408FC000000060846944C000000060683032C00000006000408FC0000000E09B1A45C0000000E019EE31C00C00000013000000FA0600003C0000000600000002000000000000A0FF3F8F40000000E044CD45C0000000209ABE31C0000000A0FF3F8F40000000E09B1A45C000
310
0000E019EE31C00C00000013000000020700003C00000006000000020000000000006000408FC0000000E044CD45C0000000609ABE31C0000000A0FF3F8F40000000E044CD45C0000000209ABE31C00C000000130000000A0700003C00000006000000020000000000006000408FC0000000E09B1A45C0000000E019EE31C0
310
0000006000408FC0000000E044CD45C0000000609ABE31C00C00000013000000120700003C0000000600000002000000000000A0FF3F8F40000000A0F98046C0000000200BA231C0000000A0FF3F8F40000000E044CD45C0000000209ABE31C00C000000130000001A0700003C00000006000000020000000000006000408F
310
C0000000A0F98046C0000000600BA231C0000000A0FF3F8F40000000A0F98046C0000000200BA231C00C00000013000000220700003C00000006000000020000000000006000408FC0000000E044CD45C0000000609ABE31C00000006000408FC0000000A0F98046C0000000600BA231C00C000000130000002A0700003C00
310
00000600000002000000000000A0FF3F8F40000000A0453547C0000000A0829831C0000000A0FF3F8F40000000A0F98046C0000000200BA231C00C00000013000000320700003C0000000600000002000000000000A0FF3F8F40000000A0453547C0000000A0829831C00000006000408FC0000000A0453547C0000000E082
310
9831C00C000000130000003A0700003C00000006000000020000000000006000408FC0000000A0453547C0000000E0829831C00000006000408FC0000000A0F98046C0000000600BA231C00C00000013000000420700003C0000000600000002000000000000A0FF3F8F40000000A0453547C00000004039242CC0000000A0
310
FF3F8F40000000A0453547C0000000A0829831C00C000000130000004A0700003C0000000600000002000000000000A0FF3F8F40000000A0453547C00000004039242CC00000006000408FC0000000A0453547C0000000C039242CC00C00000013000000520700003C00000006000000020000000000006000408FC0000000
310
A0453547C0000000E0829831C00000006000408FC0000000A0453547C0000000C039242CC00C000000130000005A0700003C0000000600000002000000000000A0FF3F8F40000000A0453547C00000004039242CC0000000A0FF3F8F4000000000823847C00000004088D42BC00C00000013000000620700003C0000000600
310
0000020000000000006000408FC000000000823847C0000000C088D42BC0000000A0FF3F8F4000000000823847C00000004088D42BC00C000000130000006A0700003C00000006000000020000000000006000408FC0000000A0453547C0000000C039242CC00000006000408FC000000000823847C0000000C088D42BC00C
310
00000013000000720700003C0000000600000002000000000000A0FF3F8F4000000060E44147C0000000C0AB8C2BC0000000A0FF3F8F4000000000823847C00000004088D42BC00C000000130000007A0700003C00000006000000020000000000006000408FC000000060E44147C0000000C0AB8C2BC0000000A0FF3F8F40
310
00000060E44147C0000000C0AB8C2BC00C00000013000000820700003C00000006000000020000000000006000408FC000000000823847C0000000C088D42BC00000006000408FC000000060E44147C0000000C0AB8C2BC00C000000130000008A0700003C0000000600000002000000000000A0FF3F8F40000000E0805047
310
C0000000C0A5532BC0000000A0FF3F8F4000000060E44147C0000000C0AB8C2BC00C00000013000000920700003C00000006000000020000000000006000408FC0000000E0805047C0000000C0A5532BC0000000A0FF3F8F40000000E0805047C0000000C0A5532BC00C000000130000009A0700003C000000060000000200
310
00000000006000408FC000000060E44147C0000000C0AB8C2BC00000006000408FC0000000E0805047C0000000C0A5532BC00C00000013000000A20700003C0000000600000002000000000000A0FF3F8F4000000080EA6247C000000040062F2BC0000000A0FF3F8F40000000E0805047C0000000C0A5532BC00C00000013
310
000000AA0700003C00000006000000020000000000006000408FC000000080EA6247C0000000C0062F2BC0000000A0FF3F8F4000000080EA6247C000000040062F2BC00C00000013000000B20700003C00000006000000020000000000006000408FC0000000E0805047C0000000C0A5532BC00000006000408FC000000080
310
EA6247C0000000C0062F2BC00C00000013000000BA0700003C0000000600000002000000000000A0FF3F8F4000000000567747C0000000C065222BC0000000A0FF3F8F4000000080EA6247C000000040062F2BC00C00000013000000C20700003C0000000600000002000000000000A0FF3F8F4000000000567747C0000000
310
C065222BC00000006000408FC000000020567747C0000000C065222BC00C00000013000000CA0700003C00000006000000020000000000006000408FC000000020567747C0000000C065222BC00000006000408FC000000080EA6247C0000000C0062F2BC00C00000013000000D20700003C00000006000000020000000000
310
00A0FF3F8F4000000080903948C0000000C065222BC0000000A0FF3F8F4000000000567747C0000000C065222BC00C00000013000000DA0700003C0000000600000002000000000000A0FF3F8F4000000080903948C0000000C065222BC00000006000408FC000000080903948C0000000C065222BC00C00000013000000E2
310
0700003C00000006000000020000000000006000408FC000000080903948C0000000C065222BC00000006000408FC000000020567747C0000000C065222BC00C00000013000000EA0700003C0000000600000002000000000000A0FF3F8F40000000C0ACAA48C0000000404BF62AC0000000A0FF3F8F4000000080903948C0
310
000000C065222BC00C00000013000000F20700003C0000000600000002000000000000A0FF3F8F40000000C0ACAA48C0000000404BF62AC00000006000408FC0000000C0ACAA48C0000000C04BF62AC00C00000013000000FA0700003C00000006000000020000000000006000408FC000000080903948C0000000C065222B
310
C00000006000408FC0000000C0ACAA48C0000000C04BF62AC00C00000013000000020800003C0000000600000002000000000000A0FF3F8F4000000080433B49C0000000C07E482AC0000000A0FF3F8F40000000C0ACAA48C0000000404BF62AC00C000000130000000A0800003C0000000600000002000000000000A0FF3F
310
8F4000000080433B49C0000000C07E482AC00000006000408FC000000080433B49C0000000C07E482AC00C00000013000000120800003C00000006000000020000000000006000408FC0000000C0ACAA48C0000000C04BF62AC00000006000408FC000000080433B49C0000000C07E482AC00C000000130000001A0800003C
310
0000000600000002000000000000A0FF3F8F40000000002EBD49C0000000C0151A29C0000000A0FF3F8F4000000080433B49C0000000C07E482AC00C00000013000000220800003C0000000600000002000000000000A0FF3F8F40000000002EBD49C0000000C0151A29C00000006000408FC0000000202EBD49C0000000C0
310
151A29C00C000000130000002A0800003C00000006000000020000000000006000408FC000000080433B49C0000000C07E482AC00000006000408FC0000000202EBD49C0000000C0151A29C00C00000013000000320800003C0000000600000002000000000000A0FF3F8F40000000800E294AC0000000403A7C27C0000000
310
A0FF3F8F40000000002EBD49C0000000C0151A29C00C000000130000003A0800003C0000000600000002000000000000A0FF3F8F40000000800E294AC0000000403A7C27C00000006000408FC0000000800E294AC0000000403A7C27C00C00000013000000420800003C00000006000000020000000000006000408FC00000
310
00202EBD49C0000000C0151A29C00000006000408FC0000000800E294AC0000000403A7C27C00C000000130000004A0800003C0000000600000002000000000000A0FF3F8F4000000060C5784AC000000040648625C0000000A0FF3F8F40000000800E294AC0000000403A7C27C00C00000013000000520800003C00000006
310
00000002000000000000A0FF3F8F4000000060C5784AC000000040648625C00000006000408FC000000060C5784AC0000000C0648625C00C000000130000005A0800003C00000006000000020000000000006000408FC0000000800E294AC0000000403A7C27C00000006000408FC000000060C5784AC0000000C0648625C0
310
0C00000013000000620800003C0000000600000002000000000000A0FF3F8F400000000058AD4AC0000000A0E14823C0000000A0FF3F8F4000000060C5784AC000000040648625C00C000000130000006A0800003C0000000600000002000000000000A0FF3F8F400000000058AD4AC0000000A0E14823C00000006000408F
310
C00000000058AD4AC000000020E24823C00C00000013000000720800003C00000006000000020000000000006000408FC00000000058AD4AC000000020E24823C00000006000408FC000000060C5784AC0000000C0648625C00C000000130000007A0800003C0000000600000002000000000000A0FF3F8F400000000058AD
310
4AC0000000A0E14823C0000000A0FF3F8F40000000806BF24AC00000002000EE20C00C00000013000000820800003C00000006000000020000000000006000408FC0000000606BF24AC0000000A000EE20C0000000A0FF3F8F40000000806BF24AC00000002000EE20C00C000000130000008A0800003C0000000600000002
310
0000000000006000408FC00000000058AD4AC000000020E24823C00000006000408FC0000000606BF24AC0000000A000EE20C00C00000013000000920800003C0000000600000002000000000000A0FF3F8F40000000806D574BC0000000402DB81DC0000000A0FF3F8F40000000806BF24AC00000002000EE20C00C000000
310
130000009A0800003C00000006000000020000000000006000408FC0000000806D574BC0000000402EB81DC0000000A0FF3F8F40000000806D574BC0000000402DB81DC00C00000013000000A20800003C00000006000000020000000000006000408FC0000000606BF24AC0000000A000EE20C00000006000408FC0000000
310
806D574BC0000000402EB81DC00C00000013000000AA0800003C0000000600000002000000000000A0FF3F8F40000000408AD74BC00000004009591AC0000000A0FF3F8F40000000806D574BC0000000402DB81DC00C00000013000000B20800003C00000006000000020000000000006000408FC0000000408AD74BC00000
310
00400A591AC0000000A0FF3F8F40000000408AD74BC00000004009591AC00C00000013000000BA0800003C00000006000000020000000000006000408FC0000000806D574BC0000000402EB81DC00000006000408FC0000000408AD74BC0000000400A591AC00C00000013000000C20800003C000000060000000200000000
310
0000A0FF3F8F40000000809F6C4CC000000060E4E717C0000000A0FF3F8F40000000408AD74BC00000004009591AC00C00000013000000CA0800003C00000006000000020000000000006000408FC0000000809F6C4CC000000060E5E717C0000000A0FF3F8F40000000809F6C4CC000000060E4E717C00C00000013000000
310
D20800003C00000006000000020000000000006000408FC0000000408AD74BC0000000400A591AC00000006000408FC0000000809F6C4CC000000060E5E717C00C00000013000000DA0800003C0000000600000002000000000000A0FF3F8F40000000808A0F4DC000000060A58216C0000000A0FF3F8F40000000809F6C4C
310
C000000060E4E717C00C00000013000000E20800003C00000006000000020000000000006000408FC0000000808A0F4DC000000060A68216C0000000A0FF3F8F40000000808A0F4DC000000060A58216C00C00000013000000EA0800003C00000006000000020000000000006000408FC0000000809F6C4CC000000060E5E7
310
17C00000006000408FC0000000808A0F4DC000000060A68216C00C00000013000000F20800003C0000000600000002000000000000A0FF3F8F4000000040228E4DC000000040342816C0000000A0FF3F8F40000000808A0F4DC000000060A58216C00C00000013000000FA0800003C0000000600000002000000000000A0FF
310
3F8F4000000040228E4DC000000040342816C00000006000408FC000000040228E4DC000000040352816C00C00000013000000020900003C00000006000000020000000000006000408FC000000040228E4DC000000040352816C00000006000408FC0000000808A0F4DC000000060A68216C00C000000130000000A090000
310
3C0000000600000002000000000000A0FF3F8F4000000000F1FF4FC000000040352816C0000000A0FF3F8F4000000040228E4DC000000040342816C00C00000013000000120900003C0000000600000002000000000000A0FF3F8F4000000000F1FF4FC000000040352816C00000006000408FC0000000C0F0FF4FC0000000
310
40362816C00C000000130000001A0900003C00000006000000020000000000006000408FC0000000C0F0FF4FC000000040362816C00000006000408FC000000040228E4DC000000040352816C00C00000013000000220900003C0000000600000002000000000000A0FF3F8F4000000000F1FF4FC0000000000000C83E0000
310
00A0FF3F8F4000000000F1FF4FC000000040352816C00C000000130000002A0900003C0000000600000002000000000000A0FF3F8F4000000000F1FF4FC0000000000000C83E0000006000408FC0000000C0F0FF4FC0000000000000B0BE0C00000013000000320900003C00000006000000020000000000006000408FC000
310
0000C0F0FF4FC000000040362816C00000006000408FC0000000C0F0FF4FC0000000000000B0BE0C000000130000003A0900003C0000000600000002000000000000A0FF3F8F4000000000F1FF4FC0000000000000C83E000000A0FF3F8F4000000000F67A4CC0000000000080DA3E0C00000013000000420900003C000000
310
0600000002000000000000A0FF3F8F4000000000F67A4CC0000000000080DA3E0000006000408FC000000000F67A4CC0000000000000C53E0C000000130000004A0900003C00000006000000020000000000006000408FC0000000C0F0FF4FC0000000000000B0BE0000006000408FC000000000F67A4CC0000000000000C5
310
3E0C00000013000000520900003C0000000600000002000000000000A0FF3F8F400000004087594CC0000000807ABFE0BF000000A0FF3F8F4000000000F67A4CC0000000000080DA3E0C000000130000005A0900003C00000006000000020000000000006000408FC00000004087594CC00000008082BFE0BF000000A0FF3F
310
8F400000004087594CC0000000807ABFE0BF0C00000013000000620900003C00000006000000020000000000006000408FC00000004087594CC00000008082BFE0BF0000006000408FC000000000F67A4CC0000000000000C53E0C000000130000006A0900003C0000000600000002000000000000A0FF3F8F40000000404C
310
3A4CC0000000807AB4E9BF000000A0FF3F8F400000004087594CC0000000807ABFE0BF0C00000013000000720900003C00000006000000020000000000006000408FC0000000404C3A4CC00000008082B4E9BF000000A0FF3F8F40000000404C3A4CC0000000807AB4E9BF0C000000130000007A0900003C00000006000000
310
020000000000006000408FC00000004087594CC00000008082BFE0BF0000006000408FC0000000404C3A4CC00000008082B4E9BF0C00000013000000820900003C0000000600000002000000000000A0FF3F8F40000000C04F144CC000000040ED77F0BF000000A0FF3F8F40000000404C3A4CC0000000807AB4E9BF0C0000
310
00130000008A0900003C00000006000000020000000000006000408FC0000000C04F144CC000000040F177F0BF000000A0FF3F8F40000000C04F144CC000000040ED77F0BF0C00000013000000920900003C00000006000000020000000000006000408FC0000000404C3A4CC00000008082B4E9BF0000006000408FC00000
310
00C04F144CC000000040F177F0BF0C000000130000009A0900003C0000000600000002000000000000A0FF3F8F40000000401BE94BC0000000406913F3BF000000A0FF3F8F40000000C04F144CC000000040ED77F0BF0C00000013000000A20900003C00000006000000020000000000006000408FC0000000401BE94BC000
310
0000406D13F3BF000000A0FF3F8F40000000401BE94BC0000000406913F3BF0C00000013000000AA0900003C00000006000000020000000000006000408FC0000000C04F144CC000000040F177F0BF0000006000408FC0000000401BE94BC0000000406D13F3BF0C00000013000000B20900003C0000000600000002000000
310
000000A0FF3F8F40000000007EBA4BC000000080B590F4BF000000A0FF3F8F40000000401BE94BC0000000406913F3BF0C00000013000000BA0900003C00000006000000020000000000006000408FC0000000007EBA4BC000000080B990F4BF000000A0FF3F8F40000000007EBA4BC000000080B590F4BF0C000000130000
310
00C20900003C00000006000000020000000000006000408FC0000000401BE94BC0000000406D13F3BF0000006000408FC0000000007EBA4BC000000080B990F4BF0C00000013000000CA0900003C0000000600000002000000000000A0FF3F8F40000000C05A8A4BC00000008065E0F4BF000000A0FF3F8F40000000007EBA
310
4BC000000080B590F4BF0C00000013000000D20900003C00000006000000020000000000006000408FC0000000C05A8A4BC00000008069E0F4BF000000A0FF3F8F40000000C05A8A4BC00000008065E0F4BF0C00000013000000DA0900003C00000006000000020000000000006000408FC0000000007EBA4BC000000080B9
310
90F4BF0000006000408FC0000000C05A8A4BC00000008069E0F4BF0C00000013000000E20900003C0000000600000002000000000000A0FF3F8F40000000C0B75A4BC00000008031FFF3BF000000A0FF3F8F40000000C05A8A4BC00000008065E0F4BF0C00000013000000EA0900003C000000060000000200000000000060
310
00408FC0000000C0B75A4BC00000008035FFF3BF000000A0FF3F8F40000000C0B75A4BC00000008031FFF3BF0C00000013000000F20900003C00000006000000020000000000006000408FC0000000C05A8A4BC00000008069E0F4BF0000006000408FC0000000C0B75A4BC00000008035FFF3BF0C00000013000000FA0900
310
003C0000000600000002000000000000A0FF3F8F40000000C0B75A4BC00000008031FFF3BF000000A0FF3F8F40000000C0CBD349C0000000000000DA3E0C00000013000000020A00003C00000006000000020000000000006000408FC0000000C0CBD349C0000000000000C43E000000A0FF3F8F40000000C0CBD349C00000
310
00000000DA3E0C000000130000000A0A00003C00000006000000020000000000006000408FC0000000C0B75A4BC00000008035FFF3BF0000006000408FC0000000C0CBD349C0000000000000C43E0C00000013000000120A00003C0000000600000002000000000000A0FF3F8F40000000C0CBD349C0000000000000DA3E00
310
0000A0FF3F8F40000000A04A0847C0000000000080D83E0C000000130000001A0A00003C0000000600000002000000000000A0FF3F8F40000000A04A0847C0000000000080D83E0000006000408FC0000000A04A0847C0000000000000C13E0C00000013000000220A00003C00000006000000020000000000006000408FC0
310
000000C0CBD349C0000000000000C43E0000006000408FC0000000A04A0847C0000000000000C13E0C000000130000002A0A00003C0000000600000002000000000000A0FF3F8F40000000408DE246C0000000803B6AEDBF000000A0FF3F8F40000000A04A0847C0000000000080D83E0C00000013000000320A00003C0000
310
000600000002000000000000A0FF3F8F40000000408DE246C0000000803B6AEDBF0000006000408FC0000000408DE246C000000080436AEDBF0C000000130000003A0A00003C00000006000000020000000000006000408FC0000000A04A0847C0000000000000C13E0000006000408FC0000000408DE246C000000080436A
310
EDBF0C00000013000000420A00003C0000000600000002000000000000A0FF3F8F4000000080C19446C0000000E0267300C0000000A0FF3F8F40000000408DE246C0000000803B6AEDBF0C000000130000004A0A00003C0000000600000002000000000000A0FF3F8F4000000080C19446C0000000E0267300C00000006000
310
408FC000000080C19446C0000000E0287300C00C00000013000000520A00003C00000006000000020000000000006000408FC0000000408DE246C000000080436AEDBF0000006000408FC000000080C19446C0000000E0287300C00C000000130000005A0A00003C0000000600000002000000000000A0FF3F8F4000000020
310
312946C000000000A35608C0000000A0FF3F8F4000000080C19446C0000000E0267300C00C00000013000000620A00003C0000000600000002000000000000A0FF3F8F4000000020312946C000000000A35608C00000006000408FC000000020312946C000000000A35608C00C000000130000006A0A00003C000000060000
310
00020000000000006000408FC000000080C19446C0000000E0287300C00000006000408FC000000020312946C000000000A35608C00C00000013000000720A00003C0000000600000002000000000000A0FF3F8F4000000020BAA445C000000000A1A90EC0000000A0FF3F8F4000000020312946C000000000A35608C00C00
310
0000130000007A0A00003C0000000600000002000000000000A0FF3F8F4000000020BAA445C000000000A1A90EC00000006000408FC000000020BAA445C000000000A1A90EC00C00000013000000820A00003C00000006000000020000000000006000408FC000000020312946C000000000A35608C00000006000408FC000
310
000020BAA445C000000000A1A90EC00C000000130000008A0A00003C0000000600000002000000000000A0FF3F8F4000000080970D45C000000080CCAF11C0000000A0FF3F8F4000000020BAA445C000000000A1A90EC00C00000013000000920A00003C0000000600000002000000000000A0FF3F8F4000000080970D45C0
310
00000080CCAF11C00000006000408FC000000080970D45C000000080CDAF11C00C000000130000009A0A00003C00000006000000020000000000006000408FC000000080970D45C000000080CDAF11C00000006000408FC000000020BAA445C000000000A1A90EC00C00000013000000A20A00003C00000006000000020000
310
00000000A0FF3F8F4000000080970D45C000000080CCAF11C0000000A0FF3F8F4000000040730F3CC000000060EAC228C00C00000013000000AA0A00003C00000006000000020000000000006000408FC000000040730F3CC000000060EAC228C0000000A0FF3F8F4000000040730F3CC000000060EAC228C00C0000001300
310
0000B20A00003C00000006000000020000000000006000408FC000000080970D45C000000080CDAF11C00000006000408FC000000040730F3CC000000060EAC228C00C00000013000000BA0A00003C0000000600000002000000000000A0FF3F8F4000000040730F3CC000000060EAC228C0000000A0FF3F8F400000000026
310
FA39C0000000E0175A2BC00C00000013000000C20A00003C0000000600000002000000000000A0FF3F8F400000000026FA39C0000000E0175A2BC00000006000408FC00000000026FA39C0000000E0175A2BC00C00000013000000CA0A00003C00000006000000020000000000006000408FC000000040730F3CC000000060
310
EAC228C00000006000408FC00000000026FA39C0000000E0175A2BC00C00000013000000D20A00003C0000000600000002000000000000A0FF3F8F4000000040975737C0000000C023342FC0000000A0FF3F8F400000000026FA39C0000000E0175A2BC00C00000013000000DA0A00003C0000000600000002000000000000
310
A0FF3F8F4000000040975737C0000000C023342FC00000006000408FC000000040975737C00000004024342FC00C00000013000000E20A00003C00000006000000020000000000006000408FC00000000026FA39C0000000E0175A2BC00000006000408FC000000040975737C00000004024342FC00C00000013000000EA0A
310
00003C0000000600000002000000000000A0FF3F8F40000000C085E534C0000000E0B0C031C0000000A0FF3F8F4000000040975737C0000000C023342FC00C00000013000000F20A00003C0000000600000002000000000000A0FF3F8F40000000C085E534C0000000E0B0C031C00000006000408FC0000000C085E534C000
310
000020B1C031C00C00000013000000FA0A00003C00000006000000020000000000006000408FC000000040975737C00000004024342FC00000006000408FC0000000C085E534C000000020B1C031C00C00000013000000020B00003C0000000600000002000000000000A0FF3F8F40000000601DA932C0000000005F1C34C0
310
000000A0FF3F8F40000000C085E534C0000000E0B0C031C00C000000130000000A0B00003C0000000600000002000000000000A0FF3F8F40000000601DA932C0000000005F1C34C00000006000408FC0000000601DA932C0000000005F1C34C00C00000013000000120B00003C00000006000000020000000000006000408F
310
C0000000C085E534C000000020B1C031C00000006000408FC0000000601DA932C0000000005F1C34C00C000000130000001A0B00003C0000000600000002000000000000A0FF3F8F40000000A01BA730C0000000C01AA836C0000000A0FF3F8F40000000601DA932C0000000005F1C34C00C00000013000000220B00003C00
310
00000600000002000000000000A0FF3F8F40000000A01BA730C0000000C01AA836C00000006000408FC0000000801BA730C0000000C01AA836C00C000000130000002A0B00003C00000006000000020000000000006000408FC0000000601DA932C0000000005F1C34C00000006000408FC0000000801BA730C0000000C01A
310
A836C00C00000013000000320B00003C0000000600000002000000000000A0FF3F8F400000004050C72DC000000080A05E39C0000000A0FF3F8F40000000A01BA730C0000000C01AA836C00C000000130000003A0B00003C0000000600000002000000000000A0FF3F8F400000004050C72DC000000080A05E39C000000060
310
00408FC00000000050C72DC000000080A05E39C00C00000013000000420B00003C00000006000000020000000000006000408FC0000000801BA730C0000000C01AA836C00000006000408FC00000000050C72DC000000080A05E39C00C000000130000004A0B00003C0000000600000002000000000000A0FF3F8F40000000
310
C01AC52AC0000000201A3A3CC0000000A0FF3F8F400000004050C72DC000000080A05E39C00C00000013000000520B00003C0000000600000002000000000000A0FF3F8F40000000C01AC52AC0000000201A3A3CC00000006000408FC0000000C01AC52AC0000000201A3A3CC00C000000130000005A0B00003C0000000600
310
0000020000000000006000408FC00000000050C72DC000000080A05E39C00000006000408FC0000000C01AC52AC0000000201A3A3CC00C00000013000000620B00003C0000000600000002000000000000A0FF3F8F40000000E0C14D28C000000000AE343FC0000000A0FF3F8F40000000C01AC52AC0000000201A3A3CC00C
310
000000130000006A0B00003C0000000600000002000000000000A0FF3F8F40000000E0C14D28C000000000AE343FC00000006000408FC0000000E0C14D28C000000000AE343FC00C00000013000000720B00003C00000006000000020000000000006000408FC0000000C01AC52AC0000000201A3A3CC00000006000408FC0
310
000000E0C14D28C000000000AE343FC00C000000130000007A0B00003C0000000600000002000000000000A0FF3F8F40000000009C6626C000000040F32341C0000000A0FF3F8F40000000E0C14D28C000000000AE343FC00C00000013000000820B00003C0000000600000002000000000000A0FF3F8F40000000009C6626
310
C000000040F32341C00000006000408FC0000000E09B6626C000000040F32341C00C000000130000008A0B00003C00000006000000020000000000006000408FC0000000E0C14D28C000000000AE343FC00000006000408FC0000000E09B6626C000000040F32341C00C00000013000000920B00003C000000060000000200
310
0000000000A0FF3F8F40000000009C6626C000000040F32341C0000000A0FF3F8F40000000C02EFE24C0000000209A6742C00C000000130000009A0B00003C00000006000000020000000000006000408FC0000000A02EFE24C0000000209A6742C0000000A0FF3F8F40000000C02EFE24C0000000209A6742C00C00000013
310
000000A20B00003C00000006000000020000000000006000408FC0000000E09B6626C000000040F32341C00000006000408FC0000000A02EFE24C0000000209A6742C00C00000013000000AA0B00003C0000000600000002000000000000A0FF3F8F4000000080BD3423C0000000C0A68843C0000000A0FF3F8F40000000C0
310
2EFE24C0000000209A6742C00C00000013000000B20B00003C00000006000000020000000000006000408FC000000060BD3423C0000000C0A68843C0000000A0FF3F8F4000000080BD3423C0000000C0A68843C00C00000013000000BA0B00003C00000006000000020000000000006000408FC0000000A02EFE24C0000000
310
209A6742C00000006000408FC000000060BD3423C0000000C0A68843C00C00000013000000C20B00003C0000000600000002000000000000A0FF3F8F4000000080BBE620C0000000C0189B44C0000000A0FF3F8F4000000080BD3423C0000000C0A68843C00C00000013000000CA0B00003C00000006000000020000000000
310
006000408FC000000060BBE620C0000000C0189B44C0000000A0FF3F8F4000000080BBE620C0000000C0189B44C00C00000013000000D20B00003C00000006000000020000000000006000408FC000000060BD3423C0000000C0A68843C00000006000408FC000000060BBE620C0000000C0189B44C00C00000013000000DA
310
0B00003C0000000600000002000000000000A0FF3F8F40000000C00C381CC000000040449B45C0000000A0FF3F8F4000000080BBE620C0000000C0189B44C00C00000013000000E20B00003C00000006000000020000000000006000408FC0000000800C381CC000000040449B45C0000000A0FF3F8F40000000C00C381CC0
310
00000040449B45C00C00000013000000EA0B00003C00000006000000020000000000006000408FC000000060BBE620C0000000C0189B44C00000006000408FC0000000800C381CC000000040449B45C00C00000013000000F20B00003C0000000600000002000000000000A0FF3F8F4000000000E5BB15C000000040D48546
310
C0000000A0FF3F8F40000000C00C381CC000000040449B45C00C00000013000000FA0B00003C00000006000000020000000000006000408FC000000000E5BB15C000000040D48546C0000000A0FF3F8F4000000000E5BB15C000000040D48546C00C00000013000000020C00003C0000000600000002000000000000600040
310
8FC0000000800C381CC000000040449B45C00000006000408FC000000000E5BB15C000000040D48546C00C000000130000000A0C00003C0000000600000002000000000000A0FF3F8F400000000029DD0CC0000000C0B95747C0000000A0FF3F8F4000000000E5BB15C000000040D48546C00C00000013000000120C00003C
310
00000006000000020000000000006000408FC00000000029DD0CC0000000C0B95747C0000000A0FF3F8F400000000029DD0CC0000000C0B95747C00C000000130000001A0C00003C00000006000000020000000000006000408FC000000000E5BB15C000000040D48546C00000006000408FC00000000029DD0CC0000000C0
310
B95747C00C00000013000000220C00003C0000000600000002000000000000A0FF3F8F40000000407CA4F9BF00000040270E48C0000000A0FF3F8F400000000029DD0CC0000000C0B95747C00C000000130000002A0C00003C00000006000000020000000000006000408FC0000000407CA4F9BF00000040270E48C0000000
310
A0FF3F8F40000000407CA4F9BF00000040270E48C00C00000013000000320C00003C00000006000000020000000000006000408FC00000000029DD0CC0000000C0B95747C00000006000408FC0000000407CA4F9BF00000040270E48C00C000000130000003A0C00003C0000000600000002000000000000A0FF3F8F400000
310
0000003004BF000000C0858448C0000000A0FF3F8F40000000407CA4F9BF00000040270E48C00C00000013000000420C00003C00000006000000020000000000006000408FC000000000003004BF000000C0858448C0000000A0FF3F8F4000000000003004BF000000C0858448C00C000000130000004A0C00003C00000006
310
000000020000000000006000408FC0000000407CA4F9BF00000040270E48C00000006000408FC000000000003004BF000000C0858448C00C00000013000000520C00003C0000000600000002000000000000A0FF3F8F4000000000003004BF000000C0858448C0000000A0FF3F8F4000000000005004BF000000A08BC64BC0
310
0C000000130000005A0C00003C0000000600000002000000000000A0FF3F8F4000000000005004BF000000A08BC64BC00000006000408FC000000000005004BF000000A08BC64BC00C00000013000000620C00003C00000006000000020000000000006000408FC000000000003004BF000000C0858448C00000006000408F
310
C000000000005004BF000000A08BC64BC00C000000130000006A0C00003C0000000600000002000000000000A0FF3F8F4000000000005004BF000000A08BC64BC0000000A0FF3F8F40000000801138E4BF00000060F8F24BC00C00000013000000720C00003C00000006000000020000000000006000408FC0000000801138
310
E4BF00000060F8F24BC0000000A0FF3F8F40000000801138E4BF00000060F8F24BC00C000000130000007A0C00003C00000006000000020000000000006000408FC000000000005004BF000000A08BC64BC00000006000408FC0000000801138E4BF00000060F8F24BC00C00000013000000820C00003C0000000600000002
310
000000000000A0FF3F8F40000000800101EFBF00000040341E4CC0000000A0FF3F8F40000000801138E4BF00000060F8F24BC00C000000130000008A0C00003C00000006000000020000000000006000408FC0000000800101EFBF00000040341E4CC0000000A0FF3F8F40000000800101EFBF00000040341E4CC00C000000
310
13000000920C00003C00000006000000020000000000006000408FC0000000801138E4BF00000060F8F24BC00000006000408FC0000000800101EFBF00000040341E4CC00C000000130000009A0C00003C0000000600000002000000000000A0FF3F8F40000000C08047F3BF00000080D9524CC0000000A0FF3F8F40000000
310
800101EFBF00000040341E4CC00C00000013000000A20C00003C00000006000000020000000000006000408FC0000000C07E47F3BF00000080D9524CC0000000A0FF3F8F40000000C08047F3BF00000080D9524CC00C00000013000000AA0C00003C00000006000000020000000000006000408FC0000000800101EFBF0000
310
0040341E4CC00000006000408FC0000000C07E47F3BF00000080D9524CC00C00000013000000B20C00003C0000000600000002000000000000A0FF3F8F40000000C0482FF5BF000000A0538D4CC0000000A0FF3F8F40000000C08047F3BF00000080D9524CC00C00000013000000BA0C00003C000000060000000200000000
310
00006000408FC0000000C0482FF5BF000000A0538D4CC0000000A0FF3F8F40000000C0482FF5BF000000A0538D4CC00C00000013000000C20C00003C00000006000000020000000000006000408FC0000000C07E47F3BF00000080D9524CC00000006000408FC0000000C0482FF5BF000000A0538D4CC00C00000013000000
310
CA0C00003C0000000600000002000000000000A0FF3F8F40000000C0B416F5BF00000040A9C94CC0000000A0FF3F8F40000000C0482FF5BF000000A0538D4CC00C00000013000000D20C00003C00000006000000020000000000006000408FC0000000C0B416F5BF00000040A9C94CC0000000A0FF3F8F40000000C0B416F5
310
BF00000040A9C94CC00C00000013000000DA0C00003C00000006000000020000000000006000408FC0000000C0482FF5BF000000A0538D4CC00000006000408FC0000000C0B416F5BF00000040A9C94CC00C00000013000000E20C00003C0000000600000002000000000000A0FF3F8F40000000C06CFFF2BF00000040C003
310
4DC0000000A0FF3F8F40000000C0B416F5BF00000040A9C94CC00C00000013000000EA0C00003C00000006000000020000000000006000408FC0000000C06CFFF2BF00000040C0034DC0000000A0FF3F8F40000000C06CFFF2BF00000040C0034DC00C00000013000000F20C00003C00000006000000020000000000006000
310
408FC0000000C0B416F5BF00000040A9C94CC00000006000408FC0000000C06CFFF2BF00000040C0034DC00C00000013000000FA0C00003C0000000600000002000000000000A0FF3F8F4000000080A91BEEBF000000C0A5374DC0000000A0FF3F8F40000000C06CFFF2BF00000040C0034DC00C00000013000000020D0000
310
3C00000006000000020000000000006000408FC000000080A91BEEBF000000C0A5374DC0000000A0FF3F8F4000000080A91BEEBF000000C0A5374DC00C000000130000000A0D00003C00000006000000020000000000006000408FC0000000C06CFFF2BF00000040C0034DC00000006000408FC000000080A91BEEBF000000
310
C0A5374DC00C00000013000000120D00003C0000000600000002000000000000A0FF3F8F40000000801D0DE3BF00000080D2614DC0000000A0FF3F8F4000000080A91BEEBF000000C0A5374DC00C000000130000001A0D00003C00000006000000020000000000006000408FC0000000801D0DE3BF00000080D2614DC00000
310
00A0FF3F8F40000000801D0DE3BF00000080D2614DC00C00000013000000220D00003C00000006000000020000000000006000408FC000000080A91BEEBF000000C0A5374DC00000006000408FC0000000801D0DE3BF00000080D2614DC00C000000130000002A0D00003C0000000600000002000000000000A0FF3F8F4000
310
000000F601CABF000000003A7E4DC0000000A0FF3F8F40000000801D0DE3BF00000080D2614DC00C00000013000000320D00003C00000006000000020000000000006000408FC000000000F601CABF000000003A7E4DC0000000A0FF3F8F4000000000F601CABF000000003A7E4DC00C000000130000003A0D00003C000000
310
06000000020000000000006000408FC000000000F601CABF000000003A7E4DC00000006000408FC0000000801D0DE3BF00000080D2614DC00C00000013000000420D00003C0000000600000002000000000000A0FF3F8F4000000000006004BF000000E01E884DC0000000A0FF3F8F4000000000F601CABF000000003A7E4D
310
C00C000000130000004A0D00003C00000006000000020000000000006000408FC000000000006004BF000000E01E884DC0000000A0FF3F8F4000000000006004BF000000E01E884DC00C00000013000000520D00003C00000006000000020000000000006000408FC000000000F601CABF000000003A7E4DC0000000600040
310
8FC000000000006004BF000000E01E884DC00C000000130000005A0D00003C0000000600000002000000000000A0FF3F8F4000000000009006BF00000020846450C0000000A0FF3F8F4000000000006004BF000000E01E884DC00C00000013000000620D00003C0000000600000002000000000000A0FF3F8F400000000000
310
9006BF00000020846450C00000006000408FC000000000009005BF00000020846450C00C000000130000006A0D00003C00000006000000020000000000006000408FC000000000009005BF00000020846450C00000006000408FC000000000006004BF000000E01E884DC00C00000013000000720D00003C00000006000000
310
02000000000000A0FF3F8F40000000009ABEEABF000000C0D97C50C0000000A0FF3F8F4000000000009006BF00000020846450C00C000000130000007A0D00003C0000000600000002000000000000A0FF3F8F40000000009ABEEABF000000C0D97C50C00000006000408FC0000000009ABEEABF000000C0D97C50C00C0000
310
0013000000820D00003C00000006000000020000000000006000408FC000000000009005BF00000020846450C00000006000408FC0000000009ABEEABF000000C0D97C50C00C000000130000008A0D00003C0000000600000002000000000000A0FF3F8F40000000009ABEEABF000000C0D97C50C0000000A0FF3F8F400000
310
0000918FF0BF000000207A8450C00C00000013000000920D00003C0000000600000002000000000000A0FF3F8F4000000000918FF0BF000000207A8450C00000006000408FC000000000918FF0BF000000207A8450C00C000000130000009A0D00003C00000006000000020000000000006000408FC0000000009ABEEABF00
310
0000C0D97C50C00000006000408FC000000000918FF0BF000000207A8450C00C00000013000000A20D00003C0000000600000002000000000000A0FF3F8F4000000000253AF3BF000000C0B38E50C0000000A0FF3F8F4000000000918FF0BF000000207A8450C00C00000013000000AA0D00003C0000000600000002000000
310
000000A0FF3F8F4000000000253AF3BF000000C0B38E50C00000006000408FC000000000253AF3BF000000C0B38E50C00C00000013000000B20D00003C00000006000000020000000000006000408FC000000000918FF0BF000000207A8450C00000006000408FC000000000253AF3BF000000C0B38E50C00C000000130000
310
00BA0D00003C0000000600000002000000000000A0FF3F8F4000000000B13CF5BF000000E0039B50C0000000A0FF3F8F4000000000253AF3BF000000C0B38E50C00C00000013000000C20D00003C0000000600000002000000000000A0FF3F8F4000000000B13CF5BF000000E0039B50C00000006000408FC000000000B13C
310
F5BF000000E0039B50C00C00000013000000CA0D00003C00000006000000020000000000006000408FC000000000253AF3BF000000C0B38E50C00000006000408FC000000000B13CF5BF000000E0039B50C00C00000013000000D20D00003C0000000600000002000000000000A0FF3F8F40000000001D7CF6BF00000080C4
310
A850C0000000A0FF3F8F4000000000B13CF5BF000000E0039B50C00C00000013000000DA0D00003C0000000600000002000000000000A0FF3F8F40000000001D7CF6BF00000080C4A850C00000006000408FC0000000001D7CF6BF00000080C4A850C00C00000013000000E20D00003C000000060000000200000000000060
310
00408FC000000000B13CF5BF000000E0039B50C00000006000408FC0000000001D7CF6BF00000080C4A850C00C00000013000000EA0D00003C0000000600000002000000000000A0FF3F8F40000000408BE8F6BF000000A044B750C0000000A0FF3F8F40000000001D7CF6BF00000080C4A850C00C00000013000000F20D00
310
003C0000000600000002000000000000A0FF3F8F40000000408BE8F6BF000000A044B750C00000006000408FC0000000408BE8F6BF000000A044B750C00C00000013000000FA0D00003C00000006000000020000000000006000408FC0000000408BE8F6BF000000A044B750C00000006000408FC0000000001D7CF6BF0000
310
0080C4A850C00C00000013000000020E00003C0000000600000002000000000000A0FF3F8F40000000408BE8F6BF000000A044B750C0000000A0FF3F8F400000000089E8F6BF000000004C0E5BC00C000000130000000A0E00003C00000006000000020000000000006000408FC00000000089E8F6BF000000004C0E5BC000
310
0000A0FF3F8F400000000089E8F6BF000000004C0E5BC00C00000013000000120E00003C00000006000000020000000000006000408FC0000000408BE8F6BF000000A044B750C00000006000408FC00000000089E8F6BF000000004C0E5BC00C000000130000001A0E00003C0000000600000002000000000000A0FF3F8F40
310
0000000089E8F6BF000000004C0E5BC0000000A0FF3F8F40000000000580F5BF000000207D405BC00C00000013000000220E00003C0000000600000002000000000000A0FF3F8F40000000000580F5BF000000207D405BC00000006000408FC0000000000580F5BF000000207D405BC00C000000130000002A0E00003C0000
310
0006000000020000000000006000408FC00000000089E8F6BF000000004C0E5BC00000006000408FC0000000000580F5BF000000207D405BC00C00000013000000320E00003C0000000600000002000000000000A0FF3F8F4000000000F2EFEFBF000000E015805BC0000000A0FF3F8F40000000000580F5BF000000207D40
310
5BC00C000000130000003A0E00003C0000000600000002000000000000A0FF3F8F4000000000F2EFEFBF000000E015805BC00000006000408FC000000000F2EFEFBF000000E015805BC00C00000013000000420E00003C00000006000000020000000000006000408FC0000000000580F5BF000000207D405BC00000006000
310
408FC000000000F2EFEFBF000000E015805BC00C000000130000004A0E00003C0000000600000002000000000000A0FF3F8F40000000801CA1D9BF000000A0EEB75BC0000000A0FF3F8F4000000000F2EFEFBF000000E015805BC00C00000013000000520E00003C00000006000000020000000000006000408FC000000080
310
14A1D9BF000000A0EEB75BC0000000A0FF3F8F40000000801CA1D9BF000000A0EEB75BC00C000000130000005A0E00003C00000006000000020000000000006000408FC00000008014A1D9BF000000A0EEB75BC00000006000408FC000000000F2EFEFBF000000E015805BC00C00000013000000620E00003C000000060000
310
0002000000000000A0FF3F8F4000000000009007BF000000A07ED25BC0000000A0FF3F8F40000000801CA1D9BF000000A0EEB75BC00C000000130000006A0E00003C00000006000000020000000000006000408FC000000000009006BF000000A07ED25BC0000000A0FF3F8F4000000000009007BF000000A07ED25BC00C00
310
000013000000720E00003C00000006000000020000000000006000408FC00000008014A1D9BF000000A0EEB75BC00000006000408FC000000000009006BF000000A07ED25BC00C000000130000007A0E00003C0000000600000002000000000000A0FF3F8F4000000000009007BF000000A07ED25BC0000000A0FF3F8F4000
310
00000000C007BF0000006054855DC00C00000013000000820E00003C0000000600000002000000000000A0FF3F8F400000000000C007BF0000006054855DC00000006000408FC00000000000C006BF0000006054855DC00C000000130000008A0E00003C00000006000000020000000000006000408FC000000000009006BF
310
000000A07ED25BC00000006000408FC00000000000C006BF0000006054855DC00C00000013000000920E00003C0000000600000002000000000000A0FF3F8F4000000000772EE7BF000000006BA05DC0000000A0FF3F8F400000000000C007BF0000006054855DC00C000000130000009A0E00003C00000006000000020000
310
000000006000408FC000000000732EE7BF000000006BA05DC0000000A0FF3F8F4000000000772EE7BF000000006BA05DC00C00000013000000A20E00003C00000006000000020000000000006000408FC000000000732EE7BF000000006BA05DC00000006000408FC00000000000C006BF0000006054855DC00C0000001300
310
0000AA0E00003C0000000600000002000000000000A0FF3F8F4000000080219CF0BF000000205DB75DC0000000A0FF3F8F4000000000772EE7BF000000006BA05DC00C00000013000000B20E00003C00000006000000020000000000006000408FC0000000801F9CF0BF000000205DB75DC0000000A0FF3F8F400000008021
310
9CF0BF000000205DB75DC00C00000013000000BA0E00003C00000006000000020000000000006000408FC000000000732EE7BF000000006BA05DC00000006000408FC0000000801F9CF0BF000000205DB75DC00C00000013000000C20E00003C0000000600000002000000000000A0FF3F8F400000008045F0F3BF000000E0
310
97D25DC0000000A0FF3F8F4000000080219CF0BF000000205DB75DC00C00000013000000CA0E00003C00000006000000020000000000006000408FC00000008043F0F3BF000000E097D25DC0000000A0FF3F8F400000008045F0F3BF000000E097D25DC00C00000013000000D20E00003C0000000600000002000000000000
310
6000408FC0000000801F9CF0BF000000205DB75DC00000006000408FC00000008043F0F3BF000000E097D25DC00C00000013000000DA0E00003C0000000600000002000000000000A0FF3F8F4000000080BD59F5BF0000002041F05DC0000000A0FF3F8F400000008045F0F3BF000000E097D25DC00C00000013000000E20E
310
00003C00000006000000020000000000006000408FC000000080BB59F5BF0000004041F05DC0000000A0FF3F8F4000000080BD59F5BF0000002041F05DC00C00000013000000EA0E00003C00000006000000020000000000006000408FC00000008043F0F3BF000000E097D25DC00000006000408FC000000080BB59F5BF00
310
00004041F05DC00C00000013000000F20E00003C0000000600000002000000000000A0FF3F8F4000000080F1BFF4BF00000020550E5EC0000000A0FF3F8F4000000080BD59F5BF0000002041F05DC00C00000013000000FA0E00003C00000006000000020000000000006000408FC000000080F1BFF4BF00000040550E5EC0
310
000000A0FF3F8F4000000080F1BFF4BF00000020550E5EC00C00000013000000020F00003C00000006000000020000000000006000408FC000000080BB59F5BF0000004041F05DC00000006000408FC000000080F1BFF4BF00000040550E5EC00C000000130000000A0F00003C0000000600000002000000000000A0FF3F8F
310
4000000080592DF2BF00000060C82A5EC0000000A0FF3F8F4000000080F1BFF4BF00000020550E5EC00C00000013000000120F00003C00000006000000020000000000006000408FC000000080592DF2BF00000080C82A5EC0000000A0FF3F8F4000000080592DF2BF00000060C82A5EC00C000000130000001A0F00003C00
310
000006000000020000000000006000408FC000000080F1BFF4BF00000040550E5EC00000006000408FC000000080592DF2BF00000080C82A5EC00C00000013000000220F00003C0000000600000002000000000000A0FF3F8F4000000000779DEBBF000000A0AB435EC0000000A0FF3F8F4000000080592DF2BF00000060C8
310
2A5EC00C000000130000002A0F00003C00000006000000020000000000006000408FC000000000779DEBBF000000A0AB435EC0000000A0FF3F8F4000000000779DEBBF000000A0AB435EC00C00000013000000320F00003C00000006000000020000000000006000408FC000000080592DF2BF00000080C82A5EC000000060
310
00408FC000000000779DEBBF000000A0AB435EC00C000000130000003A0F00003C0000000600000002000000000000A0FF3F8F400000000077C0DFBF000000A04D575EC0000000A0FF3F8F4000000000779DEBBF000000A0AB435EC00C00000013000000420F00003C00000006000000020000000000006000408FC0000000
310
0077C0DFBF000000C04D575EC0000000A0FF3F8F400000000077C0DFBF000000A04D575EC00C000000130000004A0F00003C00000006000000020000000000006000408FC000000000779DEBBF000000A0AB435EC00000006000408FC00000000077C0DFBF000000C04D575EC00C00000013000000520F00003C0000000600
310
000002000000000000A0FF3F8F400000000077C0DFBF000000A04D575EC0000000A0FF3F8F400000000000D005BF000000E01D665EC00C000000130000005A0F00003C00000006000000020000000000006000408FC00000000000D005BF000000001E665EC0000000A0FF3F8F400000000000D005BF000000E01D665EC00C
310
00000013000000620F00003C00000006000000020000000000006000408FC00000000077C0DFBF000000C04D575EC00000006000408FC00000000000D005BF000000001E665EC00C000000130000006A0F00003C0000000600000002000000000000A0FF3F8F4000000000004006BF000000C0FC9F61C0000000A0FF3F8F40
310
0000000000D005BF000000E01D665EC00C00000013000000720F00003C00000006000000020000000000006000408FC000000000004006BF000000C0FC9F61C00000006000408FC00000000000D005BF000000001E665EC00C000000130000007A0F00003C00000006000000020000000000006000408FC000000040228E4D
310
C000000040352816C00000006000408FC000000000F67A4CC0000000000000C53E0C00000013000000820F00003C00000006000000020000000000006000408FC000000040228E4DC000000040352816C00000006000408FC00000004087594CC00000008082BFE0BF0C000000130000008A0F00003C000000060000000200
310
00000000006000408FC0000000808A0F4DC000000060A68216C00000006000408FC0000000404C3A4CC00000008082B4E9BF0C00000013000000920F00003C00000006000000020000000000006000408FC0000000808A0F4DC000000060A68216C00000006000408FC0000000C04F144CC000000040F177F0BF0C00000013
310
0000009A0F00003C00000006000000020000000000006000408FC0000000809F6C4CC000000060E5E717C00000006000408FC0000000401BE94BC0000000406D13F3BF0C00000013000000A20F00003C00000006000000020000000000006000408FC0000000809F6C4CC000000060E5E717C00000006000408FC000000000
310
7EBA4BC000000080B990F4BF0C00000013000000AA0F00003C00000006000000020000000000006000408FC0000000408AD74BC0000000400A591AC00000006000408FC0000000C05A8A4BC00000008069E0F4BF0C00000013000000B20F00003C00000006000000020000000000006000408FC0000000408AD74BC0000000
310
400A591AC00000006000408FC0000000C0B75A4BC00000008035FFF3BF0C00000013000000BA0F00003C00000006000000020000000000006000408FC0000000C0B75A4BC00000008035FFF3BF0000006000408FC0000000408DE246C000000080436AEDBF0C00000013000000C20F00003C00000006000000020000000000
310
006000408FC0000000806D574BC0000000402EB81DC00000006000408FC0000000408DE246C000000080436AEDBF0C00000013000000CA0F00003C00000006000000020000000000006000408FC0000000606BF24AC0000000A000EE20C00000006000408FC0000000408DE246C000000080436AEDBF0C00000013000000D2
310
0F00003C00000006000000020000000000006000408FC00000000058AD4AC000000020E24823C00000006000408FC000000080C19446C0000000E0287300C00C00000013000000DA0F00003C00000006000000020000000000006000408FC000000060C5784AC0000000C0648625C00000006000408FC000000080C19446C0
310
000000E0287300C00C00000013000000E20F00003C00000006000000020000000000006000408FC0000000800E294AC0000000403A7C27C00000006000408FC000000020312946C000000000A35608C00C00000013000000EA0F00003C00000006000000020000000000006000408FC000000080433B49C0000000C07E482A
310
C00000006000408FC000000020BAA445C000000000A1A90EC00C00000013000000F20F00003C00000006000000020000000000006000408FC0000000202EBD49C0000000C0151A29C00000006000408FC000000020312946C000000000A35608C00C00000013000000FA0F00003C0000000600000002000000000000600040
310
8FC000000080903948C0000000C065222BC00000006000408FC000000080970D45C000000080CDAF11C00C00000013000000021000003C00000006000000020000000000006000408FC0000000C0ACAA48C0000000C04BF62AC00000006000408FC000000020BAA445C000000000A1A90EC00C000000130000000A1000003C
310
00000006000000020000000000006000408FC000000080970D45C000000080CDAF11C00000006000408FC000000080EA6247C0000000C0062F2BC00C00000013000000121000003C00000006000000020000000000006000408FC000000020567747C0000000C065222BC00000006000408FC000000080970D45C000000080
310
CDAF11C00C000000130000001A1000003C00000006000000020000000000006000408FC000000040730F3CC000000060EAC228C00000006000408FC000000060E44147C0000000C0AB8C2BC00C00000013000000221000003C00000006000000020000000000006000408FC000000080970D45C000000080CDAF11C0000000
310
6000408FC0000000E0805047C0000000C0A5532BC00C000000130000002A1000003C00000006000000020000000000006000408FC0000000A0453547C0000000C039242CC00000006000408FC000000040730F3CC000000060EAC228C00C00000013000000321000003C00000006000000020000000000006000408FC00000
310
0040730F3CC000000060EAC228C00000006000408FC000000000823847C0000000C088D42BC00C000000130000003A1000003C00000006000000020000000000006000408FC0000000A0F98046C0000000600BA231C00000006000408FC000000040730F3CC000000060EAC228C00C00000013000000421000003C00000006
310
000000020000000000006000408FC0000000E044CD45C0000000609ABE31C00000006000408FC000000040730F3CC000000060EAC228C00C000000130000004A1000003C00000006000000020000000000006000408FC0000000607FBA43C0000000E0568532C00000006000408FC000000040730F3CC000000060EAC228C0
310
0C00000013000000521000003C00000006000000020000000000006000408FC000000060846944C000000060683032C00000006000408FC000000040730F3CC000000060EAC228C00C000000130000005A1000003C00000006000000020000000000006000408FC0000000E09B1A45C0000000E019EE31C00000006000408F
310
C000000040730F3CC000000060EAC228C00C00000013000000621000003C00000006000000020000000000006000408FC0000000E035BF41C00000006002F133C00000006000408FC00000000026FA39C0000000E0175A2BC00C000000130000006A1000003C00000006000000020000000000006000408FC0000000E0D864
310
42C000000060F96533C00000006000408FC000000040730F3CC000000060EAC228C00C00000013000000721000003C00000006000000020000000000006000408FC0000000201A0E43C000000060A2EC32C00000006000408FC000000040730F3CC000000060EAC228C00C000000130000007A1000003C0000000600000002
310
0000000000006000408FC0000000006FD13FC00000006014F835C00000006000408FC00000000026FA39C0000000E0175A2BC00C00000013000000821000003C00000006000000020000000000006000408FC0000000A0A98040C0000000608E3A35C00000006000408FC00000000026FA39C0000000E0175A2BC00C000000
310
130000008A1000003C00000006000000020000000000006000408FC000000040A91D41C000000060598D34C00000006000408FC00000000026FA39C0000000E0175A2BC00C00000013000000921000003C00000006000000020000000000006000408FC00000008089AC3EC0000000E059C536C00000006000408FC0000000
310
40975737C00000004024342FC00C000000130000009A1000003C00000006000000020000000000006000408FC000000020F1873BC000000080A08539C00000006000408FC0000000C085E534C000000020B1C031C00C00000013000000A21000003C00000006000000020000000000006000408FC00000006000873CC00000
310
00C0C58C38C00000006000408FC000000040975737C00000004024342FC00C00000013000000AA1000003C00000006000000020000000000006000408FC00000002076933DC0000000E0C9A137C00000006000408FC000000040975737C00000004024342FC00C00000013000000B21000003C000000060000000200000000
310
00006000408FC0000000A02AB539C0000000C0CB9D3BC00000006000408FC0000000601DA932C0000000005F1C34C00C00000013000000BA1000003C00000006000000020000000000006000408FC0000000C019973AC0000000808E8B3AC00000006000408FC0000000C085E534C000000020B1C031C00C00000013000000
310
C21000003C00000006000000020000000000006000408FC000000060872038C00000004011E43DC00000006000408FC0000000801BA730C0000000C01AA836C00C00000013000000CA1000003C00000006000000020000000000006000408FC0000000C0C6E238C00000008091BB3CC00000006000408FC0000000601DA932
310
C0000000005F1C34C00C00000013000000D21000003C00000006000000020000000000006000408FC0000000E0006F37C0000000806D163FC00000006000408FC00000000050C72DC000000080A05E39C00C00000013000000DA1000003C00000006000000020000000000006000408FC000000040434036C0000000E070CA
310
40C00000006000408FC0000000C01AC52AC0000000201A3A3CC00C00000013000000E21000003C00000006000000020000000000006000408FC0000000E0C3CE36C000000060D52840C00000006000408FC00000000050C72DC000000080A05E39C00C00000013000000EA1000003C00000006000000020000000000006000
310
408FC0000000E0065A35C0000000E0C71742C00000006000408FC0000000E0C14D28C000000000AE343FC00C00000013000000F21000003C00000006000000020000000000006000408FC0000000A0E5C335C000000020946F41C00000006000408FC0000000C01AC52AC0000000201A3A3CC00C00000013000000FA100000
310
3C00000006000000020000000000006000408FC0000000E004BF34C0000000A0536F43C00000006000408FC0000000E09B6626C000000040F32341C00C00000013000000021100003C00000006000000020000000000006000408FC000000040FA0235C0000000008BC242C00000006000408FC0000000E0C14D28C0000000
310
00AE343FC00C000000130000000A1100003C00000006000000020000000000006000408FC000000080107134C0000000A0F9CC44C00000006000408FC0000000A02EFE24C0000000209A6742C00C00000013000000121100003C00000006000000020000000000006000408FC0000000E0558E34C000000000A41D44C00000
310
006000408FC0000000E09B6626C000000040F32341C00C000000130000001A1100003C00000006000000020000000000006000408FC0000000204B6734C0000000202D1948C00000006000408FC000000060BD3423C0000000C0A68843C00C00000013000000221100003C00000006000000020000000000006000408FC000
310
0000204B6734C000000000E37C45C00000006000408FC0000000A02EFE24C0000000209A6742C00C000000130000002A1100003C00000006000000020000000000006000408FC0000000A03E6630C0000000202D1948C00000006000408FC000000060BBE620C0000000C0189B44C00C00000013000000321100003C000000
310
06000000020000000000006000408FC000000060BBE620C0000000C0189B44C00000006000408FC000000020941830C0000000407D2548C00C000000130000003A1100003C00000006000000020000000000006000408FC000000060BBE620C0000000C0189B44C00000006000408FC000000080673D30C000000060551C48
310
C00C00000013000000421100003C00000006000000020000000000006000408FC0000000800C381CC000000040449B45C00000006000408FC0000000002DD12FC0000000C0B54548C00C000000130000004A1100003C00000006000000020000000000006000408FC000000060BBE620C0000000C0189B44C0000000600040
310
8FC000000040B6F62FC0000000C0BE3348C00C00000013000000521100003C00000006000000020000000000006000408FC0000000C03BC42FC00000000034DE4AC00000006000408FC000000000E5BB15C000000040D48546C00C000000130000005A1100003C00000006000000020000000000006000408FC0000000C03B
310
C42FC000000020A25948C00000006000408FC0000000800C381CC000000040449B45C00C00000013000000621100003C00000006000000020000000000006000408FC000000080718A28C00000000034DE4AC00000006000408FC00000000029DD0CC0000000C0B95747C00C000000130000006A1100003C00000006000000
310
020000000000006000408FC00000000029DD0CC0000000C0B95747C00000006000408FC0000000801CEF27C00000000084EA4AC00C00000013000000721100003C00000006000000020000000000006000408FC00000000029DD0CC0000000C0B95747C00000006000408FC000000040C33828C0000000205CE14AC00C0000
310
00130000007A1100003C00000006000000020000000000006000408FC0000000407CA4F9BF00000040270E48C00000006000408FC000000040218F27C0000000A0BC0A4BC00C00000013000000821100003C00000006000000020000000000006000408FC00000000029DD0CC0000000C0B95747C00000006000408FC00000
310
0080AAB427C000000080C5F84AC00C000000130000008A1100003C00000006000000020000000000006000408FC0000000C02F8227C000000000A91E4BC00000006000408FC000000000003004BF000000C0858448C00C00000013000000921100003C00000006000000020000000000006000408FC0000000C02F8227C000
310
000000A91E4BC00000006000408FC0000000801138E4BF00000060F8F24BC00C000000130000009A1100003C00000006000000020000000000006000408FC0000000009ABEEABF000000C0D97C50C00000006000408FC000000000F601CABF000000003A7E4DC00C00000013000000A21100003C0000000600000002000000
310
0000006000408FC0000000C02F8227C000000000A91E4BC00000006000408FC0000000800101EFBF00000040341E4CC00C00000013000000AA1100003C00000006000000020000000000006000408FC0000000C02F8227C000000000A91E4BC00000006000408FC0000000C0482FF5BF000000A0538D4CC00C000000130000
310
00B21100003C00000006000000020000000000006000408FC0000000C02F8227C000000000A91E4BC00000006000408FC0000000C07E47F3BF00000080D9524CC00C00000013000000BA1100003C00000006000000020000000000006000408FC0000000C02F8227C000000000A91E4BC00000006000408FC0000000C0B416
310
F5BF00000040A9C94CC00C00000013000000C21100003C00000006000000020000000000006000408FC0000000001D7CF6BF00000080C4A850C00000006000408FC0000000C0B416F5BF00000040A9C94CC00C00000013000000CA1100003C00000006000000020000000000006000408FC0000000C02F8227C000000000A9
310
1E4BC00000006000408FC0000000001D7CF6BF00000080C4A850C00C00000013000000D21100003C00000006000000020000000000006000408FC000000000918FF0BF000000207A8450C00000006000408FC0000000801D0DE3BF00000080D2614DC00C00000013000000DA1100003C000000060000000200000000000060
310
00408FC000000000253AF3BF000000C0B38E50C00000006000408FC000000080A91BEEBF000000C0A5374DC00C00000013000000E21100003C00000006000000020000000000006000408FC000000000B13CF5BF000000E0039B50C00000006000408FC0000000C06CFFF2BF00000040C0034DC00C00000013000000EA1100
310
003C00000006000000020000000000006000408FC0000000C02F8227C000000000A91E4BC00000006000408FC0000000408BE8F6BF000000A044B750C00C00000013000000F21100003C00000006000000020000000000006000408FC000000000308227C000000000E56E59C00000006000408FC00000000089E8F6BF0000
310
00004C0E5BC00C00000013000000FA1100003C00000006000000020000000000006000408FC0000000000580F5BF000000207D405BC00000006000408FC000000020C39427C0000000A0C37A59C00C00000013000000021200003C00000006000000020000000000006000408FC0000000000580F5BF000000207D405BC000
310
00006000408FC000000000E0C927C000000000F78459C00C000000130000000A1200003C00000006000000020000000000006000408FC0000000200F1A28C000000020108C59C00000006000408FC0000000000580F5BF000000207D405BC00C00000013000000121200003C00000006000000020000000000006000408FC0
310
00000040CDEC2DC0000000E07EE159C00000006000408FC0000000000580F5BF000000207D405BC00C000000130000001A1200003C00000006000000020000000000006000408FC000000040CDEC2DC000000000099B5AC00000006000408FC0000000000580F5BF000000207D405BC00C00000013000000221200003C0000
310
0006000000020000000000006000408FC000000000F2EFEFBF000000E015805BC00000006000408FC0000000007D342EC0000000001BB15AC00C000000130000002A1200003C00000006000000020000000000006000408FC0000000000580F5BF000000207D405BC00000006000408FC00000004060FF2DC000000080E7A6
310
5AC00C00000013000000321200003C00000006000000020000000000006000408FC000000040AC842EC00000002034B85AC00000006000408FC000000000F2EFEFBF000000E015805BC00C000000130000003A1200003C00000006000000020000000000006000408FC0000000C038AD30C0000000C01AE35AC00000006000
310
408FC00000008014A1D9BF000000A0EEB75BC00C00000013000000421200003C00000006000000020000000000006000408FC000000020EDF331C0000000A028185BC00000006000408FC000000000009006BF000000A07ED25BC00C000000130000004A1200003C00000006000000020000000000006000408FC000000080
310
9D0933C000000060D15B5BC00000006000408FC000000000009006BF000000A07ED25BC00C00000013000000521200003C00000006000000020000000000006000408FC0000000007EE333C0000000A073AB5BC00000006000408FC000000000009006BF000000A07ED25BC00C000000130000005A1200003C000000060000
310
00020000000000006000408FC000000060157934C000000060F7035CC00000006000408FC00000000000C006BF0000006054855DC00C00000013000000621200003C00000006000000020000000000006000408FC00000004092C434C000000060EB615CC00000006000408FC0000000801F9CF0BF000000205DB75DC00C00
310
0000130000006A1200003C00000006000000020000000000006000408FC000000060157934C000000060F7035CC00000006000408FC000000000732EE7BF000000006BA05DC00C00000013000000721200003C00000006000000020000000000006000408FC00000004005C334C000000020A9C15CC00000006000408FC000
310
00008043F0F3BF000000E097D25DC00C000000130000007A1200003C00000006000000020000000000006000408FC0000000C07D7434C000000020771F5DC00000006000408FC000000080BB59F5BF0000004041F05DC00C00000013000000821200003C00000006000000020000000000006000408FC00000008009DC33C0
310
00000060B0775DC00000006000408FC000000080F1BFF4BF00000040550E5EC00C000000130000008A1200003C00000006000000020000000000006000408FC00000002096FF32C0000000A0E6C65DC00000006000408FC000000080592DF2BF00000080C82A5EC00C00000013000000921200003C00000006000000020000
310
000000006000408FC0000000A0B6E731C0000000A0050A5EC00000006000408FC000000000779DEBBF000000A0AB435EC00C000000130000009A1200003C00000006000000020000000000006000408FC0000000204D9F30C0000000E0713E5EC00000006000408FC00000000077C0DFBF000000C04D575EC00C0000001300
310
0000A21200003C00000006000000020000000000006000408FC000000080DCD61FC0000000E0B8385FC00000006000408FC00000000000D005BF000000001E665EC00C00000013000000AA1200003C00000006000000020000000000006000408FC000000040D72A1DC000000080E0515FC00000006000408FC00000000000
310
D005BF000000001E665EC00C00000013000000B21200003C00000006000000020000000000006000408FC00000000037BA1FC000000040667960C00000006000408FC000000000004006BF000000C0FC9F61C00C00000013000000BA1200003C00000006000000020000000000006000408FC0000000007A111DC000000040
310
A86C60C00000006000408FC000000000004006BF000000C0FC9F61C00C00000013000000C21200003C00000006000000020000000000006000408FC00000008001191AC000000000075660C00000006000408FC000000000004006BF000000C0FC9F61C00C00000013000000CA1200003C0000000600000002000000000000
310
6000408FC00000000087FF17C000000080153A60C00000006000408FC000000000004006BF000000C0FC9F61C00C00000013000000D21200003C00000006000000020000000000006000408FC0000000001BEB16C000000080CE1A60C00000006000408FC000000000004006BF000000C0FC9F61C00C00000013000000DA12
310
00003C00000006000000020000000000006000408FC000000000D30B18C00000002065B65FC00000006000408FC00000000000D005BF000000001E665EC00C00000013000000E21200003C00000006000000020000000000006000408FC000000040872C1AC0000000A0C47E5FC00000006000408FC00000000000D005BF00
310
0000001E665EC00C00000013000000EA1200003C00000006000000020000000000006000408FC0000000004EEF16C0000000A0D0F45FC00000006000408FC00000000000D005BF000000001E665EC00C00000013000000F21200003C0000000600000002000000000000A0FF3F8F4000000040228E4DC000000040342816C0
310
000000A0FF3F8F4000000000F67A4CC0000000000080DA3E0C00000013000000FA1200003C0000000600000002000000000000A0FF3F8F4000000040228E4DC000000040342816C0000000A0FF3F8F400000004087594CC0000000807ABFE0BF0C00000013000000021300003C0000000600000002000000000000A0FF3F8F
310
40000000808A0F4DC000000060A58216C0000000A0FF3F8F40000000404C3A4CC0000000807AB4E9BF0C000000130000000A1300003C0000000600000002000000000000A0FF3F8F40000000808A0F4DC000000060A58216C0000000A0FF3F8F40000000C04F144CC000000040ED77F0BF0C00000013000000121300003C00
310
00000600000002000000000000A0FF3F8F40000000809F6C4CC000000060E4E717C0000000A0FF3F8F40000000401BE94BC0000000406913F3BF0C000000130000001A1300003C0000000600000002000000000000A0FF3F8F40000000809F6C4CC000000060E4E717C0000000A0FF3F8F40000000007EBA4BC000000080B5
310
90F4BF0C00000013000000221300003C0000000600000002000000000000A0FF3F8F40000000408AD74BC00000004009591AC0000000A0FF3F8F40000000C05A8A4BC00000008065E0F4BF0C000000130000002A1300003C0000000600000002000000000000A0FF3F8F40000000408AD74BC00000004009591AC0000000A0
310
FF3F8F40000000C0B75A4BC00000008031FFF3BF0C00000013000000321300003C0000000600000002000000000000A0FF3F8F40000000806D574BC0000000402DB81DC0000000A0FF3F8F40000000408DE246C0000000803B6AEDBF0C000000130000003A1300003C0000000600000002000000000000A0FF3F8F40000000
310
C0B75A4BC00000008031FFF3BF000000A0FF3F8F40000000408DE246C0000000803B6AEDBF0C00000013000000421300003C0000000600000002000000000000A0FF3F8F40000000806BF24AC00000002000EE20C0000000A0FF3F8F40000000408DE246C0000000803B6AEDBF0C000000130000004A1300003C0000000600
310
000002000000000000A0FF3F8F400000000058AD4AC0000000A0E14823C0000000A0FF3F8F4000000080C19446C0000000E0267300C00C00000013000000521300003C0000000600000002000000000000A0FF3F8F4000000060C5784AC000000040648625C0000000A0FF3F8F4000000080C19446C0000000E0267300C00C
310
000000130000005A1300003C0000000600000002000000000000A0FF3F8F40000000800E294AC0000000403A7C27C0000000A0FF3F8F4000000020312946C000000000A35608C00C00000013000000621300003C0000000600000002000000000000A0FF3F8F40000000002EBD49C0000000C0151A29C0000000A0FF3F8F40
310
00000020312946C000000000A35608C00C000000130000006A1300003C0000000600000002000000000000A0FF3F8F4000000080433B49C0000000C07E482AC0000000A0FF3F8F4000000020BAA445C000000000A1A90EC00C00000013000000721300003C0000000600000002000000000000A0FF3F8F40000000C0ACAA48
310
C0000000404BF62AC0000000A0FF3F8F4000000020BAA445C000000000A1A90EC00C000000130000007A1300003C0000000600000002000000000000A0FF3F8F4000000080903948C0000000C065222BC0000000A0FF3F8F4000000080970D45C000000080CCAF11C00C00000013000000821300003C000000060000000200
310
0000000000A0FF3F8F4000000000567747C0000000C065222BC0000000A0FF3F8F4000000080970D45C000000080CCAF11C00C000000130000008A1300003C0000000600000002000000000000A0FF3F8F4000000080970D45C000000080CCAF11C0000000A0FF3F8F4000000080EA6247C000000040062F2BC00C00000013
310
000000921300003C0000000600000002000000000000A0FF3F8F4000000080970D45C000000080CCAF11C0000000A0FF3F8F40000000E0805047C0000000C0A5532BC00C000000130000009A1300003C0000000600000002000000000000A0FF3F8F4000000040730F3CC000000060EAC228C0000000A0FF3F8F4000000060
310
E44147C0000000C0AB8C2BC00C00000013000000A21300003C0000000600000002000000000000A0FF3F8F4000000040730F3CC000000060EAC228C0000000A0FF3F8F4000000000823847C00000004088D42BC00C00000013000000AA1300003C0000000600000002000000000000A0FF3F8F40000000A0453547C0000000
310
4039242CC0000000A0FF3F8F4000000040730F3CC000000060EAC228C00C00000013000000B21300003C0000000600000002000000000000A0FF3F8F40000000A0F98046C0000000200BA231C0000000A0FF3F8F4000000040730F3CC000000060EAC228C00C00000013000000BA1300003C00000006000000020000000000
310
00A0FF3F8F40000000E044CD45C0000000209ABE31C0000000A0FF3F8F4000000040730F3CC000000060EAC228C00C00000013000000C21300003C0000000600000002000000000000A0FF3F8F4000000060846944C000000020683032C0000000A0FF3F8F4000000040730F3CC000000060EAC228C00C00000013000000CA
310
1300003C0000000600000002000000000000A0FF3F8F40000000607FBA43C0000000A0568532C0000000A0FF3F8F4000000040730F3CC000000060EAC228C00C00000013000000D21300003C0000000600000002000000000000A0FF3F8F40000000E09B1A45C0000000E019EE31C0000000A0FF3F8F4000000040730F3CC0
310
00000060EAC228C00C00000013000000DA1300003C0000000600000002000000000000A0FF3F8F40000000E0D86442C000000020F96533C0000000A0FF3F8F4000000040730F3CC000000060EAC228C00C00000013000000E21300003C0000000600000002000000000000A0FF3F8F40000000E035BF41C00000002002F133
310
C0000000A0FF3F8F400000000026FA39C0000000E0175A2BC00C00000013000000EA1300003C0000000600000002000000000000A0FF3F8F40000000201A0E43C000000020A2EC32C0000000A0FF3F8F4000000040730F3CC000000060EAC228C00C00000013000000F21300003C0000000600000002000000000000A0FF3F
310
8F40000000A0A98040C0000000608E3A35C0000000A0FF3F8F400000000026FA39C0000000E0175A2BC00C00000013000000FA1300003C0000000600000002000000000000A0FF3F8F40000000006FD13FC00000002014F835C0000000A0FF3F8F400000000026FA39C0000000E0175A2BC00C00000013000000021400003C
310
0000000600000002000000000000A0FF3F8F4000000040A91D41C000000060598D34C0000000A0FF3F8F400000000026FA39C0000000E0175A2BC00C000000130000000A1400003C0000000600000002000000000000A0FF3F8F400000008089AC3EC0000000E059C536C0000000A0FF3F8F4000000040975737C0000000C0
310
23342FC00C00000013000000121400003C0000000600000002000000000000A0FF3F8F400000008000873CC0000000A0C58C38C0000000A0FF3F8F4000000040975737C0000000C023342FC00C000000130000001A1400003C0000000600000002000000000000A0FF3F8F4000000040F1873BC000000060A08539C0000000
310
A0FF3F8F40000000C085E534C0000000E0B0C031C00C00000013000000221400003C0000000600000002000000000000A0FF3F8F400000004076933DC0000000E0C9A137C0000000A0FF3F8F4000000040975737C0000000C023342FC00C000000130000002A1400003C0000000600000002000000000000A0FF3F8F400000
310
00E019973AC0000000608E8B3AC0000000A0FF3F8F40000000C085E534C0000000E0B0C031C00C00000013000000321400003C0000000600000002000000000000A0FF3F8F40000000C02AB539C0000000A0CB9D3BC0000000A0FF3F8F40000000601DA932C0000000005F1C34C00C000000130000003A1400003C00000006
310
00000002000000000000A0FF3F8F40000000E0C6E238C00000006091BB3CC0000000A0FF3F8F40000000601DA932C0000000005F1C34C00C00000013000000421400003C0000000600000002000000000000A0FF3F8F4000000080872038C00000002011E43DC0000000A0FF3F8F40000000A01BA730C0000000C01AA836C0
310
0C000000130000004A1400003C0000000600000002000000000000A0FF3F8F4000000000016F37C0000000806D163FC0000000A0FF3F8F400000004050C72DC000000080A05E39C00C00000013000000521400003C0000000600000002000000000000A0FF3F8F4000000000C4CE36C000000060D52840C0000000A0FF3F8F
310
400000004050C72DC000000080A05E39C00C000000130000005A1400003C0000000600000002000000000000A0FF3F8F4000000040434036C0000000E070CA40C0000000A0FF3F8F40000000C01AC52AC0000000201A3A3CC00C00000013000000621400003C0000000600000002000000000000A0FF3F8F40000000A0E5C3
310
35C000000020946F41C0000000A0FF3F8F40000000C01AC52AC0000000201A3A3CC00C000000130000006A1400003C0000000600000002000000000000A0FF3F8F40000000E0065A35C0000000E0C71742C0000000A0FF3F8F40000000E0C14D28C000000000AE343FC00C00000013000000721400003C0000000600000002
310
000000000000A0FF3F8F4000000040FA0235C0000000008BC242C0000000A0FF3F8F40000000E0C14D28C000000000AE343FC00C000000130000007A1400003C0000000600000002000000000000A0FF3F8F40000000E004BF34C0000000A0536F43C0000000A0FF3F8F40000000009C6626C000000040F32341C00C000000
310
13000000821400003C0000000600000002000000000000A0FF3F8F40000000E0558E34C000000000A41D44C0000000A0FF3F8F40000000009C6626C000000040F32341C00C000000130000008A1400003C0000000600000002000000000000A0FF3F8F4000000080107134C0000000A0F9CC44C0000000A0FF3F8F40000000
310
C02EFE24C0000000209A6742C00C00000013000000921400003C0000000600000002000000000000A0FF3F8F40000000204B6734C000000000E37C45C0000000A0FF3F8F40000000C02EFE24C0000000209A6742C00C000000130000009A1400003C0000000600000002000000000000A0FF3F8F40000000204B6734C00000
310
00202D1948C0000000A0FF3F8F4000000080BD3423C0000000C0A68843C00C00000013000000A21400003C0000000600000002000000000000A0FF3F8F40000000A03E6630C0000000202D1948C0000000A0FF3F8F4000000080BBE620C0000000C0189B44C00C00000013000000AA1400003C000000060000000200000000
310
0000A0FF3F8F4000000080BBE620C0000000C0189B44C0000000A0FF3F8F4000000080673D30C000000060551C48C00C00000013000000B21400003C0000000600000002000000000000A0FF3F8F4000000080BBE620C0000000C0189B44C0000000A0FF3F8F4000000020941830C0000000407D2548C00C00000013000000
310
BA1400003C0000000600000002000000000000A0FF3F8F4000000080BBE620C0000000C0189B44C0000000A0FF3F8F4000000040B6F62FC0000000C0BE3348C00C00000013000000C21400003C0000000600000002000000000000A0FF3F8F40000000C00C381CC000000040449B45C0000000A0FF3F8F40000000002DD12F
310
C0000000C0B54548C00C00000013000000CA1400003C0000000600000002000000000000A0FF3F8F40000000C03BC42FC000000020A25948C0000000A0FF3F8F40000000C00C381CC000000040449B45C00C00000013000000D21400003C0000000600000002000000000000A0FF3F8F40000000C03BC42FC00000000034DE
310
4AC0000000A0FF3F8F4000000000E5BB15C000000040D48546C00C00000013000000DA1400003C0000000600000002000000000000A0FF3F8F40000000A0718A28C00000000034DE4AC0000000A0FF3F8F400000000029DD0CC0000000C0B95747C00C00000013000000E21400003C0000000600000002000000000000A0FF
310
3F8F400000000029DD0CC0000000C0B95747C0000000A0FF3F8F4000000060C33828C0000000205CE14AC00C00000013000000EA1400003C0000000600000002000000000000A0FF3F8F400000000029DD0CC0000000C0B95747C0000000A0FF3F8F40000000A01CEF27C00000000084EA4AC00C00000013000000F2140000
310
3C0000000600000002000000000000A0FF3F8F400000000029DD0CC0000000C0B95747C0000000A0FF3F8F40000000A0AAB427C000000080C5F84AC00C00000013000000FA1400003C0000000600000002000000000000A0FF3F8F40000000407CA4F9BF00000040270E48C0000000A0FF3F8F4000000060218F27C0000000
310
A0BC0A4BC00C00000013000000021500003C0000000600000002000000000000A0FF3F8F40000000E02F8227C000000000A91E4BC0000000A0FF3F8F4000000000003004BF000000C0858448C00C000000130000000A1500003C0000000600000002000000000000A0FF3F8F40000000E02F8227C000000000A91E4BC00000
310
00A0FF3F8F40000000801138E4BF00000060F8F24BC00C00000013000000121500003C0000000600000002000000000000A0FF3F8F40000000009ABEEABF000000C0D97C50C0000000A0FF3F8F4000000000F601CABF000000003A7E4DC00C000000130000001A1500003C0000000600000002000000000000A0FF3F8F4000
310
0000E02F8227C000000000A91E4BC0000000A0FF3F8F40000000800101EFBF00000040341E4CC00C00000013000000221500003C0000000600000002000000000000A0FF3F8F40000000E02F8227C000000000A91E4BC0000000A0FF3F8F40000000C08047F3BF00000080D9524CC00C000000130000002A1500003C000000
310
0600000002000000000000A0FF3F8F40000000E02F8227C000000000A91E4BC0000000A0FF3F8F40000000C0482FF5BF000000A0538D4CC00C00000013000000321500003C0000000600000002000000000000A0FF3F8F40000000E02F8227C000000000A91E4BC0000000A0FF3F8F40000000C0B416F5BF00000040A9C94C
310
C00C000000130000003A1500003C0000000600000002000000000000A0FF3F8F40000000E02F8227C000000000A91E4BC0000000A0FF3F8F40000000001D7CF6BF00000080C4A850C00C00000013000000421500003C0000000600000002000000000000A0FF3F8F40000000001D7CF6BF00000080C4A850C0000000A0FF3F
310
8F40000000C0B416F5BF00000040A9C94CC00C000000130000004A1500003C0000000600000002000000000000A0FF3F8F4000000000918FF0BF000000207A8450C0000000A0FF3F8F40000000801D0DE3BF00000080D2614DC00C00000013000000521500003C0000000600000002000000000000A0FF3F8F400000000025
310
3AF3BF000000C0B38E50C0000000A0FF3F8F4000000080A91BEEBF000000C0A5374DC00C000000130000005A1500003C0000000600000002000000000000A0FF3F8F4000000000B13CF5BF000000E0039B50C0000000A0FF3F8F40000000C06CFFF2BF00000040C0034DC00C00000013000000621500003C00000006000000
310
02000000000000A0FF3F8F40000000E02F8227C000000000A91E4BC0000000A0FF3F8F40000000408BE8F6BF000000A044B750C00C000000130000006A1500003C0000000600000002000000000000A0FF3F8F4000000020308227C000000000E56E59C0000000A0FF3F8F400000000089E8F6BF000000004C0E5BC00C0000
310
0013000000721500003C0000000600000002000000000000A0FF3F8F40000000000580F5BF000000207D405BC0000000A0FF3F8F4000000040C39427C0000000A0C37A59C00C000000130000007A1500003C0000000600000002000000000000A0FF3F8F40000000000580F5BF000000207D405BC0000000A0FF3F8F400000
310
0020E0C927C000000000F78459C00C00000013000000821500003C0000000600000002000000000000A0FF3F8F40000000400F1A28C000000020108C59C0000000A0FF3F8F40000000000580F5BF000000207D405BC00C000000130000008A1500003C0000000600000002000000000000A0FF3F8F4000000040CDEC2DC000
310
0000E07EE159C0000000A0FF3F8F40000000000580F5BF000000207D405BC00C00000013000000921500003C0000000600000002000000000000A0FF3F8F4000000040CDEC2DC000000000099B5AC0000000A0FF3F8F40000000000580F5BF000000207D405BC00C000000130000009A1500003C0000000600000002000000
310
000000A0FF3F8F40000000000580F5BF000000207D405BC0000000A0FF3F8F400000004060FF2DC000000080E7A65AC00C00000013000000A21500003C0000000600000002000000000000A0FF3F8F4000000000F2EFEFBF000000E015805BC0000000A0FF3F8F40000000007D342EC0000000001BB15AC00C000000130000
310
00AA1500003C0000000600000002000000000000A0FF3F8F4000000040AC842EC00000002034B85AC0000000A0FF3F8F4000000000F2EFEFBF000000E015805BC00C00000013000000B21500003C0000000600000002000000000000A0FF3F8F40000000C038AD30C0000000C01AE35AC0000000A0FF3F8F40000000801CA1
310
D9BF000000A0EEB75BC00C00000013000000BA1500003C0000000600000002000000000000A0FF3F8F4000000040EDF331C0000000A028185BC0000000A0FF3F8F4000000000009007BF000000A07ED25BC00C00000013000000C21500003C0000000600000002000000000000A0FF3F8F40000000A09D0933C000000060D1
310
5B5BC0000000A0FF3F8F4000000000009007BF000000A07ED25BC00C00000013000000CA1500003C0000000600000002000000000000A0FF3F8F40000000207EE333C0000000A073AB5BC0000000A0FF3F8F4000000000009007BF000000A07ED25BC00C00000013000000D21500003C0000000600000002000000000000A0
310
FF3F8F4000000080157934C000000060F7035CC0000000A0FF3F8F400000000000C007BF0000006054855DC00C00000013000000DA1500003C0000000600000002000000000000A0FF3F8F4000000080157934C000000060F7035CC0000000A0FF3F8F4000000000772EE7BF000000006BA05DC00C00000013000000E21500
310
003C0000000600000002000000000000A0FF3F8F400000006092C434C000000060EB615CC0000000A0FF3F8F4000000080219CF0BF000000205DB75DC00C00000013000000EA1500003C0000000600000002000000000000A0FF3F8F400000006005C334C000000020A9C15CC0000000A0FF3F8F400000008045F0F3BF0000
310
00E097D25DC00C00000013000000F21500003C0000000600000002000000000000A0FF3F8F40000000E07D7434C000000020771F5DC0000000A0FF3F8F4000000080BD59F5BF0000002041F05DC00C00000013000000FA1500003C0000000600000002000000000000A0FF3F8F40000000A009DC33C000000060B0775DC000
310
0000A0FF3F8F4000000080F1BFF4BF00000020550E5EC00C00000013000000021600003C0000000600000002000000000000A0FF3F8F400000002096FF32C0000000A0E6C65DC0000000A0FF3F8F4000000080592DF2BF00000060C82A5EC00C000000130000000A1600003C0000000600000002000000000000A0FF3F8F40
310
000000A0B6E731C0000000A0050A5EC0000000A0FF3F8F4000000000779DEBBF000000A0AB435EC00C00000013000000121600003C0000000600000002000000000000A0FF3F8F40000000204D9F30C0000000E0713E5EC0000000A0FF3F8F400000000077C0DFBF000000A04D575EC00C000000130000001A1600003C0000
310
000600000002000000000000A0FF3F8F40000000C0DCD61FC0000000E0B8385FC0000000A0FF3F8F400000000000D005BF000000E01D665EC00C00000013000000221600003C0000000600000002000000000000A0FF3F8F4000000080D72A1DC000000060E0515FC0000000A0FF3F8F400000000000D005BF000000E01D66
310
5EC00C000000130000002A1600003C0000000600000002000000000000A0FF3F8F400000004037BA1FC000000040667960C0000000A0FF3F8F4000000000004006BF000000C0FC9F61C00C00000013000000321600003C0000000600000002000000000000A0FF3F8F40000000407A111DC000000040A86C60C0000000A0FF
310
3F8F4000000000004006BF000000C0FC9F61C00C000000130000003A1600003C0000000600000002000000000000A0FF3F8F40000000C001191AC000000000075660C0000000A0FF3F8F4000000000004006BF000000C0FC9F61C00C00000013000000421600003C0000000600000002000000000000A0FF3F8F4000000080
310
87FF17C000000080153A60C0000000A0FF3F8F4000000000004006BF000000C0FC9F61C00C000000130000004A1600003C0000000600000002000000000000A0FF3F8F40000000001BEB16C000000080CE1A60C0000000A0FF3F8F4000000000004006BF000000C0FC9F61C00C00000013000000521600003C000000060000
310
0002000000000000A0FF3F8F4000000080872C1AC0000000A0C47E5FC0000000A0FF3F8F400000000000D005BF000000E01D665EC00C000000130000005A1600003C0000000600000002000000000000A0FF3F8F4000000080D30B18C00000002065B65FC0000000A0FF3F8F400000000000D005BF000000E01D665EC00C00
310
000013000000621600003C0000000600000002000000000000A0FF3F8F40000000004EEF16C0000000A0D0F45FC0000000A0FF3F8F400000000000D005BF000000E01D665EC0
100
AcDbSubDMesh
 71
     2
 72
     0
 91
        0
 92
      330
 10
999.9998168945312
 20
-63.99954223632812
 30
0.0000028610229492
 10
999.9998168945312
 20
-63.99954223632812
 30
-5.539265632629394
 10
-1000.000183105469
 20
-63.99953460693359
 30
-5.53926944732666
 10
-1000.000183105469
 20
-63.99953460693359
 30
-0.0000009536743164
 10
999.9998168945312
 20
-59.11042022705078
 30
-5.539261817932128
 10
-1000.000183105469
 20
-59.11042022705078
 30
-5.539265632629394
 10
999.9998168945312
 20
-53.354248046875
 30
-9.642346382141113
 10
-1000.000183105469
 20
-53.354248046875
 30
-9.642350196838378
 10
-1000.000183105469
 20
-53.89390182495117
 30
-8.464848518371582
 10
-1000.000183105469
 20
-54.68302917480468
 30
-7.429863929748535
 10
-1000.000183105469
 20
-55.68390655517578
 30
-6.586953163146972
 10
-1000.000183105469
 20
-56.84861755371094
 30
-5.976460933685302
 10
-1000.000183105469
 20
-58.12141418457031
 30
-5.627587795257568
 10
999.9998168945312
 20
-58.12141418457031
 30
-5.627583980560302
 10
999.9998168945312
 20
-56.84861755371094
 30
-5.976457118988037
 10
999.9998168945312
 20
-55.68390655517578
 30
-6.586949348449707
 10
999.9998168945312
 20
-54.68302917480468
 30
-7.429860115051269
 10
999.9998168945312
 20
-53.89390563964844
 30
-8.464844703674316
 10
999.9998168945312
 20
-52.94352340698242
 30
-10.76248359680175
 10
999.9998168945312
 20
-52.32075500488281
 30
-11.74263191223144
 10
999.9998168945312
 20
-51.47796630859375
 30
-12.55094718933105
 10
999.9998168945312
 20
-50.46299743652344
 30
-13.14159202575683
 10
999.9998168945312
 20
-49.33339691162109
 30
-13.48104286193847
 10
999.9998168945312
 20
-48.44972229003906
 30
-13.56718254089355
 10
-1000.000183105469
 20
-48.44972229003906
 30
-13.56718254089355
 10
-1000.000183105469
 20
-49.33339691162109
 30
-13.48104667663574
 10
-1000.000183105469
 20
-50.46299743652344
 30
-13.14159202575683
 10
-1000.000183105469
 20
-51.47797012329101
 30
-12.55094718933105
 10
-1000.000183105469
 20
-52.32075500488281
 30
-11.74263191223144
 10
-1000.000183105469
 20
-52.94352340698242
 30
-10.76248741149902
 10
999.9998168945312
 20
-46.93231201171875
 30
-13.56718254089355
 10
-1000.000183105469
 20
-46.93231582641601
 30
-13.56718254089355
 10
999.9998168945312
 20
-46.41618728637695
 30
-14.07074928283691
 10
999.9998168945312
 20
-46.41618728637695
 30
-17.59574317932129
 10
-1000.000183105469
 20
-46.41618728637695
 30
-17.59574699401855
 10
-1000.000183105469
 20
-46.41618728637695
 30
-14.07075309753418
 10
999.9998168945312
 20
-20.40349006652832
 30
-42.97567749023437
 10
-1000.000183105469
 20
-20.40349006652832
 30
-42.97567749023437
 10
-1000.000183105469
 20
-20.44165802001953
 30
-41.60136795043945
 10
-1000.000183105469
 20
-20.55599784851074
 30
-40.2315673828125
 10
-1000.000183105469
 20
-20.74616813659668
 30
-38.8697395324707
 10
-1000.000183105469
 20
-21.01163101196289
 30
-37.51986694335938
 10
-1000.000183105469
 20
-21.35166740417481
 30
-36.18578720092774
 10
-1000.000183105469
 20
-21.76522254943848
 30
-34.87170791625977
 10
-1000.000183105469
 20
-22.25102615356445
 30
-33.58156967163086
 10
-1000.000183105469
 20
-22.80767631530762
 30
-32.31901168823242
 10
-1000.000183105469
 20
-23.43360710144043
 30
-31.08760833740234
 10
-1000.000183105469
 20
-24.12706565856934
 30
-29.89088821411133
 10
-1000.000183105469
 20
-24.88584518432617
 30
-28.7326889038086
 10
-1000.000183105469
 20
-25.70768165588379
 30
-27.61639022827149
 10
-1000.000183105469
 20
-26.59023666381836
 30
-26.54514312744141
 10
-1000.000183105469
 20
-27.53102302551269
 30
-25.52198028564453
 10
-1000.000183105469
 20
-28.5273494720459
 30
-24.54989242553711
 10
-1000.000183105469
 20
-29.57602119445801
 30
-23.63198661804199
 10
-1000.000183105469
 20
-30.67397308349609
 30
-22.77090263366699
 10
-1000.000183105469
 20
-31.81809997558594
 30
-21.96906089782715
 10
-1000.000183105469
 20
-33.00517654418945
 30
-21.22873497009277
 10
-1000.000183105469
 20
-34.23172760009766
 30
-20.55214500427246
 10
-1000.000183105469
 20
-35.49383163452148
 30
-19.94144248962402
 10
-1000.000183105469
 20
-36.78786849975586
 30
-19.39833641052246
 10
-1000.000183105469
 20
-38.11017227172852
 30
-18.92435264587402
 10
-1000.000183105469
 20
-39.45701217651367
 30
-18.5208568572998
 10
-1000.000183105469
 20
-40.8243522644043
 30
-18.1890926361084
 10
-1000.000183105469
 20
-42.20788192749023
 30
-17.93008232116699
 10
-1000.000183105469
 20
-43.60366439819336
 30
-17.74454307556152
 10
-1000.000183105469
 20
-45.00761795043945
 30
-17.63298606872558
 10
999.9998168945312
 20
-45.00761795043945
 30
-17.63298225402832
 10
999.9998168945312
 20
-43.60366439819336
 30
-17.74453926086426
 10
999.9998168945312
 20
-42.20788192749023
 30
-17.93008232116699
 10
999.9998168945312
 20
-40.8243522644043
 30
-18.18908882141113
 10
999.9998168945312
 20
-39.45701217651367
 30
-18.52085304260254
 10
999.9998168945312
 20
-38.11017227172852
 30
-18.92434883117676
 10
999.9998168945312
 20
-36.78786849975586
 30
-19.39833259582519
 10
999.9998168945312
 20
-35.49383163452148
 30
-19.94143867492676
 10
999.9998168945312
 20
-34.23172760009766
 30
-20.55214500427246
 10
999.9998168945312
 20
-33.00517654418945
 30
-21.22873497009277
 10
999.9998168945312
 20
-31.81809997558594
 30
-21.96905708312988
 10
999.9998168945312
 20
-30.67397308349609
 30
-22.77090263366699
 10
999.9998168945312
 20
-29.57602310180664
 30
-23.63198661804199
 10
999.9998168945312
 20
-28.52735137939453
 30
-24.54989051818848
 10
999.9998168945312
 20
-27.53102493286133
 30
-25.5219783782959
 10
999.9998168945312
 20
-26.59023857116699
 30
-26.54514122009278
 10
999.9998168945312
 20
-25.70768356323242
 30
-27.61638832092285
 10
999.9998168945312
 20
-24.88584709167481
 30
-28.73268699645996
 10
999.9998168945312
 20
-24.12706756591797
 30
-29.8908863067627
 10
999.9998168945312
 20
-23.43360900878906
 30
-31.08760833740234
 10
999.9998168945312
 20
-22.80767822265625
 30
-32.31901168823242
 10
999.9998168945312
 20
-22.25102615356445
 30
-33.58156967163086
 10
999.9998168945312
 20
-21.76522254943848
 30
-34.87170791625977
 10
999.9998168945312
 20
-21.35166740417481
 30
-36.18578720092774
 10
999.9998168945312
 20
-21.01163101196289
 30
-37.51986694335938
 10
999.9998168945312
 20
-20.74616813659668
 30
-38.8697395324707
 10
999.9998168945312
 20
-20.55599784851074
 30
-40.2315673828125
 10
999.9998168945312
 20
-20.44165802001953
 30
-41.60136795043945
 10
999.9998168945312
 20
-20.40349006652832
 30
-48.19668960571289
 10
-1000.000183105469
 20
-20.40349006652832
 30
-48.19668960571289
 10
999.9998168945312
 20
-16.39939308166504
 30
-48.19668960571289
 10
-1000.000183105469
 20
-16.39939308166504
 30
-48.19668960571289
 10
999.9998168945312
 20
-15.88326835632324
 30
-48.70026016235351
 10
999.9998168945312
 20
-15.88326835632324
 30
-53.7359619140625
 10
-1000.000183105469
 20
-15.88326835632324
 30
-53.7359619140625
 10
-1000.000183105469
 20
-15.88326835632324
 30
-48.70026016235351
 10
999.9998168945312
 20
-12.27039813995361
 30
-53.7359619140625
 10
-1000.000183105469
 20
-12.2703971862793
 30
-53.7359619140625
 10
999.9998168945312
 20
-11.75427150726318
 30
-54.23953247070312
 10
999.9998168945312
 20
-11.75427341461181
 30
-101.7327270507812
 10
-1000.000183105469
 20
-11.7542724609375
 30
-101.7327270507812
 10
-1000.000183105469
 20
-11.75427055358887
 30
-54.23953247070312
 10
999.9998168945312
 20
-12.0508975982666
 30
-102.1884841918945
 10
999.9998168945312
 20
-14.96250343322754
 30
-103.5233688354492
 10
-1000.000183105469
 20
-14.96250343322754
 30
-103.5233688354492
 10
-1000.000183105469
 20
-12.05089664459228
 30
-102.1884841918945
 10
999.9998168945312
 20
-14.96250343322754
 30
-106.4224243164062
 10
-1000.000183105469
 20
-14.96250343322754
 30
-106.4224243164062
 10
999.9998168945312
 20
-15.25912666320801
 30
-106.8781814575195
 10
-1000.000183105469
 20
-16.6766471862793
 30
-107.5485076904297
 10
-1000.000183105469
 20
-15.25912666320801
 30
-106.8781814575195
 10
999.9998168945312
 20
-16.6766471862793
 30
-107.5485076904297
 10
999.9998168945312
 20
-17.95283889770508
 30
-108.3774795532226
 10
999.9998168945312
 20
-19.03756141662597
 30
-109.4346542358398
 10
999.9998168945312
 20
-19.88864326477051
 30
-110.6789321899414
 10
999.9998168945312
 20
-20.47298431396484
 30
-112.0619735717773
 10
999.9998168945312
 20
-20.76785850524903
 30
-113.5299911499023
 10
999.9998168945312
 20
-20.76180076599121
 30
-115.0259475708008
 10
999.9998168945312
 20
-20.45504570007324
 30
-116.4916458129882
 10
999.9998168945312
 20
-19.85952186584473
 30
-117.8701400756836
 10
999.9998168945312
 20
-18.998384475708
 30
-119.1078262329101
 10
999.9998168945312
 20
-17.90513038635254
 30
-120.1565933227539
 10
999.9998168945312
 20
-16.62227058410644
 30
-120.9757003784179
 10
-1000.000183105469
 20
-16.62227058410644
 30
-120.9757003784179
 10
-1000.000183105469
 20
-17.90513038635254
 30
-120.1565933227539
 10
-1000.000183105469
 20
-18.998384475708
 30
-119.1078262329101
 10
-1000.000183105469
 20
-19.85951995849609
 30
-117.8701400756836
 10
-1000.000183105469
 20
-20.45504379272461
 30
-116.4916458129882
 10
-1000.000183105469
 20
-20.76179885864258
 30
-115.0259475708008
 10
-1000.000183105469
 20
-20.76785659790039
 30
-113.5299911499023
 10
-1000.000183105469
 20
-20.47298240661621
 30
-112.0619735717773
 10
-1000.000183105469
 20
-19.88864135742187
 30
-110.6789321899414
 10
-1000.000183105469
 20
-19.03755950927734
 30
-109.4346542358398
 10
-1000.000183105469
 20
-17.95283699035644
 30
-108.3774795532226
 10
999.9998168945312
 20
-7.959826469421386
 30
-124.8862838745117
 10
-1000.000183105469
 20
-7.95982551574707
 30
-124.8862838745117
 10
999.9998168945312
 20
-7.931851387023925
 30
-131.7937316894531
 10
-1000.000183105469
 20
-7.931850433349609
 30
-131.7937316894531
 10
-1000.000183105469
 20
-7.267066955566406
 30
-131.3955383300781
 10
-1000.000183105469
 20
-6.524419784545898
 30
-130.6883544921875
 10
-1000.000183105469
 20
-5.999538421630859
 30
-129.8151245117187
 10
-1000.000183105469
 20
-5.729595184326171
 30
-128.8377075195312
 10
-1000.000183105469
 20
-5.733695983886718
 30
-127.8252334594726
 10
-1000.000183105469
 20
-6.011547088623046
 30
-126.8499221801758
 10
-1000.000183105469
 20
-6.543484687805175
 30
-125.9807510375976
 10
-1000.000183105469
 20
-7.291836738586425
 30
-125.2793273925781
 10
999.9998168945312
 20
-7.291837692260742
 30
-125.2793197631836
 10
999.9998168945312
 20
-6.543485641479492
 30
-125.9807510375976
 10
999.9998168945312
 20
-6.011548995971679
 30
-126.8499221801758
 10
999.9998168945312
 20
-5.733695983886718
 30
-127.8252334594726
 10
999.9998168945312
 20
-5.729595184326171
 30
-128.8377075195312
 10
999.9998168945312
 20
-5.999540328979492
 30
-129.8151245117187
 10
999.9998168945312
 20
-6.524420738220214
 30
-130.6883544921875
 10
999.9998168945312
 20
-7.267067909240722
 30
-131.3955383300781
 10
999.9998168945312
 20
-9.925308227539062
 30
-132.7076721191406
 10
-1000.000183105469
 20
-9.925308227539062
 30
-132.7076721191406
 10
999.9998168945312
 20
-5.470966815948486
 30
-140.9996032714843
 10
-1000.000183105469
 20
-5.470966815948486
 30
-140.9996032714843
 10
999.9998168945312
 20
-0.0000424385070801
 30
-140.9996032714843
 10
-1000.000183105469
 20
-0.0000424385070801
 30
-140.9996032714843
 10
999.9998168945312
 20
-42.10618591308594
 30
-4.42167854309082
 10
-1000.000183105469
 20
-42.10618591308594
 30
-4.421682357788085
 10
-1000.000183105469
 20
-28.06035232543946
 30
-12.38069438934326
 10
999.9998168945312
 20
-28.06035232543946
 30
-12.38069438934326
 10
999.9998168945312
 20
-11.20040893554687
 30
-34.28086090087891
 10
999.9998168945312
 20
-12.15186977386474
 30
-31.20578002929688
 10
999.9998168945312
 20
-13.38496971130371
 30
-28.22696113586426
 10
999.9998168945312
 20
-14.88928413391113
 30
-25.36963653564453
 10
999.9998168945312
 20
-16.65276527404785
 30
-22.65665817260742
 10
999.9998168945312
 20
-18.66060447692871
 30
-20.11082458496094
 10
999.9998168945312
 20
-20.89657211303711
 30
-17.75269889831543
 10
999.9998168945312
 20
-23.3421516418457
 30
-15.60183525085449
 10
999.9998168945312
 20
-25.97714233398438
 30
-13.67596340179443
 10
-1000.000183105469
 20
-25.97714233398438
 30
-13.67596340179443
 10
-1000.000183105469
 20
-23.3421516418457
 30
-15.60183906555176
 10
-1000.000183105469
 20
-20.89657211303711
 30
-17.75270271301269
 10
-1000.000183105469
 20
-18.66060447692871
 30
-20.11082458496094
 10
-1000.000183105469
 20
-16.65276336669922
 30
-22.65665817260742
 10
-1000.000183105469
 20
-14.8892822265625
 30
-25.36963653564453
 10
-1000.000183105469
 20
-13.38496971130371
 30
-28.22696113586426
 10
-1000.000183105469
 20
-12.15186977386474
 30
-31.20578002929688
 10
-1000.000183105469
 20
-11.20040798187256
 30
-34.28086090087891
 10
-1000.000183105469
 20
-10.49644947052002
 30
-36.80939102172852
 10
-1000.000183105469
 20
-9.603007316589355
 30
-39.06758880615234
 10
-1000.000183105469
 20
-8.450648307800292
 30
-41.21169281005859
 10
-1000.000183105469
 20
-7.05473518371582
 30
-43.21302032470703
 10
-1000.000183105469
 20
-5.433490753173828
 30
-45.04553985595703
 10
-1000.000183105469
 20
-3.607988357543945
 30
-46.68535614013672
 10
-1000.000183105469
 20
-1.602657556533813
 30
-48.1105728149414
 10
-1000.000183105469
 20
-0.0000385046005249
 30
-49.03533172607422
 10
999.9998168945312
 20
-0.0000385046005249
 30
-49.03533172607422
 10
999.9998168945312
 20
-1.602657556533813
 30
-48.1105728149414
 10
999.9998168945312
 20
-3.607988357543945
 30
-46.68535614013672
 10
999.9998168945312
 20
-5.433490753173828
 30
-45.04553985595703
 10
999.9998168945312
 20
-7.054736137390136
 30
-43.21302032470703
 10
999.9998168945312
 20
-8.450649261474609
 30
-41.21169281005859
 10
999.9998168945312
 20
-9.603008270263671
 30
-39.06758880615234
 10
999.9998168945312
 20
-10.49645042419433
 30
-36.80939102172852
 10
999.9998168945312
 20
-1.431773424148559
 30
-66.86356353759766
 10
-1000.000183105469
 20
-1.431773424148559
 30
-66.86356353759766
 10
-1000.000183105469
 20
-1.431771278381347
 30
-108.223388671875
 10
999.9998168945312
 20
-1.431771278381347
 30
-108.223388671875
 10
-1000.000183105469
 20
-0.4004565477371216
 30
-110.8739395141601
 10
-1000.000183105469
 20
-0.0000430345535278
 30
-111.2889785766601
 10
999.9998168945312
 20
-0.0000449419021606
 30
-111.2889785766601
 10
-1000.000183105469
 20
-56.6994400024414
 30
-0.5233776569366455
 10
-1000.000183105469
 20
-56.45545196533203
 30
-0.8032848834991455
 10
-1000.000183105469
 20
-56.15868377685547
 30
-1.029282808303833
 10
-1000.000183105469
 20
-55.8211441040039
 30
-1.192242860794067
 10
-1000.000183105469
 20
-55.45697021484375
 30
-1.285333156585693
 10
-1000.000183105469
 20
-55.08089447021484
 30
-1.30478811264038
 10
-1000.000183105469
 20
-54.70873260498047
 30
-1.249806880950927
 10
999.9998168945312
 20
-54.70873260498047
 30
-1.249803066253662
 10
999.9998168945312
 20
-55.08089447021484
 30
-1.304784297943115
 10
999.9998168945312
 20
-55.45697021484375
 30
-1.285329341888427
 10
999.9998168945312
 20
-55.8211441040039
 30
-1.192239046096801
 10
999.9998168945312
 20
-56.15868377685547
 30
-1.029278993606567
 10
999.9998168945312
 20
-56.45545196533203
 30
-0.8032810688018798
 10
999.9998168945312
 20
-56.6994400024414
 30
-0.5233738422393799
 10
-1000.000183105469
 20
-51.65465545654297
 30
0.000002384185791
 10
999.9998168945312
 20
-51.65465545654297
 30
0.0000061988830566
 10
999.9998168945312
 20
-56.96063232421875
 30
0.0000063180923462
 10
-1000.000183105469
 20
-56.96063232421875
 30
0.0000025033950806
 10
-1000.000183105469
 20
-0.7244200706481934
 30
-118.5065307617187
 10
-1000.000183105469
 20
-1.038115978240966
 30
-118.8650588989258
 10
-1000.000183105469
 20
-1.246158123016357
 30
-119.2905197143554
 10
-1000.000183105469
 20
-1.334407329559326
 30
-119.7539825439453
 10
-1000.000183105469
 20
-1.296861171722412
 30
-120.2239532470703
 10
-1000.000183105469
 20
-1.136071681976318
 30
-120.6684875488281
 10
-1000.000183105469
 20
-0.8629717826843261
 30
-121.0573501586914
 10
-1000.000183105469
 20
-0.4961221218109131
 30
-121.3641204833984
 10
999.9998168945312
 20
-0.4961221218109131
 30
-121.3641128540039
 10
999.9998168945312
 20
-0.8629717826843261
 30
-121.0573501586914
 10
999.9998168945312
 20
-1.136071681976318
 30
-120.6684799194336
 10
999.9998168945312
 20
-1.296861171722412
 30
-120.2239456176757
 10
999.9998168945312
 20
-1.334409236907958
 30
-119.7539749145507
 10
999.9998168945312
 20
-1.24616003036499
 30
-119.2905197143554
 10
999.9998168945312
 20
-1.038117885589599
 30
-118.8650588989258
 10
999.9998168945312
 20
-0.7244219779968262
 30
-118.5065307617187
 10
-1000.000183105469
 20
-0.0000416040420532
 30
-121.5955810546875
 10
999.9998168945312
 20
-0.0000416040420532
 30
-121.5955734252929
 10
999.9998168945312
 20
-0.0000452995300293
 30
-118.0832748413086
 10
-1000.000183105469
 20
-0.0000433921813965
 30
-118.0832748413086
 10
999.9998168945312
 20
-43.28693008422852
 30
-3.832826614379882
 10
999.9998168945312
 20
-44.32181167602538
 30
-3.042303085327148
 10
999.9998168945312
 20
-45.16215515136718
 30
-2.0562264919281
 10
999.9998168945312
 20
-45.76993560791016
 30
-0.919217824935913
 10
999.9998168945312
 20
-46.06477737426757
 30
0.000005841255188
 10
-1000.000183105469
 20
-46.06477737426757
 30
0.0000020265579224
 10
-1000.000183105469
 20
-45.76993560791016
 30
-0.9192216396331787
 10
-1000.000183105469
 20
-45.16215515136718
 30
-2.056230306625366
 10
-1000.000183105469
 20
-44.32181167602538
 30
-3.042303085327148
 10
-1000.000183105469
 20
-43.28693008422852
 30
-3.832826614379882
 10
999.9998168945312
 20
-0.4004584550857544
 30
-110.8739395141601
 10
999.9998168945312
 20
-0.9980401992797851
 30
-110.0013351440429
 10
999.9998168945312
 20
-1.343754768371582
 30
-109.0076370239257
 10
-1000.000183105469
 20
-1.343754768371582
 30
-109.0076370239257
 10
-1000.000183105469
 20
-0.9980401992797851
 30
-110.0013351440429
 10
-1000.000183105469
 20
-46.44146728515624
 30
-13.91510581970215
 10
-1000.000183105469
 20
-46.5147819519043
 30
-13.77474784851074
 10
-1000.000183105469
 20
-46.62893295288085
 30
-13.66337394714355
 10
-1000.000183105469
 20
-46.77278137207031
 30
-13.59184837341308
 10
999.9998168945312
 20
-46.77278137207031
 30
-13.59184455871582
 10
999.9998168945312
 20
-46.62893295288085
 30
-13.66337394714355
 10
999.9998168945312
 20
-46.5147819519043
 30
-13.77474784851074
 10
999.9998168945312
 20
-46.44146728515624
 30
-13.91510200500488
 10
-1000.000183105469
 20
-15.9085464477539
 30
-48.54460906982422
 10
-1000.000183105469
 20
-15.98185920715332
 30
-48.40425872802734
 10
-1000.000183105469
 20
-16.09601020812988
 30
-48.29288482666015
 10
-1000.000183105469
 20
-16.23986053466797
 30
-48.22135543823242
 10
999.9998168945312
 20
-16.23986053466797
 30
-48.22135543823242
 10
999.9998168945312
 20
-16.09601020812988
 30
-48.29288482666015
 10
999.9998168945312
 20
-15.98185920715332
 30
-48.40425872802734
 10
999.9998168945312
 20
-15.9085464477539
 30
-48.54460906982422
 10
-1000.000183105469
 20
-11.894287109375
 30
-102.0775756835937
 10
-1000.000183105469
 20
-11.79055118560791
 30
-101.9181900024414
 10
999.9998168945312
 20
-11.79055213928222
 30
-101.9181900024414
 10
999.9998168945312
 20
-11.89428806304931
 30
-102.0775756835937
 10
-1000.000183105469
 20
-15.1025161743164
 30
-106.7672729492187
 10
-1000.000183105469
 20
-14.99878120422363
 30
-106.6078796386719
 10
999.9998168945312
 20
-14.99878120422363
 30
-106.6078796386719
 10
999.9998168945312
 20
-15.1025161743164
 30
-106.7672729492187
 10
-1000.000183105469
 20
-11.77955055236816
 30
-54.08388137817382
 10
-1000.000183105469
 20
-11.85286331176758
 30
-53.94352722167969
 10
-1000.000183105469
 20
-11.96701431274414
 30
-53.8321533203125
 10
-1000.000183105469
 20
-12.11086463928223
 30
-53.76062393188476
 10
999.9998168945312
 20
-12.11086559295654
 30
-53.76062393188476
 10
999.9998168945312
 20
-11.96701526641845
 30
-53.8321533203125
 10
999.9998168945312
 20
-11.85286426544189
 30
-53.94352722167969
 10
999.9998168945312
 20
-11.77955150604248
 30
-54.08388137817382
 10
999.9998168945312
 20
-0.8357667922973632
 30
-65.95079040527344
 10
999.9998168945312
 20
-0.0000430345535278
 30
-65.57056427001953
 10
-1000.000183105469
 20
-0.000041127204895
 30
-65.57056427001953
 10
-1000.000183105469
 20
-0.8357667922973632
 30
-65.95079040527344
 10
999.9998168945312
 20
-1.405301094055175
 30
-66.63699340820312
 10
999.9998168945312
 20
-1.327317237854003
 30
-66.42211151123047
 10
999.9998168945312
 20
-1.201695442199707
 30
-66.22972106933594
 10
999.9998168945312
 20
-1.035050392150878
 30
-66.06995391845703
 10
-1000.000183105469
 20
-1.035050392150878
 30
-66.06995391845703
 10
-1000.000183105469
 20
-1.201695442199707
 30
-66.22972106933594
 10
-1000.000183105469
 20
-1.327317237854003
 30
-66.42211151123047
 10
-1000.000183105469
 20
-1.405301094055175
 30
-66.63699340820312
 10
-1000.000183105469
 20
-0.2031848430633545
 30
-58.98614501953125
 10
-1000.000183105469
 20
-0.0000388622283936
 30
-59.06344223022461
 10
999.9998168945312
 20
-0.0000388622283936
 30
-59.06344223022461
 10
999.9998168945312
 20
-0.000038743019104
 30
-55.55113601684571
 10
-1000.000183105469
 20
-0.000038743019104
 30
-55.55113601684571
 10
-1000.000183105469
 20
-0.6318442821502686
 30
-55.8982048034668
 10
-1000.000183105469
 20
-0.9688727855682373
 30
-56.23596954345703
 10
-1000.000183105469
 20
-1.204954862594604
 30
-56.64726257324218
 10
-1000.000183105469
 20
-1.324043989181518
 30
-57.1041145324707
 10
-1000.000183105469
 20
-1.31804347038269
 30
-57.57547760009765
 10
-1000.000183105469
 20
-1.187359571456909
 30
-58.02930450439453
 10
-1000.000183105469
 20
-0.9408767223358154
 30
-58.43474578857422
 10
-1000.000183105469
 20
-0.595350980758667
 30
-58.76423645019531
 10
999.9998168945312
 20
-0.2031848430633545
 30
-58.98614501953125
 10
999.9998168945312
 20
-0.595350980758667
 30
-58.76423645019531
 10
999.9998168945312
 20
-0.9408767223358154
 30
-58.43474578857422
 10
999.9998168945312
 20
-1.187359571456909
 30
-58.02930450439453
 10
999.9998168945312
 20
-1.31804347038269
 30
-57.57547760009765
 10
999.9998168945312
 20
-1.324043989181518
 30
-57.1041145324707
 10
999.9998168945312
 20
-1.204956769943237
 30
-56.64726257324218
 10
999.9998168945312
 20
-0.9688727855682373
 30
-56.23596954345703
 10
999.9998168945312
 20
-0.6318442821502686
 30
-55.8982048034668
 93
     1823
 90
        4
 90
      164
 90
      162
 90
      163
 90
      165
 90
        4
 90
      162
 90
      160
 90
      161
 90
      163
 90
        4
 90
      160
 90
      142
 90
      143
 90
      161
 90
        4
 90
      142
 90
      159
 90
      144
 90
      143
 90
        4
 90
      159
 90
      158
 90
      145
 90
      144
 90
        4
 90
      158
 90
      157
 90
      146
 90
      145
 90
        4
 90
      157
 90
      156
 90
      147
 90
      146
 90
        4
 90
      156
 90
      155
 90
      148
 90
      147
 90
        4
 90
      155
 90
      154
 90
      149
 90
      148
 90
        4
 90
      154
 90
      153
 90
      150
 90
      149
 90
        4
 90
      153
 90
      152
 90
      151
 90
      150
 90
        4
 90
      152
 90
      140
 90
      141
 90
      151
 90
        4
 90
      140
 90
      128
 90
      129
 90
      141
 90
        4
 90
      128
 90
      127
 90
      130
 90
      129
 90
        4
 90
      127
 90
      126
 90
      131
 90
      130
 90
        4
 90
      126
 90
      125
 90
      132
 90
      131
 90
        4
 90
      125
 90
      124
 90
      133
 90
      132
 90
        4
 90
      124
 90
      123
 90
      134
 90
      133
 90
        4
 90
      123
 90
      122
 90
      135
 90
      134
 90
        4
 90
      122
 90
      121
 90
      136
 90
      135
 90
        4
 90
      121
 90
      120
 90
      137
 90
      136
 90
        4
 90
      120
 90
      119
 90
      138
 90
      137
 90
        4
 90
      119
 90
      118
 90
      139
 90
      138
 90
        4
 90
      118
 90
      117
 90
      115
 90
      139
 90
        4
 90
      117
 90
      114
 90
      116
 90
      115
 90
        4
 90
      114
 90
      287
 90
      284
 90
      116
 90
        4
 90
      287
 90
      286
 90
      285
 90
      284
 90
        4
 90
      286
 90
      112
 90
      113
 90
      285
 90
        4
 90
      112
 90
      109
 90
      110
 90
      113
 90
        4
 90
      109
 90
      108
 90
      111
 90
      110
 90
        4
 90
      108
 90
      283
 90
      280
 90
      111
 90
        4
 90
      283
 90
      282
 90
      281
 90
      280
 90
        4
 90
      282
 90
      105
 90
      106
 90
      281
 90
        4
 90
      105
 90
      104
 90
      107
 90
      106
 90
        4
 90
      104
 90
      295
 90
      288
 90
      107
 90
        4
 90
      295
 90
      294
 90
      289
 90
      288
 90
        4
 90
      294
 90
      293
 90
      290
 90
      289
 90
        4
 90
      293
 90
      292
 90
      291
 90
      290
 90
        4
 90
      292
 90
      102
 90
      103
 90
      291
 90
        4
 90
      102
 90
       99
 90
      100
 90
      103
 90
        4
 90
       99
 90
       98
 90
      101
 90
      100
 90
        4
 90
       98
 90
      279
 90
      272
 90
      101
 90
        4
 90
      279
 90
      278
 90
      273
 90
      272
 90
        4
 90
      278
 90
      277
 90
      274
 90
      273
 90
        4
 90
      277
 90
      276
 90
      275
 90
      274
 90
        4
 90
      276
 90
       96
 90
       97
 90
      275
 90
        4
 90
       96
 90
       94
 90
       95
 90
       97
 90
        4
 90
       94
 90
       36
 90
       37
 90
       95
 90
        4
 90
       36
 90
       93
 90
       38
 90
       37
 90
        4
 90
       93
 90
       92
 90
       39
 90
       38
 90
        4
 90
       92
 90
       91
 90
       40
 90
       39
 90
        4
 90
       91
 90
       90
 90
       41
 90
       40
 90
        4
 90
       90
 90
       89
 90
       42
 90
       41
 90
        4
 90
       89
 90
       88
 90
       43
 90
       42
 90
        4
 90
       88
 90
       87
 90
       44
 90
       43
 90
        4
 90
       87
 90
       86
 90
       45
 90
       44
 90
        4
 90
       86
 90
       85
 90
       46
 90
       45
 90
        4
 90
       85
 90
       84
 90
       47
 90
       46
 90
        4
 90
       84
 90
       83
 90
       48
 90
       47
 90
        4
 90
       83
 90
       82
 90
       49
 90
       48
 90
        4
 90
       82
 90
       81
 90
       50
 90
       49
 90
        4
 90
       81
 90
       80
 90
       51
 90
       50
 90
        4
 90
       80
 90
       79
 90
       52
 90
       51
 90
        4
 90
       79
 90
       78
 90
       53
 90
       52
 90
        4
 90
       78
 90
       77
 90
       54
 90
       53
 90
        4
 90
       77
 90
       76
 90
       55
 90
       54
 90
        4
 90
       76
 90
       75
 90
       56
 90
       55
 90
        4
 90
       75
 90
       74
 90
       57
 90
       56
 90
        4
 90
       74
 90
       73
 90
       58
 90
       57
 90
        4
 90
       73
 90
       72
 90
       59
 90
       58
 90
        4
 90
       72
 90
       71
 90
       60
 90
       59
 90
        4
 90
       71
 90
       70
 90
       61
 90
       60
 90
        4
 90
       70
 90
       69
 90
       62
 90
       61
 90
        4
 90
       69
 90
       68
 90
       63
 90
       62
 90
        4
 90
       68
 90
       67
 90
       64
 90
       63
 90
        4
 90
       67
 90
       66
 90
       65
 90
       64
 90
        4
 90
       66
 90
       33
 90
       34
 90
       65
 90
        4
 90
       33
 90
       32
 90
       35
 90
       34
 90
        4
 90
       32
 90
      271
 90
      264
 90
       35
 90
        4
 90
      271
 90
      270
 90
      265
 90
      264
 90
        4
 90
      270
 90
      269
 90
      266
 90
      265
 90
        4
 90
      269
 90
      268
 90
      267
 90
      266
 90
        4
 90
      268
 90
       30
 90
       31
 90
      267
 90
        4
 90
       30
 90
       23
 90
       24
 90
       31
 90
        4
 90
       23
 90
       22
 90
       25
 90
       24
 90
        4
 90
       22
 90
       21
 90
       26
 90
       25
 90
        4
 90
       21
 90
       20
 90
       27
 90
       26
 90
        4
 90
       20
 90
       19
 90
       28
 90
       27
 90
        4
 90
       19
 90
       18
 90
       29
 90
       28
 90
        4
 90
       18
 90
        6
 90
        7
 90
       29
 90
        4
 90
        6
 90
       17
 90
        8
 90
        7
 90
        4
 90
       17
 90
       16
 90
        9
 90
        8
 90
        4
 90
       16
 90
       15
 90
       10
 90
        9
 90
        4
 90
       15
 90
       14
 90
       11
 90
       10
 90
        4
 90
       14
 90
       13
 90
       12
 90
       11
 90
        4
 90
       13
 90
        4
 90
        5
 90
       12
 90
        4
 90
        4
 90
        1
 90
        2
 90
        5
 90
        4
 90
        1
 90
        0
 90
        3
 90
        2
 90
        4
 90
        0
 90
      227
 90
      228
 90
        3
 90
        4
 90
      227
 90
      224
 90
      211
 90
      228
 90
        4
 90
      224
 90
      223
 90
      212
 90
      211
 90
        4
 90
      223
 90
      222
 90
      213
 90
      212
 90
        4
 90
      222
 90
      221
 90
      214
 90
      213
 90
        4
 90
      221
 90
      220
 90
      215
 90
      214
 90
        4
 90
      220
 90
      219
 90
      216
 90
      215
 90
        4
 90
      219
 90
      218
 90
      217
 90
      216
 90
        4
 90
      218
 90
      226
 90
      225
 90
      217
 90
        4
 90
      226
 90
      253
 90
      254
 90
      225
 90
        4
 90
      253
 90
      252
 90
      255
 90
      254
 90
        4
 90
      252
 90
      251
 90
      256
 90
      255
 90
        4
 90
      251
 90
      250
 90
      257
 90
      256
 90
        4
 90
      250
 90
      249
 90
      258
 90
      257
 90
        4
 90
      249
 90
      166
 90
      167
 90
      258
 90
        4
 90
      166
 90
      169
 90
      168
 90
      167
 90
        4
 90
      169
 90
      178
 90
      179
 90
      168
 90
        4
 90
      178
 90
      177
 90
      180
 90
      179
 90
        4
 90
      177
 90
      176
 90
      181
 90
      180
 90
        4
 90
      176
 90
      175
 90
      182
 90
      181
 90
        4
 90
      175
 90
      174
 90
      183
 90
      182
 90
        4
 90
      174
 90
      173
 90
      184
 90
      183
 90
        4
 90
      173
 90
      172
 90
      185
 90
      184
 90
        4
 90
      172
 90
      171
 90
      186
 90
      185
 90
        4
 90
      171
 90
      170
 90
      187
 90
      186
 90
        4
 90
      170
 90
      203
 90
      188
 90
      187
 90
        4
 90
      203
 90
      202
 90
      189
 90
      188
 90
        4
 90
      202
 90
      201
 90
      190
 90
      189
 90
        4
 90
      201
 90
      200
 90
      191
 90
      190
 90
        4
 90
      200
 90
      199
 90
      192
 90
      191
 90
        4
 90
      199
 90
      198
 90
      193
 90
      192
 90
        4
 90
      198
 90
      197
 90
      194
 90
      193
 90
        4
 90
      197
 90
      196
 90
      195
 90
      194
 90
        4
 90
      196
 90
      311
 90
      312
 90
      195
 90
        4
 90
      311
 90
      329
 90
      313
 90
      312
 90
        4
 90
      329
 90
      328
 90
      314
 90
      313
 90
        4
 90
      328
 90
      327
 90
      315
 90
      314
 90
        4
 90
      327
 90
      326
 90
      316
 90
      315
 90
        4
 90
      326
 90
      325
 90
      317
 90
      316
 90
        4
 90
      325
 90
      324
 90
      318
 90
      317
 90
        4
 90
      324
 90
      323
 90
      319
 90
      318
 90
        4
 90
      323
 90
      322
 90
      320
 90
      319
 90
        4
 90
      322
 90
      321
 90
      308
 90
      320
 90
        4
 90
      321
 90
      310
 90
      309
 90
      308
 90
        4
 90
      310
 90
      297
 90
      298
 90
      309
 90
        4
 90
      297
 90
      296
 90
      299
 90
      298
 90
        4
 90
      296
 90
      303
 90
      304
 90
      299
 90
        4
 90
      303
 90
      302
 90
      305
 90
      304
 90
        4
 90
      302
 90
      301
 90
      306
 90
      305
 90
        4
 90
      301
 90
      300
 90
      307
 90
      306
 90
        4
 90
      300
 90
      204
 90
      205
 90
      307
 90
        4
 90
      204
 90
      207
 90
      206
 90
      205
 90
        4
 90
      207
 90
      261
 90
      262
 90
      206
 90
        4
 90
      261
 90
      260
 90
      263
 90
      262
 90
        4
 90
      260
 90
      259
 90
      208
 90
      263
 90
        4
 90
      259
 90
      210
 90
      209
 90
      208
 90
        4
 90
      210
 90
      247
 90
      248
 90
      209
 90
        4
 90
      247
 90
      244
 90
      229
 90
      248
 90
        4
 90
      244
 90
      243
 90
      230
 90
      229
 90
        4
 90
      243
 90
      242
 90
      231
 90
      230
 90
        4
 90
      242
 90
      241
 90
      232
 90
      231
 90
        4
 90
      241
 90
      240
 90
      233
 90
      232
 90
        4
 90
      240
 90
      239
 90
      234
 90
      233
 90
        4
 90
      239
 90
      238
 90
      235
 90
      234
 90
        4
 90
      238
 90
      237
 90
      236
 90
      235
 90
        4
 90
      237
 90
      246
 90
      245
 90
      236
 90
        4
 90
      246
 90
      164
 90
      165
 90
      245
 90
        4
 90
        2
 90
        3
 90
      228
 90
        5
 90
        3
 90
      228
 90
      211
 90
        5
 90
        4
 90
      211
 90
      212
 90
       12
 90
        5
 90
        3
 90
      212
 90
      213
 90
       12
 90
        4
 90
      213
 90
      214
 90
       11
 90
       12
 90
        3
 90
      214
 90
      215
 90
       11
 90
        4
 90
      215
 90
      216
 90
       10
 90
       11
 90
        3
 90
      216
 90
      217
 90
       10
 90
        4
 90
      217
 90
      255
 90
        9
 90
       10
 90
        4
 90
      217
 90
      225
 90
      254
 90
      255
 90
        3
 90
      255
 90
        8
 90
        9
 90
        4
 90
      255
 90
      256
 90
        7
 90
        8
 90
        3
 90
      256
 90
       29
 90
        7
 90
        4
 90
      256
 90
      257
 90
       28
 90
       29
 90
        4
 90
      257
 90
      258
 90
       26
 90
       27
 90
        3
 90
      257
 90
       27
 90
       28
 90
        4
 90
      258
 90
      167
 90
       24
 90
       25
 90
        3
 90
      258
 90
       25
 90
       26
 90
        3
 90
      167
 90
      267
 90
       31
 90
        3
 90
      167
 90
       31
 90
       24
 90
        4
 90
      167
 90
      168
 90
      265
 90
      266
 90
        3
 90
      167
 90
      266
 90
      267
 90
        3
 90
      168
 90
       35
 90
      264
 90
        3
 90
      168
 90
      264
 90
      265
 90
        4
 90
      168
 90
       65
 90
       34
 90
       35
 90
        3
 90
      168
 90
       64
 90
       65
 90
        3
 90
      168
 90
       61
 90
       62
 90
        3
 90
      168
 90
       62
 90
       63
 90
        3
 90
      168
 90
       63
 90
       64
 90
        4
 90
      168
 90
      179
 90
       58
 90
       59
 90
        3
 90
      168
 90
       59
 90
       60
 90
        3
 90
      168
 90
       60
 90
       61
 90
        3
 90
      179
 90
       55
 90
       56
 90
        3
 90
      179
 90
       56
 90
       57
 90
        3
 90
      179
 90
       57
 90
       58
 90
        4
 90
      179
 90
      180
 90
       54
 90
       55
 90
        4
 90
      180
 90
      181
 90
       51
 90
       52
 90
        3
 90
      180
 90
       52
 90
       53
 90
        3
 90
      180
 90
       53
 90
       54
 90
        4
 90
      181
 90
      182
 90
       49
 90
       50
 90
        3
 90
      181
 90
       50
 90
       51
 90
        4
 90
      182
 90
      183
 90
       47
 90
       48
 90
        4
 90
      183
 90
      184
 90
       46
 90
       47
 90
        3
 90
      182
 90
       48
 90
       49
 90
        4
 90
      184
 90
      185
 90
       44
 90
       45
 90
        3
 90
      184
 90
       45
 90
       46
 90
        4
 90
      185
 90
      186
 90
       42
 90
       43
 90
        3
 90
      185
 90
       43
 90
       44
 90
        4
 90
      186
 90
      187
 90
       40
 90
       41
 90
        3
 90
      186
 90
       41
 90
       42
 90
        4
 90
      187
 90
      188
 90
       38
 90
       39
 90
        3
 90
      187
 90
       39
 90
       40
 90
        4
 90
      188
 90
      189
 90
       95
 90
       37
 90
        3
 90
      188
 90
       37
 90
       38
 90
        4
 90
      189
 90
      190
 90
       97
 90
       95
 90
        3
 90
      190
 90
      274
 90
      275
 90
        3
 90
      190
 90
      275
 90
       97
 90
        4
 90
      190
 90
      191
 90
      272
 90
      273
 90
        3
 90
      190
 90
      273
 90
      274
 90
        4
 90
      191
 90
      192
 90
      100
 90
      101
 90
        3
 90
      191
 90
      101
 90
      272
 90
        4
 90
      192
 90
      193
 90
      103
 90
      100
 90
        3
 90
      193
 90
      290
 90
      291
 90
        3
 90
      193
 90
      291
 90
      103
 90
        4
 90
      193
 90
      194
 90
      288
 90
      289
 90
        3
 90
      193
 90
      289
 90
      290
 90
        4
 90
      194
 90
      195
 90
      107
 90
      288
 90
        4
 90
      195
 90
      312
 90
      313
 90
      107
 90
        4
 90
      308
 90
      309
 90
      298
 90
      299
 90
        3
 90
      313
 90
      314
 90
      107
 90
        3
 90
      315
 90
      316
 90
      107
 90
        3
 90
      314
 90
      315
 90
      107
 90
        3
 90
      316
 90
      317
 90
      107
 90
        3
 90
      317
 90
      307
 90
      107
 90
        4
 90
      320
 90
      308
 90
      299
 90
      304
 90
        4
 90
      319
 90
      320
 90
      304
 90
      305
 90
        4
 90
      318
 90
      319
 90
      305
 90
      306
 90
        4
 90
      317
 90
      318
 90
      306
 90
      307
 90
        3
 90
      307
 90
      205
 90
      107
 90
        4
 90
      205
 90
      206
 90
      106
 90
      107
 90
        4
 90
      206
 90
      262
 90
      281
 90
      106
 90
        3
 90
      262
 90
      280
 90
      281
 90
        3
 90
      262
 90
      111
 90
      280
 90
        3
 90
      262
 90
      110
 90
      111
 90
        3
 90
      262
 90
      113
 90
      110
 90
        4
 90
      262
 90
      263
 90
      284
 90
      285
 90
        3
 90
      262
 90
      285
 90
      113
 90
        3
 90
      263
 90
      116
 90
      284
 90
        4
 90
      263
 90
      208
 90
      115
 90
      116
 90
        4
 90
      208
 90
      209
 90
      139
 90
      115
 90
        3
 90
      209
 90
      138
 90
      139
 90
        3
 90
      209
 90
      137
 90
      138
 90
        4
 90
      209
 90
      248
 90
      136
 90
      137
 90
        4
 90
      229
 90
      230
 90
      135
 90
      136
 90
        3
 90
      248
 90
      229
 90
      136
 90
        4
 90
      230
 90
      231
 90
      134
 90
      135
 90
        4
 90
      231
 90
      232
 90
      133
 90
      134
 90
        4
 90
      232
 90
      233
 90
      132
 90
      133
 90
        4
 90
      233
 90
      234
 90
      131
 90
      132
 90
        4
 90
      234
 90
      235
 90
      130
 90
      131
 90
        4
 90
      235
 90
      236
 90
      129
 90
      130
 90
        4
 90
      236
 90
      245
 90
      141
 90
      129
 90
        3
 90
      245
 90
      151
 90
      141
 90
        4
 90
      165
 90
      163
 90
      161
 90
      143
 90
        3
 90
      165
 90
      143
 90
      144
 90
        3
 90
      165
 90
      144
 90
      145
 90
        3
 90
      165
 90
      145
 90
      146
 90
        3
 90
      165
 90
      146
 90
      147
 90
        3
 90
      245
 90
      149
 90
      150
 90
        3
 90
      245
 90
      150
 90
      151
 90
        4
 90
      245
 90
      165
 90
      147
 90
      148
 90
        3
 90
      245
 90
      148
 90
      149
 90
        4
 90
        1
 90
        4
 90
      227
 90
        0
 90
        3
 90
      227
 90
        4
 90
      224
 90
        4
 90
      224
 90
        4
 90
       13
 90
      223
 90
        3
 90
      223
 90
       13
 90
      222
 90
        4
 90
      222
 90
       13
 90
       14
 90
      221
 90
        3
 90
      221
 90
       14
 90
      220
 90
        4
 90
      220
 90
       14
 90
       15
 90
      219
 90
        3
 90
      219
 90
       15
 90
      218
 90
        4
 90
      218
 90
       15
 90
       16
 90
      252
 90
        4
 90
      218
 90
      252
 90
      253
 90
      226
 90
        3
 90
      252
 90
       16
 90
       17
 90
        4
 90
      252
 90
       17
 90
        6
 90
      251
 90
        3
 90
      251
 90
        6
 90
       18
 90
        4
 90
      251
 90
       18
 90
       19
 90
      250
 90
        4
 90
      250
 90
       20
 90
       21
 90
      249
 90
        3
 90
      250
 90
       19
 90
       20
 90
        4
 90
      249
 90
       22
 90
       23
 90
      166
 90
        3
 90
      249
 90
       21
 90
       22
 90
        3
 90
      166
 90
       30
 90
      268
 90
        3
 90
      166
 90
       23
 90
       30
 90
        4
 90
      166
 90
      269
 90
      270
 90
      169
 90
        3
 90
      166
 90
      268
 90
      269
 90
        3
 90
      169
 90
      271
 90
       32
 90
        3
 90
      169
 90
      270
 90
      271
 90
        4
 90
      169
 90
       32
 90
       33
 90
       66
 90
        3
 90
      169
 90
       66
 90
       67
 90
        3
 90
      169
 90
       69
 90
       70
 90
        3
 90
      169
 90
       68
 90
       69
 90
        3
 90
      169
 90
       67
 90
       68
 90
        4
 90
      169
 90
       72
 90
       73
 90
      178
 90
        3
 90
      169
 90
       71
 90
       72
 90
        3
 90
      169
 90
       70
 90
       71
 90
        3
 90
      178
 90
       75
 90
       76
 90
        3
 90
      178
 90
       74
 90
       75
 90
        3
 90
      178
 90
       73
 90
       74
 90
        4
 90
      178
 90
       76
 90
       77
 90
      177
 90
        4
 90
      177
 90
       79
 90
       80
 90
      176
 90
        3
 90
      177
 90
       78
 90
       79
 90
        3
 90
      177
 90
       77
 90
       78
 90
        4
 90
      176
 90
       81
 90
       82
 90
      175
 90
        3
 90
      176
 90
       80
 90
       81
 90
        4
 90
      175
 90
       83
 90
       84
 90
      174
 90
        4
 90
      174
 90
       84
 90
       85
 90
      173
 90
        3
 90
      175
 90
       82
 90
       83
 90
        4
 90
      173
 90
       86
 90
       87
 90
      172
 90
        3
 90
      173
 90
       85
 90
       86
 90
        4
 90
      172
 90
       88
 90
       89
 90
      171
 90
        3
 90
      172
 90
       87
 90
       88
 90
        4
 90
      171
 90
       90
 90
       91
 90
      170
 90
        3
 90
      171
 90
       89
 90
       90
 90
        4
 90
      170
 90
       92
 90
       93
 90
      203
 90
        3
 90
      170
 90
       91
 90
       92
 90
        4
 90
      203
 90
       36
 90
       94
 90
      202
 90
        3
 90
      203
 90
       93
 90
       36
 90
        4
 90
      202
 90
       94
 90
       96
 90
      201
 90
        3
 90
      201
 90
      276
 90
      277
 90
        3
 90
      201
 90
       96
 90
      276
 90
        4
 90
      201
 90
      278
 90
      279
 90
      200
 90
        3
 90
      201
 90
      277
 90
      278
 90
        4
 90
      200
 90
       98
 90
       99
 90
      199
 90
        3
 90
      200
 90
      279
 90
       98
 90
        4
 90
      199
 90
       99
 90
      102
 90
      198
 90
        3
 90
      198
 90
      292
 90
      293
 90
        3
 90
      198
 90
      102
 90
      292
 90
        4
 90
      198
 90
      294
 90
      295
 90
      197
 90
        3
 90
      198
 90
      293
 90
      294
 90
        4
 90
      197
 90
      295
 90
      104
 90
      196
 90
        4
 90
      196
 90
      104
 90
      329
 90
      311
 90
        4
 90
      321
 90
      296
 90
      297
 90
      310
 90
        3
 90
      329
 90
      104
 90
      328
 90
        3
 90
      327
 90
      104
 90
      326
 90
        3
 90
      328
 90
      104
 90
      327
 90
        3
 90
      326
 90
      104
 90
      325
 90
        3
 90
      325
 90
      104
 90
      300
 90
        4
 90
      322
 90
      303
 90
      296
 90
      321
 90
        4
 90
      323
 90
      302
 90
      303
 90
      322
 90
        4
 90
      324
 90
      301
 90
      302
 90
      323
 90
        4
 90
      325
 90
      300
 90
      301
 90
      324
 90
        3
 90
      300
 90
      104
 90
      204
 90
        4
 90
      204
 90
      104
 90
      105
 90
      207
 90
        4
 90
      207
 90
      105
 90
      282
 90
      261
 90
        3
 90
      261
 90
      282
 90
      283
 90
        3
 90
      261
 90
      283
 90
      108
 90
        3
 90
      261
 90
      108
 90
      109
 90
        3
 90
      261
 90
      109
 90
      112
 90
        4
 90
      261
 90
      286
 90
      287
 90
      260
 90
        3
 90
      261
 90
      112
 90
      286
 90
        3
 90
      260
 90
      287
 90
      114
 90
        4
 90
      260
 90
      114
 90
      117
 90
      259
 90
        4
 90
      259
 90
      117
 90
      118
 90
      210
 90
        3
 90
      210
 90
      118
 90
      119
 90
        3
 90
      210
 90
      119
 90
      120
 90
        4
 90
      210
 90
      120
 90
      121
 90
      247
 90
        4
 90
      244
 90
      121
 90
      122
 90
      243
 90
        3
 90
      247
 90
      121
 90
      244
 90
        4
 90
      243
 90
      122
 90
      123
 90
      242
 90
        4
 90
      242
 90
      123
 90
      124
 90
      241
 90
        4
 90
      241
 90
      124
 90
      125
 90
      240
 90
        4
 90
      240
 90
      125
 90
      126
 90
      239
 90
        4
 90
      239
 90
      126
 90
      127
 90
      238
 90
        4
 90
      238
 90
      127
 90
      128
 90
      237
 90
        4
 90
      237
 90
      128
 90
      140
 90
      246
 90
        3
 90
      246
 90
      140
 90
      152
 90
        4
 90
      164
 90
      142
 90
      160
 90
      162
 90
        3
 90
      164
 90
      159
 90
      142
 90
        3
 90
      164
 90
      158
 90
      159
 90
        3
 90
      164
 90
      157
 90
      158
 90
        3
 90
      164
 90
      156
 90
      157
 90
        3
 90
      246
 90
      153
 90
      154
 90
        3
 90
      246
 90
      152
 90
      153
 90
        4
 90
      246
 90
      155
 90
      156
 90
      164
 90
        3
 90
      246
 90
      154
 90
      155
 94
      717
 90
      162
 90
      164
 90
      162
 90
      163
 90
      163
 90
      165
 90
      164
 90
      165
 90
      160
 90
      162
 90
      160
 90
      161
 90
      161
 90
      163
 90
      142
 90
      160
 90
      142
 90
      143
 90
      143
 90
      161
 90
      142
 90
      159
 90
      144
 90
      159
 90
      143
 90
      144
 90
      158
 90
      159
 90
      145
 90
      158
 90
      144
 90
      145
 90
      157
 90
      158
 90
      146
 90
      157
 90
      145
 90
      146
 90
      156
 90
      157
 90
      147
 90
      156
 90
      146
 90
      147
 90
      155
 90
      156
 90
      148
 90
      155
 90
      147
 90
      148
 90
      154
 90
      155
 90
      149
 90
      154
 90
      148
 90
      149
 90
      153
 90
      154
 90
      150
 90
      153
 90
      149
 90
      150
 90
      152
 90
      153
 90
      151
 90
      152
 90
      150
 90
      151
 90
      140
 90
      152
 90
      140
 90
      141
 90
      141
 90
      151
 90
      128
 90
      140
 90
      128
 90
      129
 90
      129
 90
      141
 90
      127
 90
      128
 90
      127
 90
      130
 90
      129
 90
      130
 90
      126
 90
      127
 90
      126
 90
      131
 90
      130
 90
      131
 90
      125
 90
      126
 90
      125
 90
      132
 90
      131
 90
      132
 90
      124
 90
      125
 90
      124
 90
      133
 90
      132
 90
      133
 90
      123
 90
      124
 90
      123
 90
      134
 90
      133
 90
      134
 90
      122
 90
      123
 90
      122
 90
      135
 90
      134
 90
      135
 90
      121
 90
      122
 90
      121
 90
      136
 90
      135
 90
      136
 90
      120
 90
      121
 90
      120
 90
      137
 90
      136
 90
      137
 90
      119
 90
      120
 90
      119
 90
      138
 90
      137
 90
      138
 90
      118
 90
      119
 90
      118
 90
      139
 90
      138
 90
      139
 90
      117
 90
      118
 90
      115
 90
      117
 90
      115
 90
      139
 90
      114
 90
      117
 90
      114
 90
      116
 90
      115
 90
      116
 90
      114
 90
      287
 90
      284
 90
      287
 90
      116
 90
      284
 90
      286
 90
      287
 90
      285
 90
      286
 90
      284
 90
      285
 90
      112
 90
      286
 90
      112
 90
      113
 90
      113
 90
      285
 90
      109
 90
      112
 90
      109
 90
      110
 90
      110
 90
      113
 90
      108
 90
      109
 90
      108
 90
      111
 90
      110
 90
      111
 90
      108
 90
      283
 90
      280
 90
      283
 90
      111
 90
      280
 90
      282
 90
      283
 90
      281
 90
      282
 90
      280
 90
      281
 90
      105
 90
      282
 90
      105
 90
      106
 90
      106
 90
      281
 90
      104
 90
      105
 90
      104
 90
      107
 90
      106
 90
      107
 90
      104
 90
      295
 90
      288
 90
      295
 90
      107
 90
      288
 90
      294
 90
      295
 90
      289
 90
      294
 90
      288
 90
      289
 90
      293
 90
      294
 90
      290
 90
      293
 90
      289
 90
      290
 90
      292
 90
      293
 90
      291
 90
      292
 90
      290
 90
      291
 90
      102
 90
      292
 90
      102
 90
      103
 90
      103
 90
      291
 90
       99
 90
      102
 90
       99
 90
      100
 90
      100
 90
      103
 90
       98
 90
       99
 90
       98
 90
      101
 90
      100
 90
      101
 90
       98
 90
      279
 90
      272
 90
      279
 90
      101
 90
      272
 90
      278
 90
      279
 90
      273
 90
      278
 90
      272
 90
      273
 90
      277
 90
      278
 90
      274
 90
      277
 90
      273
 90
      274
 90
      276
 90
      277
 90
      275
 90
      276
 90
      274
 90
      275
 90
       96
 90
      276
 90
       96
 90
       97
 90
       97
 90
      275
 90
       94
 90
       96
 90
       94
 90
       95
 90
       95
 90
       97
 90
       36
 90
       94
 90
       36
 90
       37
 90
       37
 90
       95
 90
       36
 90
       93
 90
       38
 90
       93
 90
       37
 90
       38
 90
       92
 90
       93
 90
       39
 90
       92
 90
       38
 90
       39
 90
       91
 90
       92
 90
       40
 90
       91
 90
       39
 90
       40
 90
       90
 90
       91
 90
       41
 90
       90
 90
       40
 90
       41
 90
       89
 90
       90
 90
       42
 90
       89
 90
       41
 90
       42
 90
       88
 90
       89
 90
       43
 90
       88
 90
       42
 90
       43
 90
       87
 90
       88
 90
       44
 90
       87
 90
       43
 90
       44
 90
       86
 90
       87
 90
       45
 90
       86
 90
       44
 90
       45
 90
       85
 90
       86
 90
       46
 90
       85
 90
       45
 90
       46
 90
       84
 90
       85
 90
       47
 90
       84
 90
       46
 90
       47
 90
       83
 90
       84
 90
       48
 90
       83
 90
       47
 90
       48
 90
       82
 90
       83
 90
       49
 90
       82
 90
       48
 90
       49
 90
       81
 90
       82
 90
       50
 90
       81
 90
       49
 90
       50
 90
       80
 90
       81
 90
       51
 90
       80
 90
       50
 90
       51
 90
       79
 90
       80
 90
       52
 90
       79
 90
       51
 90
       52
 90
       78
 90
       79
 90
       53
 90
       78
 90
       52
 90
       53
 90
       77
 90
       78
 90
       54
 90
       77
 90
       53
 90
       54
 90
       76
 90
       77
 90
       55
 90
       76
 90
       54
 90
       55
 90
       75
 90
       76
 90
       56
 90
       75
 90
       55
 90
       56
 90
       74
 90
       75
 90
       57
 90
       74
 90
       56
 90
       57
 90
       73
 90
       74
 90
       58
 90
       73
 90
       57
 90
       58
 90
       72
 90
       73
 90
       59
 90
       72
 90
       58
 90
       59
 90
       71
 90
       72
 90
       60
 90
       71
 90
       59
 90
       60
 90
       70
 90
       71
 90
       61
 90
       70
 90
       60
 90
       61
 90
       69
 90
       70
 90
       62
 90
       69
 90
       61
 90
       62
 90
       68
 90
       69
 90
       63
 90
       68
 90
       62
 90
       63
 90
       67
 90
       68
 90
       64
 90
       67
 90
       63
 90
       64
 90
       66
 90
       67
 90
       65
 90
       66
 90
       64
 90
       65
 90
       33
 90
       66
 90
       33
 90
       34
 90
       34
 90
       65
 90
       32
 90
       33
 90
       32
 90
       35
 90
       34
 90
       35
 90
       32
 90
      271
 90
      264
 90
      271
 90
       35
 90
      264
 90
      270
 90
      271
 90
      265
 90
      270
 90
      264
 90
      265
 90
      269
 90
      270
 90
      266
 90
      269
 90
      265
 90
      266
 90
      268
 90
      269
 90
      267
 90
      268
 90
      266
 90
      267
 90
       30
 90
      268
 90
       30
 90
       31
 90
       31
 90
      267
 90
       23
 90
       30
 90
       23
 90
       24
 90
       24
 90
       31
 90
       22
 90
       23
 90
       22
 90
       25
 90
       24
 90
       25
 90
       21
 90
       22
 90
       21
 90
       26
 90
       25
 90
       26
 90
       20
 90
       21
 90
       20
 90
       27
 90
       26
 90
       27
 90
       19
 90
       20
 90
       19
 90
       28
 90
       27
 90
       28
 90
       18
 90
       19
 90
       18
 90
       29
 90
       28
 90
       29
 90
        6
 90
       18
 90
        6
 90
        7
 90
        7
 90
       29
 90
        6
 90
       17
 90
        8
 90
       17
 90
        7
 90
        8
 90
       16
 90
       17
 90
        9
 90
       16
 90
        8
 90
        9
 90
       15
 90
       16
 90
       10
 90
       15
 90
        9
 90
       10
 90
       14
 90
       15
 90
       11
 90
       14
 90
       10
 90
       11
 90
       13
 90
       14
 90
       12
 90
       13
 90
       11
 90
       12
 90
        4
 90
       13
 90
        4
 90
        5
 90
        5
 90
       12
 90
        1
 90
        4
 90
        1
 90
        2
 90
        2
 90
        5
 90
        0
 90
        1
 90
        0
 90
        3
 90
        2
 90
        3
 90
        0
 90
      227
 90
      227
 90
      228
 90
        3
 90
      228
 90
      224
 90
      227
 90
      211
 90
      224
 90
      211
 90
      228
 90
      223
 90
      224
 90
      212
 90
      223
 90
      211
 90
      212
 90
      222
 90
      223
 90
      213
 90
      222
 90
      212
 90
      213
 90
      221
 90
      222
 90
      214
 90
      221
 90
      213
 90
      214
 90
      220
 90
      221
 90
      215
 90
      220
 90
      214
 90
      215
 90
      219
 90
      220
 90
      216
 90
      219
 90
      215
 90
      216
 90
      218
 90
      219
 90
      217
 90
      218
 90
      216
 90
      217
 90
      218
 90
      226
 90
      225
 90
      226
 90
      217
 90
      225
 90
      226
 90
      253
 90
      253
 90
      254
 90
      225
 90
      254
 90
      252
 90
      253
 90
      252
 90
      255
 90
      254
 90
      255
 90
      251
 90
      252
 90
      251
 90
      256
 90
      255
 90
      256
 90
      250
 90
      251
 90
      250
 90
      257
 90
      256
 90
      257
 90
      249
 90
      250
 90
      249
 90
      258
 90
      257
 90
      258
 90
      166
 90
      249
 90
      166
 90
      167
 90
      167
 90
      258
 90
      166
 90
      169
 90
      168
 90
      169
 90
      167
 90
      168
 90
      169
 90
      178
 90
      178
 90
      179
 90
      168
 90
      179
 90
      177
 90
      178
 90
      177
 90
      180
 90
      179
 90
      180
 90
      176
 90
      177
 90
      176
 90
      181
 90
      180
 90
      181
 90
      175
 90
      176
 90
      175
 90
      182
 90
      181
 90
      182
 90
      174
 90
      175
 90
      174
 90
      183
 90
      182
 90
      183
 90
      173
 90
      174
 90
      173
 90
      184
 90
      183
 90
      184
 90
      172
 90
      173
 90
      172
 90
      185
 90
      184
 90
      185
 90
      171
 90
      172
 90
      171
 90
      186
 90
      185
 90
      186
 90
      170
 90
      171
 90
      170
 90
      187
 90
      186
 90
      187
 90
      170
 90
      203
 90
      188
 90
      203
 90
      187
 90
      188
 90
      202
 90
      203
 90
      189
 90
      202
 90
      188
 90
      189
 90
      201
 90
      202
 90
      190
 90
      201
 90
      189
 90
      190
 90
      200
 90
      201
 90
      191
 90
      200
 90
      190
 90
      191
 90
      199
 90
      200
 90
      192
 90
      199
 90
      191
 90
      192
 90
      198
 90
      199
 90
      193
 90
      198
 90
      192
 90
      193
 90
      197
 90
      198
 90
      194
 90
      197
 90
      193
 90
      194
 90
      196
 90
      197
 90
      195
 90
      196
 90
      194
 90
      195
 90
      196
 90
      311
 90
      311
 90
      312
 90
      195
 90
      312
 90
      311
 90
      329
 90
      313
 90
      329
 90
      312
 90
      313
 90
      328
 90
      329
 90
      314
 90
      328
 90
      313
 90
      314
 90
      327
 90
      328
 90
      315
 90
      327
 90
      314
 90
      315
 90
      326
 90
      327
 90
      316
 90
      326
 90
      315
 90
      316
 90
      325
 90
      326
 90
      317
 90
      325
 90
      316
 90
      317
 90
      324
 90
      325
 90
      318
 90
      324
 90
      317
 90
      318
 90
      323
 90
      324
 90
      319
 90
      323
 90
      318
 90
      319
 90
      322
 90
      323
 90
      320
 90
      322
 90
      319
 90
      320
 90
      321
 90
      322
 90
      308
 90
      321
 90
      308
 90
      320
 90
      310
 90
      321
 90
      309
 90
      310
 90
      308
 90
      309
 90
      297
 90
      310
 90
      297
 90
      298
 90
      298
 90
      309
 90
      296
 90
      297
 90
      296
 90
      299
 90
      298
 90
      299
 90
      296
 90
      303
 90
      303
 90
      304
 90
      299
 90
      304
 90
      302
 90
      303
 90
      302
 90
      305
 90
      304
 90
      305
 90
      301
 90
      302
 90
      301
 90
      306
 90
      305
 90
      306
 90
      300
 90
      301
 90
      300
 90
      307
 90
      306
 90
      307
 90
      204
 90
      300
 90
      204
 90
      205
 90
      205
 90
      307
 90
      204
 90
      207
 90
      206
 90
      207
 90
      205
 90
      206
 90
      207
 90
      261
 90
      261
 90
      262
 90
      206
 90
      262
 90
      260
 90
      261
 90
      260
 90
      263
 90
      262
 90
      263
 90
      259
 90
      260
 90
      208
 90
      259
 90
      208
 90
      263
 90
      210
 90
      259
 90
      209
 90
      210
 90
      208
 90
      209
 90
      210
 90
      247
 90
      247
 90
      248
 90
      209
 90
      248
 90
      244
 90
      247
 90
      229
 90
      244
 90
      229
 90
      248
 90
      243
 90
      244
 90
      230
 90
      243
 90
      229
 90
      230
 90
      242
 90
      243
 90
      231
 90
      242
 90
      230
 90
      231
 90
      241
 90
      242
 90
      232
 90
      241
 90
      231
 90
      232
 90
      240
 90
      241
 90
      233
 90
      240
 90
      232
 90
      233
 90
      239
 90
      240
 90
      234
 90
      239
 90
      233
 90
      234
 90
      238
 90
      239
 90
      235
 90
      238
 90
      234
 90
      235
 90
      237
 90
      238
 90
      236
 90
      237
 90
      235
 90
      236
 90
      237
 90
      246
 90
      245
 90
      246
 90
      236
 90
      245
 90
      164
 90
      246
 90
      165
 90
      245
 90
        5
 90
      228
 90
        5
 90
      211
 90
       12
 90
      212
 90
       12
 90
      213
 90
       11
 90
      214
 90
       11
 90
      215
 90
       10
 90
      216
 90
       10
 90
      217
 90
      217
 90
      255
 90
        9
 90
      255
 90
        8
 90
      255
 90
        7
 90
      256
 90
       29
 90
      256
 90
       28
 90
      257
 90
       26
 90
      258
 90
       27
 90
      257
 90
       24
 90
      167
 90
       25
 90
      258
 90
      167
 90
      267
 90
       31
 90
      167
 90
      168
 90
      265
 90
      167
 90
      266
 90
       35
 90
      168
 90
      168
 90
      264
 90
       65
 90
      168
 90
       64
 90
      168
 90
       61
 90
      168
 90
       62
 90
      168
 90
       63
 90
      168
 90
       58
 90
      179
 90
       59
 90
      168
 90
       60
 90
      168
 90
       55
 90
      179
 90
       56
 90
      179
 90
       57
 90
      179
 90
       54
 90
      180
 90
       51
 90
      181
 90
       52
 90
      180
 90
       53
 90
      180
 90
       49
 90
      182
 90
       50
 90
      181
 90
       47
 90
      183
 90
       48
 90
      182
 90
       46
 90
      184
 90
       44
 90
      185
 90
       45
 90
      184
 90
       42
 90
      186
 90
       43
 90
      185
 90
       40
 90
      187
 90
       41
 90
      186
 90
       38
 90
      188
 90
       39
 90
      187
 90
       95
 90
      189
 90
       37
 90
      188
 90
       97
 90
      190
 90
      190
 90
      274
 90
      190
 90
      275
 90
      191
 90
      272
 90
      190
 90
      273
 90
      100
 90
      192
 90
      101
 90
      191
 90
      103
 90
      193
 90
      193
 90
      290
 90
      193
 90
      291
 90
      194
 90
      288
 90
      193
 90
      289
 90
      107
 90
      195
 90
      107
 90
      313
 90
      299
 90
      308
 90
      107
 90
      314
 90
      107
 90
      316
 90
      107
 90
      315
 90
      107
 90
      317
 90
      307
 90
      317
 90
      107
 90
      307
 90
      304
 90
      320
 90
      305
 90
      319
 90
      306
 90
      318
 90
      107
 90
      205
 90
      106
 90
      206
 90
      262
 90
      281
 90
      262
 90
      280
 90
      111
 90
      262
 90
      110
 90
      262
 90
      113
 90
      262
 90
      263
 90
      284
 90
      262
 90
      285
 90
      116
 90
      263
 90
      115
 90
      208
 90
      139
 90
      209
 90
      138
 90
      209
 90
      137
 90
      209
 90
      136
 90
      248
 90
      135
 90
      230
 90
      136
 90
      229
 90
      134
 90
      231
 90
      133
 90
      232
 90
      132
 90
      233
 90
      131
 90
      234
 90
      130
 90
      235
 90
      129
 90
      236
 90
      141
 90
      245
 90
      151
 90
      245
 90
      143
 90
      165
 90
      144
 90
      165
 90
      145
 90
      165
 90
      146
 90
      165
 90
      147
 90
      165
 90
      149
 90
      245
 90
      150
 90
      245
 90
      148
 90
      245
 90
        4
 90
      227
 90
        4
 90
      224
 90
       13
 90
      223
 90
       13
 90
      222
 90
       14
 90
      221
 90
       14
 90
      220
 90
       15
 90
      219
 90
       15
 90
      218
 90
       16
 90
      252
 90
      218
 90
      252
 90
       17
 90
      252
 90
        6
 90
      251
 90
       18
 90
      251
 90
       19
 90
      250
 90
       20
 90
      250
 90
       21
 90
      249
 90
       22
 90
      249
 90
       23
 90
      166
 90
       30
 90
      166
 90
      166
 90
      268
 90
      166
 90
      269
 90
      169
 90
      270
 90
      169
 90
      271
 90
       32
 90
      169
 90
       66
 90
      169
 90
       67
 90
      169
 90
       69
 90
      169
 90
       70
 90
      169
 90
       68
 90
      169
 90
       72
 90
      169
 90
       73
 90
      178
 90
       71
 90
      169
 90
       75
 90
      178
 90
       76
 90
      178
 90
       74
 90
      178
 90
       77
 90
      177
 90
       79
 90
      177
 90
       80
 90
      176
 90
       78
 90
      177
 90
       81
 90
      176
 90
       82
 90
      175
 90
       83
 90
      175
 90
       84
 90
      174
 90
       85
 90
      173
 90
       86
 90
      173
 90
       87
 90
      172
 90
       88
 90
      172
 90
       89
 90
      171
 90
       90
 90
      171
 90
       91
 90
      170
 90
       92
 90
      170
 90
       93
 90
      203
 90
       36
 90
      203
 90
       94
 90
      202
 90
       96
 90
      201
 90
      201
 90
      276
 90
      201
 90
      277
 90
      201
 90
      278
 90
      200
 90
      279
 90
       98
 90
      200
 90
       99
 90
      199
 90
      102
 90
      198
 90
      198
 90
      292
 90
      198
 90
      293
 90
      198
 90
      294
 90
      197
 90
      295
 90
      104
 90
      196
 90
      104
 90
      329
 90
      296
 90
      321
 90
      104
 90
      328
 90
      104
 90
      327
 90
      104
 90
      326
 90
      104
 90
      325
 90
      104
 90
      300
 90
      300
 90
      325
 90
      303
 90
      322
 90
      302
 90
      323
 90
      301
 90
      324
 90
      104
 90
      204
 90
      105
 90
      207
 90
      261
 90
      282
 90
      261
 90
      283
 90
      108
 90
      261
 90
      109
 90
      261
 90
      112
 90
      261
 90
      261
 90
      286
 90
      260
 90
      287
 90
      114
 90
      260
 90
      117
 90
      259
 90
      118
 90
      210
 90
      119
 90
      210
 90
      120
 90
      210
 90
      121
 90
      247
 90
      121
 90
      244
 90
      122
 90
      243
 90
      123
 90
      242
 90
      124
 90
      241
 90
      125
 90
      240
 90
      126
 90
      239
 90
      127
 90
      238
 90
      128
 90
      237
 90
      140
 90
      246
 90
      152
 90
      246
 90
      142
 90
      164
 90
      159
 90
      164
 90
      158
 90
      164
 90
      157
 90
      164
 90
      156
 90
      164
 90
      153
 90
      246
 90
      154
 90
      246
 90
      155
 90
      246
 95
      717
140
0.0
140
0.0
140
0.0
140
0.0
140
0.0
140
0.0
140
0.0
140
0.0
140
0.0
140
0.0
140
0.0
140
0.0
140
0.0
140
0.0
140
0.0
140
0.0
140
0.0
140
0.0
140
0.0
140
0.0
140
0.0
140
0.0
140
0.0
140
0.0
140
0.0
140
0.0
140
0.0
140
0.0
140
0.0
140
0.0
140
0.0
140
0.0
140
0.0
140
0.0
140
0.0
140
0.0
140
0.0
140
0.0
140
0.0
140
0.0
140
0.0
140
0.0
140
0.0
140
0.0
140
0.0
140
0.0
140
0.0
140
0.0
140
0.0
140
0.0
140
0.0
140
0.0
140
0.0
140
0.0
140
0.0
140
0.0
140
0.0
140
0.0
140
0.0
140
0.0
140
0.0
140
0.0
140
0.0
140
0.0
140
0.0
140
0.0
140
0.0
140
0.0
140
0.0
140
0.0
140
0.0
140
0.0
140
0.0
140
0.0
140
0.0
140
0.0
140
0.0
140
0.0
140
0.0
140
0.0
140
0.0
140
0.0
140
0.0
140
0.0
140
0.0
140
0.0
140
0.0
140
0.0
140
0.0
140
0.0
140
0.0
140
0.0
140
0.0
140
0.0
140
0.0
140
0.0
140
0.0
140
0.0
140
0.0
140
0.0
140
0.0
140
0.0
140
0.0
140
0.0
140
0.0
140
0.0
140
0.0
140
0.0
140
0.0
140
0.0
140
0.0
140
0.0
140
0.0
140
0.0
140
0.0
140
0.0
140
0.0
140
0.0
140
0.0
140
0.0
140
0.0
140
0.0
140
0.0
140
0.0
140
0.0
140
0.0
140
0.0
140
0.0
140
0.0
140
0.0
140
0.0
140
0.0
140
0.0
140
0.0
140
0.0
140
0.0
140
0.0
140
0.0
140
0.0
140
0.0
140
0.0
140
0.0
140
0.0
140
0.0
140
0.0
140
0.0
140
0.0
140
0.0
140
0.0
140
0.0
140
0.0
140
0.0
140
0.0
140
0.0
140
0.0
140
0.0
140
0.0
140
0.0
140
0.0
140
0.0
140
0.0
140
0.0
140
0.0
140
0.0
140
0.0
140
0.0
140
0.0
140
0.0
140
0.0
140
0.0
140
0.0
140
0.0
140
0.0
140
0.0
140
0.0
140
0.0
140
0.0
140
0.0
140
0.0
140
0.0
140
0.0
140
0.0
140
0.0
140
0.0
140
0.0
140
0.0
140
0.0
140
0.0
140
0.0
140
0.0
140
0.0
140
0.0
140
0.0
140
0.0
140
0.0
140
0.0
140
0.0
140
0.0
140
0.0
140
0.0
140
0.0
140
0.0
140
0.0
140
0.0
140
0.0
140
0.0
140
0.0
140
0.0
140
0.0
140
0.0
140
0.0
140
0.0
140
0.0
140
0.0
140
0.0
140
0.0
140
0.0
140
0.0
140
0.0
140
0.0
140
0.0
140
0.0
140
0.0
140
0.0
140
0.0
140
0.0
140
0.0
140
0.0
140
0.0
140
0.0
140
0.0
140
0.0
140
0.0
140
0.0
140
0.0
140
0.0
140
0.0
140
0.0
140
0.0
140
0.0
140
0.0
140
0.0
140
0.0
140
0.0
140
0.0
140
0.0
140
0.0
140
0.0
140
0.0
140
0.0
140
0.0
140
0.0
140
0.0
140
0.0
140
0.0
140
0.0
140
0.0
140
0.0
140
0.0
140
0.0
140
0.0
140
0.0
140
0.0
140
0.0
140
0.0
140
0.0
140
0.0
140
0.0
140
0.0
140
0.0
140
0.0
140
0.0
140
0.0
140
0.0
140
0.0
140
0.0
140
0.0
140
0.0
140
0.0
140
0.0
140
0.0
140
0.0
140
0.0
140
0.0
140
0.0
140
0.0
140
0.0
140
0.0
140
0.0
140
0.0
140
0.0
140
0.0
140
0.0
140
0.0
140
0.0
140
0.0
140
0.0
140
0.0
140
0.0
140
0.0
140
0.0
140
0.0
140
0.0
140
0.0
140
0.0
140
0.0
140
0.0
140
0.0
140
0.0
140
0.0
140
0.0
140
0.0
140
0.0
140
0.0
140
0.0
140
0.0
140
0.0
140
0.0
140
0.0
140
0.0
140
0.0
140
0.0
140
0.0
140
0.0
140
0.0
140
0.0
140
0.0
140
0.0
140
0.0
140
0.0
140
0.0
140
0.0
140
0.0
140
0.0
140
0.0
140
0.0
140
0.0
140
0.0
140
0.0
140
0.0
140
0.0
140
0.0
140
0.0
140
0.0
140
0.0
140
0.0
140
0.0
140
0.0
140
0.0
140
0.0
140
0.0
140
0.0
140
0.0
140
0.0
140
0.0
140
0.0
140
0.0
140
0.0
140
0.0
140
0.0
140
0.0
140
0.0
140
0.0
140
0.0
140
0.0
140
0.0
140
0.0
140
0.0
140
0.0
140
0.0
140
0.0
140
0.0
140
0.0
140
0.0
140
0.0
140
0.0
140
0.0
140
0.0
140
0.0
140
0.0
140
0.0
140
0.0
140
0.0
140
0.0
140
0.0
140
0.0
140
0.0
140
0.0
140
0.0
140
0.0
140
0.0
140
0.0
140
0.0
140
0.0
140
0.0
140
0.0
140
0.0
140
0.0
140
0.0
140
0.0
140
0.0
140
0.0
140
0.0
140
0.0
140
0.0
140
0.0
140
0.0
140
0.0
140
0.0
140
0.0
140
0.0
140
0.0
140
0.0
140
0.0
140
0.0
140
0.0
140
0.0
140
0.0
140
0.0
140
0.0
140
0.0
140
0.0
140
0.0
140
0.0
140
0.0
140
0.0
140
0.0
140
0.0
140
0.0
140
0.0
140
0.0
140
0.0
140
0.0
140
0.0
140
0.0
140
0.0
140
0.0
140
0.0
140
0.0
140
0.0
140
0.0
140
0.0
140
0.0
140
0.0
140
0.0
140
0.0
140
0.0
140
0.0
140
0.0
140
0.0
140
0.0
140
0.0
140
0.0
140
0.0
140
0.0
140
0.0
140
0.0
140
0.0
140
0.0
140
0.0
140
0.0
140
0.0
140
0.0
140
0.0
140
0.0
140
0.0
140
0.0
140
0.0
140
0.0
140
0.0
140
0.0
140
0.0
140
0.0
140
0.0
140
0.0
140
0.0
140
0.0
140
0.0
140
0.0
140
0.0
140
0.0
140
0.0
140
0.0
140
0.0
140
0.0
140
0.0
140
0.0
140
0.0
140
0.0
140
0.0
140
0.0
140
0.0
140
0.0
140
0.0
140
0.0
140
0.0
140
0.0
140
0.0
140
0.0
140
0.0
140
0.0
140
0.0
140
0.0
140
0.0
140
0.0
140
0.0
140
0.0
140
0.0
140
0.0
140
0.0
140
0.0
140
0.0
140
0.0
140
0.0
140
0.0
140
0.0
140
0.0
140
0.0
140
0.0
140
0.0
140
0.0
140
0.0
140
0.0
140
0.0
140
0.0
140
0.0
140
0.0
140
0.0
140
0.0
140
0.0
140
0.0
140
0.0
140
0.0
140
0.0
140
0.0
140
0.0
140
0.0
140
0.0
140
0.0
140
0.0
140
0.0
140
0.0
140
0.0
140
0.0
140
0.0
140
0.0
140
0.0
140
0.0
140
0.0
140
0.0
140
0.0
140
0.0
140
0.0
140
0.0
140
0.0
140
0.0
140
0.0
140
0.0
140
0.0
140
0.0
140
0.0
140
0.0
140
0.0
140
0.0
140
0.0
140
0.0
140
0.0
140
0.0
140
0.0
140
0.0
140
0.0
140
0.0
140
0.0
140
0.0
140
0.0
140
0.0
140
0.0
140
0.0
140
0.0
140
0.0
140
0.0
140
0.0
140
0.0
140
0.0
140
0.0
140
0.0
140
0.0
140
0.0
140
0.0
140
0.0
140
0.0
140
0.0
140
0.0
140
0.0
140
0.0
140
0.0
140
0.0
140
0.0
140
0.0
140
0.0
140
0.0
140
0.0
140
0.0
140
0.0
140
0.0
140
0.0
140
0.0
140
0.0
140
0.0
140
0.0
140
0.0
140
0.0
140
0.0
140
0.0
140
0.0
140
0.0
140
0.0
140
0.0
140
0.0
140
0.0
140
0.0
140
0.0
140
0.0
140
0.0
140
0.0
140
0.0
140
0.0
140
0.0
140
0.0
140
0.0
140
0.0
140
0.0
140
0.0
140
0.0
140
0.0
140
0.0
140
0.0
140
0.0
140
0.0
140
0.0
140
0.0
140
0.0
140
0.0
140
0.0
140
0.0
140
0.0
140
0.0
140
0.0
140
0.0
140
0.0
140
0.0
140
0.0
140
0.0
140
0.0
140
0.0
140
0.0
140
0.0
140
0.0
140
0.0
140
0.0
140
0.0
140
0.0
140
0.0
140
0.0
140
0.0
140
0.0
140
0.0
140
0.0
140
0.0
140
0.0
140
0.0
140
0.0
140
0.0
140
0.0
140
0.0
140
0.0
140
0.0
140
0.0
140
0.0
140
0.0
140
0.0
140
0.0
140
0.0
140
0.0
140
0.0
140
0.0
140
0.0
140
0.0
140
0.0
140
0.0
140
0.0
140
0.0
140
0.0
140
0.0
140
0.0
140
0.0
140
0.0
140
0.0
140
0.0
140
0.0
140
0.0
140
0.0
140
0.0
140
0.0
140
0.0
140
0.0
140
0.0
140
0.0
140
0.0
140
0.0
140
0.0
140
0.0
140
0.0
140
0.0
140
0.0
140
0.0
140
0.0
 90
        0
  0
POLYLINE
  5
FA
330
1F
100
AcDbEntity
  8
OracDecor_cornice_mouldings
 62
    34
420
 11622427
100
AcDb3dPolyline
 66
     1
 10
0.0
 20
0.0
 30
0.0
 70
     9
  0
VERTEX
  5
FB
330
FA
100
AcDbEntity
  8
OracDecor_cornice_mouldings
 62
    34
420
 11622427
100
AcDbVertex
100
AcDb3dPolylineVertex
 10
-0.000004808509857
 20
63.99952697753906
 30
-0.0000106783591036
 70
    32
  0
VERTEX
  5
FC
330
FA
100
AcDbEntity
  8
OracDecor_cornice_mouldings
 62
    34
420
 11622427
100
AcDbVertex
100
AcDb3dPolylineVertex
 10
-0.000004566381449
 20
63.99952697753906
 30
-5.539278984069824
 70
    32
  0
VERTEX
  5
FD
330
FA
100
AcDbEntity
  8
OracDecor_cornice_mouldings
 62
    34
420
 11622427
100
AcDbVertex
100
AcDb3dPolylineVertex
 10
-0.0000053629187278
 20
59.11041259765625
 30
-5.5392746925354
 70
    32
  0
VERTEX
  5
FE
330
FA
100
AcDbEntity
  8
OracDecor_cornice_mouldings
 62
    34
420
 11622427
100
AcDbVertex
100
AcDb3dPolylineVertex
 10
-0.0000055201876421
 20
58.12140655517578
 30
-5.627595901489257
 70
    32
  0
VERTEX
  5
FF
330
FA
100
AcDbEntity
  8
OracDecor_cornice_mouldings
 62
    34
420
 11622427
100
AcDbVertex
100
AcDb3dPolylineVertex
 10
-0.0000057123029364
 20
56.84860992431641
 30
-5.976469039916992
 70
    32
  0
VERTEX
  5
100
330
FA
100
AcDbEntity
  8
OracDecor_cornice_mouldings
 62
    34
420
 11622427
100
AcDbVertex
100
AcDb3dPolylineVertex
 10
-0.0000058753735175
 20
55.68389892578125
 30
-6.586961269378662
 70
    32
  0
VERTEX
  5
101
330
FA
100
AcDbEntity
  8
OracDecor_cornice_mouldings
 62
    34
420
 11622427
100
AcDbVertex
100
AcDb3dPolylineVertex
 10
-0.0000060015922827
 20
54.68302154541015
 30
-7.429872035980224
 70
    32
  0
VERTEX
  5
102
330
FA
100
AcDbEntity
  8
OracDecor_cornice_mouldings
 62
    34
420
 11622427
100
AcDbVertex
100
AcDb3dPolylineVertex
 10
-0.0000060849156398
 20
53.89389801025391
 30
-8.464856147766113
 70
    32
  0
VERTEX
  5
103
330
FA
100
AcDbEntity
  8
OracDecor_cornice_mouldings
 62
    34
420
 11622427
100
AcDbVertex
100
AcDb3dPolylineVertex
 10
-0.000006121367278
 20
53.35424041748047
 30
-9.64235782623291
 70
    32
  0
VERTEX
  5
104
330
FA
100
AcDbEntity
  8
OracDecor_cornice_mouldings
 62
    34
420
 11622427
100
AcDbVertex
100
AcDb3dPolylineVertex
 10
-0.0000061393197939
 20
52.94351959228515
 30
-10.76249408721924
 70
    32
  0
VERTEX
  5
105
330
FA
100
AcDbEntity
  8
OracDecor_cornice_mouldings
 62
    34
420
 11622427
100
AcDbVertex
100
AcDb3dPolylineVertex
 10
-0.0000061979385464
 20
52.32074737548828
 30
-11.74264240264892
 70
    32
  0
VERTEX
  5
106
330
FA
100
AcDbEntity
  8
OracDecor_cornice_mouldings
 62
    34
420
 11622427
100
AcDbVertex
100
AcDb3dPolylineVertex
 10
-0.0000062999120019
 20
51.47796630859375
 30
-12.55095386505127
 70
    32
  0
VERTEX
  5
107
330
FA
100
AcDbEntity
  8
OracDecor_cornice_mouldings
 62
    34
420
 11622427
100
AcDbVertex
100
AcDb3dPolylineVertex
 10
-0.0000064394548644
 20
50.4629898071289
 30
-13.14159870147705
 70
    32
  0
VERTEX
  5
108
330
FA
100
AcDbEntity
  8
OracDecor_cornice_mouldings
 62
    34
420
 11622427
100
AcDbVertex
100
AcDb3dPolylineVertex
 10
-0.0000066086527113
 20
49.33338928222656
 30
-13.48105335235596
 70
    32
  0
VERTEX
  5
109
330
FA
100
AcDbEntity
  8
OracDecor_cornice_mouldings
 62
    34
420
 11622427
100
AcDbVertex
100
AcDb3dPolylineVertex
 10
-0.000006748855867
 20
48.44971466064453
 30
-13.56718921661377
 70
    32
  0
VERTEX
  5
10A
330
FA
100
AcDbEntity
  8
OracDecor_cornice_mouldings
 62
    34
420
 11622427
100
AcDbVertex
100
AcDb3dPolylineVertex
 10
-0.0000069960738074
 20
46.93230438232421
 30
-13.56718826293945
 70
    32
  0
VERTEX
  5
10B
330
FA
100
AcDbEntity
  8
OracDecor_cornice_mouldings
 62
    34
420
 11622427
100
AcDbVertex
100
AcDb3dPolylineVertex
 10
-0.0000070209857768
 20
46.77277374267577
 30
-13.59185409545898
 70
    32
  0
VERTEX
  5
10C
330
FA
100
AcDbEntity
  8
OracDecor_cornice_mouldings
 62
    34
420
 11622427
100
AcDbVertex
100
AcDb3dPolylineVertex
 10
-0.0000070412957029
 20
46.62892150878906
 30
-13.66337966918945
 70
    32
  0
VERTEX
  5
10D
330
FA
100
AcDbEntity
  8
OracDecor_cornice_mouldings
 62
    34
420
 11622427
100
AcDbVertex
100
AcDb3dPolylineVertex
 10
-0.000007055025435
 20
46.5147705078125
 30
-13.77475357055664
 70
    32
  0
VERTEX
  5
10E
330
FA
100
AcDbEntity
  8
OracDecor_cornice_mouldings
 62
    34
420
 11622427
100
AcDbVertex
100
AcDb3dPolylineVertex
 10
-0.0000070608343776
 20
46.44145965576171
 30
-13.91511154174805
 70
    32
  0
VERTEX
  5
10F
330
FA
100
AcDbEntity
  8
OracDecor_cornice_mouldings
 62
    34
420
 11622427
100
AcDbVertex
100
AcDb3dPolylineVertex
 10
-0.0000070581495493
 20
46.41617584228515
 30
-14.07075881958007
 70
    32
  0
VERTEX
  5
110
330
FA
100
AcDbEntity
  8
OracDecor_cornice_mouldings
 62
    34
420
 11622427
100
AcDbVertex
100
AcDb3dPolylineVertex
 10
-0.0000069040675044
 20
46.41617584228515
 30
-17.59575271606445
 70
    32
  0
VERTEX
  5
111
330
FA
100
AcDbEntity
  8
OracDecor_cornice_mouldings
 62
    34
420
 11622427
100
AcDbVertex
100
AcDb3dPolylineVertex
 10
-0.000007131925031
 20
45.00760650634766
 30
-17.63299179077148
 70
    32
  0
VERTEX
  5
112
330
FA
100
AcDbEntity
  8
OracDecor_cornice_mouldings
 62
    34
420
 11622427
100
AcDbVertex
100
AcDb3dPolylineVertex
 10
-0.0000073557816904
 20
43.60365295410156
 30
-17.74454879760742
 70
    32
  0
VERTEX
  5
113
330
FA
100
AcDbEntity
  8
OracDecor_cornice_mouldings
 62
    34
420
 11622427
100
AcDbVertex
100
AcDb3dPolylineVertex
 10
-0.0000075750726864
 20
42.20787048339843
 30
-17.93008804321289
 70
    32
  0
VERTEX
  5
114
330
FA
100
AcDbEntity
  8
OracDecor_cornice_mouldings
 62
    34
420
 11622427
100
AcDbVertex
100
AcDb3dPolylineVertex
 10
-0.0000077891572801
 20
40.8243408203125
 30
-18.1890983581543
 70
    32
  0
VERTEX
  5
115
330
FA
100
AcDbEntity
  8
OracDecor_cornice_mouldings
 62
    34
420
 11622427
100
AcDbVertex
100
AcDb3dPolylineVertex
 10
-0.0000079974233813
 20
39.45700073242188
 30
-18.5208625793457
 70
    32
  0
VERTEX
  5
116
330
FA
100
AcDbEntity
  8
OracDecor_cornice_mouldings
 62
    34
420
 11622427
100
AcDbVertex
100
AcDb3dPolylineVertex
 10
-0.0000081992138803
 20
38.11016082763672
 30
-18.92435646057129
 70
    32
  0
VERTEX
  5
117
330
FA
100
AcDbEntity
  8
OracDecor_cornice_mouldings
 62
    34
420
 11622427
100
AcDbVertex
100
AcDb3dPolylineVertex
 10
-0.0000083939266915
 20
36.78785705566407
 30
-19.39834022521973
 70
    32
  0
VERTEX
  5
118
330
FA
100
AcDbEntity
  8
OracDecor_cornice_mouldings
 62
    34
420
 11622427
100
AcDbVertex
100
AcDb3dPolylineVertex
 10
-0.0000085810124801
 20
35.49382019042969
 30
-19.94144630432129
 70
    32
  0
VERTEX
  5
119
330
FA
100
AcDbEntity
  8
OracDecor_cornice_mouldings
 62
    34
420
 11622427
100
AcDbVertex
100
AcDb3dPolylineVertex
 10
-0.0000087599391918
 20
34.23171997070312
 30
-20.55214881896973
 70
    32
  0
VERTEX
  5
11A
330
FA
100
AcDbEntity
  8
OracDecor_cornice_mouldings
 62
    34
420
 11622427
100
AcDbVertex
100
AcDb3dPolylineVertex
 10
-0.0000089301956905
 20
33.00516510009766
 30
-21.22873878479004
 70
    32
  0
VERTEX
  5
11B
330
FA
100
AcDbEntity
  8
OracDecor_cornice_mouldings
 62
    34
420
 11622427
100
AcDbVertex
100
AcDb3dPolylineVertex
 10
-0.0000090912344604
 20
31.81809043884277
 30
-21.96906471252441
 70
    32
  0
VERTEX
  5
11C
330
FA
100
AcDbEntity
  8
OracDecor_cornice_mouldings
 62
    34
420
 11622427
100
AcDbVertex
100
AcDb3dPolylineVertex
 10
-0.0000092425862022
 20
30.67396354675293
 30
-22.77091026306152
 70
    32
  0
VERTEX
  5
11D
330
FA
100
AcDbEntity
  8
OracDecor_cornice_mouldings
 62
    34
420
 11622427
100
AcDbVertex
100
AcDb3dPolylineVertex
 10
-0.0000093838270914
 20
29.57601165771484
 30
-23.63199424743652
 70
    32
  0
VERTEX
  5
11E
330
FA
100
AcDbEntity
  8
OracDecor_cornice_mouldings
 62
    34
420
 11622427
100
AcDbVertex
100
AcDb3dPolylineVertex
 10
-0.0000095145542218
 20
28.52733993530274
 30
-24.54989814758301
 70
    32
  0
VERTEX
  5
11F
330
FA
100
AcDbEntity
  8
OracDecor_cornice_mouldings
 62
    34
420
 11622427
100
AcDbVertex
100
AcDb3dPolylineVertex
 10
-0.0000096343856058
 20
27.53101348876953
 30
-25.5219841003418
 70
    32
  0
VERTEX
  5
120
330
FA
100
AcDbEntity
  8
OracDecor_cornice_mouldings
 62
    34
420
 11622427
100
AcDbVertex
100
AcDb3dPolylineVertex
 10
-0.0000097429347079
 20
26.5902271270752
 30
-26.54514694213867
 70
    32
  0
VERTEX
  5
121
330
FA
100
AcDbEntity
  8
OracDecor_cornice_mouldings
 62
    34
420
 11622427
100
AcDbVertex
100
AcDb3dPolylineVertex
 10
-0.0000098398950286
 20
25.70767211914063
 30
-27.61639404296875
 70
    32
  0
VERTEX
  5
122
330
FA
100
AcDbEntity
  8
OracDecor_cornice_mouldings
 62
    34
420
 11622427
100
AcDbVertex
100
AcDb3dPolylineVertex
 10
-0.0000099249946288
 20
24.88583564758301
 30
-28.73269271850586
 70
    32
  0
VERTEX
  5
123
330
FA
100
AcDbEntity
  8
OracDecor_cornice_mouldings
 62
    34
420
 11622427
100
AcDbVertex
100
AcDb3dPolylineVertex
 10
-0.0000099979888546
 20
24.12705612182617
 30
-29.8908920288086
 70
    32
  0
VERTEX
  5
124
330
FA
100
AcDbEntity
  8
OracDecor_cornice_mouldings
 62
    34
420
 11622427
100
AcDbVertex
100
AcDb3dPolylineVertex
 10
-0.0000100586576082
 20
23.43359565734863
 30
-31.08761215209961
 70
    32
  0
VERTEX
  5
125
330
FA
100
AcDbEntity
  8
OracDecor_cornice_mouldings
 62
    34
420
 11622427
100
AcDbVertex
100
AcDb3dPolylineVertex
 10
-0.0000101068080767
 20
22.80766487121582
 30
-32.31901550292969
 70
    32
  0
VERTEX
  5
126
330
FA
100
AcDbEntity
  8
OracDecor_cornice_mouldings
 62
    34
420
 11622427
100
AcDbVertex
100
AcDb3dPolylineVertex
 10
-0.0000101423102024
 20
22.25101280212403
 30
-33.58157348632813
 70
    32
  0
VERTEX
  5
127
330
FA
100
AcDbEntity
  8
OracDecor_cornice_mouldings
 62
    34
420
 11622427
100
AcDbVertex
100
AcDb3dPolylineVertex
 10
-0.0000025356691822
 20
21.76520919799805
 30
-34.87171173095703
 70
    32
  0
VERTEX
  5
128
330
FA
100
AcDbEntity
  8
OracDecor_cornice_mouldings
 62
    34
420
 11622427
100
AcDbVertex
100
AcDb3dPolylineVertex
 10
-0.0000025456058665
 20
21.35165405273438
 30
-36.185791015625
 70
    32
  0
VERTEX
  5
129
330
FA
100
AcDbEntity
  8
OracDecor_cornice_mouldings
 62
    34
420
 11622427
100
AcDbVertex
100
AcDb3dPolylineVertex
 10
-0.0000025426904813
 20
21.01161766052246
 30
-37.51987075805664
 70
    32
  0
VERTEX
  5
12A
330
FA
100
AcDbEntity
  8
OracDecor_cornice_mouldings
 62
    34
420
 11622427
100
AcDbVertex
100
AcDb3dPolylineVertex
 10
-0.0000025269348498
 20
20.74615478515625
 30
-38.86974334716797
 70
    32
  0
VERTEX
  5
12B
330
FA
100
AcDbEntity
  8
OracDecor_cornice_mouldings
 62
    34
420
 11622427
100
AcDbVertex
100
AcDb3dPolylineVertex
 10
-0.0000024983899038
 20
20.55598449707031
 30
-40.23157119750976
 70
    32
  0
VERTEX
  5
12C
330
FA
100
AcDbEntity
  8
OracDecor_cornice_mouldings
 62
    34
420
 11622427
100
AcDbVertex
100
AcDb3dPolylineVertex
 10
-0.0000024571425001
 20
20.4416446685791
 30
-41.60137176513671
 70
    32
  0
VERTEX
  5
12D
330
FA
100
AcDbEntity
  8
OracDecor_cornice_mouldings
 62
    34
420
 11622427
100
AcDbVertex
100
AcDb3dPolylineVertex
 10
-0.0000024032881356
 20
20.40347480773926
 30
-42.97568130493163
 70
    32
  0
VERTEX
  5
12E
330
FA
100
AcDbEntity
  8
OracDecor_cornice_mouldings
 62
    34
420
 11622427
100
AcDbVertex
100
AcDb3dPolylineVertex
 10
-0.0000021750704491
 20
20.40347480773926
 30
-48.19669342041016
 70
    32
  0
VERTEX
  5
12F
330
FA
100
AcDbEntity
  8
OracDecor_cornice_mouldings
 62
    34
420
 11622427
100
AcDbVertex
100
AcDb3dPolylineVertex
 10
-0.0000028274205306
 20
16.39937782287598
 30
-48.19669342041016
 70
    32
  0
VERTEX
  5
130
330
FA
100
AcDbEntity
  8
OracDecor_cornice_mouldings
 62
    34
420
 11622427
100
AcDbVertex
100
AcDb3dPolylineVertex
 10
-0.0000028523334095
 20
16.2398452758789
 30
-48.22135925292968
 70
    32
  0
VERTEX
  5
131
330
FA
100
AcDbEntity
  8
OracDecor_cornice_mouldings
 62
    34
420
 11622427
100
AcDbVertex
100
AcDb3dPolylineVertex
 10
-0.0000028726433356
 20
16.09599494934082
 30
-48.29288864135742
 70
    32
  0
VERTEX
  5
132
330
FA
100
AcDbEntity
  8
OracDecor_cornice_mouldings
 62
    34
420
 11622427
100
AcDbVertex
100
AcDb3dPolylineVertex
 10
-0.0000028863726129
 20
15.98184299468994
 30
-48.40426254272461
 70
    32
  0
VERTEX
  5
133
330
FA
100
AcDbEntity
  8
OracDecor_cornice_mouldings
 62
    34
420
 11622427
100
AcDbVertex
100
AcDb3dPolylineVertex
 10
-0.0000028921820103
 20
15.90853023529053
 30
-48.54461288452148
 70
    32
  0
VERTEX
  5
134
330
FA
100
AcDbEntity
  8
OracDecor_cornice_mouldings
 62
    34
420
 11622427
100
AcDbVertex
100
AcDb3dPolylineVertex
 10
-0.0000028894962725
 20
15.88325214385986
 30
-48.70026397705078
 70
    32
  0
VERTEX
  5
135
330
FA
100
AcDbEntity
  8
OracDecor_cornice_mouldings
 62
    34
420
 11622427
100
AcDbVertex
100
AcDb3dPolylineVertex
 10
-0.0000026693790005
 20
15.88325214385986
 30
-53.73596572875976
 70
    32
  0
VERTEX
  5
136
330
FA
100
AcDbEntity
  8
OracDecor_cornice_mouldings
 62
    34
420
 11622427
100
AcDbVertex
100
AcDb3dPolylineVertex
 10
-0.0000032579907838
 20
12.2703800201416
 30
-53.73596572875976
 70
    32
  0
VERTEX
  5
137
330
FA
100
AcDbEntity
  8
OracDecor_cornice_mouldings
 62
    34
420
 11622427
100
AcDbVertex
100
AcDb3dPolylineVertex
 10
-0.0000032829036627
 20
12.11084747314453
 30
-53.76062774658203
 70
    32
  0
VERTEX
  5
138
330
FA
100
AcDbEntity
  8
OracDecor_cornice_mouldings
 62
    34
420
 11622427
100
AcDbVertex
100
AcDb3dPolylineVertex
 10
-0.0000033032135889
 20
11.96699714660644
 30
-53.83215713500977
 70
    32
  0
VERTEX
  5
139
330
FA
100
AcDbEntity
  8
OracDecor_cornice_mouldings
 62
    34
420
 11622427
100
AcDbVertex
100
AcDb3dPolylineVertex
 10
-0.0000033169424114
 20
11.85284614562988
 30
-53.94353103637695
 70
    32
  0
VERTEX
  5
13A
330
FA
100
AcDbEntity
  8
OracDecor_cornice_mouldings
 62
    34
420
 11622427
100
AcDbVertex
100
AcDb3dPolylineVertex
 10
-0.0000033227518088
 20
11.77953338623047
 30
-54.08388519287109
 70
    32
  0
VERTEX
  5
13B
330
FA
100
AcDbEntity
  8
OracDecor_cornice_mouldings
 62
    34
420
 11622427
100
AcDbVertex
100
AcDb3dPolylineVertex
 10
-0.0000033200665257
 20
11.75425338745117
 30
-54.23953628540039
 70
    32
  0
VERTEX
  5
13C
330
FA
100
AcDbEntity
  8
OracDecor_cornice_mouldings
 62
    34
420
 11622427
100
AcDbVertex
100
AcDb3dPolylineVertex
 10
-0.0000088734695964
 20
11.75424575805664
 30
-101.7327270507812
 70
    32
  0
VERTEX
  5
13D
330
FA
100
AcDbEntity
  8
OracDecor_cornice_mouldings
 62
    34
420
 11622427
100
AcDbVertex
100
AcDb3dPolylineVertex
 10
-0.0000088594515546
 20
11.79052448272705
 30
-101.9181900024414
 70
    32
  0
VERTEX
  5
13E
330
FA
100
AcDbEntity
  8
OracDecor_cornice_mouldings
 62
    34
420
 11622427
100
AcDbVertex
100
AcDb3dPolylineVertex
 10
-0.0000088355845946
 20
11.89426040649414
 30
-102.0775756835937
 70
    32
  0
VERTEX
  5
13F
330
FA
100
AcDbEntity
  8
OracDecor_cornice_mouldings
 62
    34
420
 11622427
100
AcDbVertex
100
AcDb3dPolylineVertex
 10
-0.000008805221114
 20
12.05086994171142
 30
-102.1884841918945
 70
    32
  0
VERTEX
  5
140
330
FA
100
AcDbEntity
  8
OracDecor_cornice_mouldings
 62
    34
420
 11622427
100
AcDbVertex
100
AcDb3dPolylineVertex
 10
-0.0000082725109678
 20
14.96247577667236
 30
-103.5233688354492
 70
    32
  0
VERTEX
  5
141
330
FA
100
AcDbEntity
  8
OracDecor_cornice_mouldings
 62
    34
420
 11622427
100
AcDbVertex
100
AcDb3dPolylineVertex
 10
-0.0000081457883425
 20
14.96247577667236
 30
-106.4224243164062
 70
    32
  0
VERTEX
  5
142
330
FA
100
AcDbEntity
  8
OracDecor_cornice_mouldings
 62
    34
420
 11622427
100
AcDbVertex
100
AcDb3dPolylineVertex
 10
-0.0000081317721197
 20
14.99875354766845
 30
-106.6078796386719
 70
    32
  0
VERTEX
  5
143
330
FA
100
AcDbEntity
  8
OracDecor_cornice_mouldings
 62
    34
420
 11622427
100
AcDbVertex
100
AcDb3dPolylineVertex
 10
-0.0000081079042502
 20
15.10248851776123
 30
-106.7672729492187
 70
    32
  0
VERTEX
  5
144
330
FA
100
AcDbEntity
  8
OracDecor_cornice_mouldings
 62
    34
420
 11622427
100
AcDbVertex
100
AcDb3dPolylineVertex
 10
-0.0000080775416791
 20
15.25909900665283
 30
-106.8781814575195
 70
    32
  0
VERTEX
  5
145
330
FA
100
AcDbEntity
  8
OracDecor_cornice_mouldings
 62
    34
420
 11622427
100
AcDbVertex
100
AcDb3dPolylineVertex
 10
-0.0000078172970461
 20
16.67662048339844
 30
-107.5485076904297
 70
    32
  0
VERTEX
  5
146
330
FA
100
AcDbEntity
  8
OracDecor_cornice_mouldings
 62
    34
420
 11622427
100
AcDbVertex
100
AcDb3dPolylineVertex
 10
-0.0000075731427387
 20
17.95281028747558
 30
-108.3774795532226
 70
    32
  0
VERTEX
  5
147
330
FA
100
AcDbEntity
  8
OracDecor_cornice_mouldings
 62
    34
420
 11622427
100
AcDbVertex
100
AcDb3dPolylineVertex
 10
-0.0000073502092164
 20
19.03753280639648
 30
-109.4346542358398
 70
    32
  0
VERTEX
  5
148
330
FA
100
AcDbEntity
  8
OracDecor_cornice_mouldings
 62
    34
420
 11622427
100
AcDbVertex
100
AcDb3dPolylineVertex
 10
-0.0000071571607805
 20
19.88861465454101
 30
-110.6789321899414
 70
    32
  0
VERTEX
  5
149
330
FA
100
AcDbEntity
  8
OracDecor_cornice_mouldings
 62
    34
420
 11622427
100
AcDbVertex
100
AcDb3dPolylineVertex
 10
-0.0000070015053097
 20
20.47295570373535
 30
-112.0619735717773
 70
    32
  0
VERTEX
  5
14A
330
FA
100
AcDbEntity
  8
OracDecor_cornice_mouldings
 62
    34
420
 11622427
100
AcDbVertex
100
AcDb3dPolylineVertex
 10
-0.0000068892945819
 20
20.7678279876709
 30
-113.5299911499023
 70
    32
  0
VERTEX
  5
14B
330
FA
100
AcDbEntity
  8
OracDecor_cornice_mouldings
 62
    34
420
 11622427
100
AcDbVertex
100
AcDb3dPolylineVertex
 10
-0.0000068248923526
 20
20.76177024841308
 30
-115.0259475708008
 70
    32
  0
VERTEX
  5
14C
330
FA
100
AcDbEntity
  8
OracDecor_cornice_mouldings
 62
    34
420
 11622427
100
AcDbVertex
100
AcDb3dPolylineVertex
 10
-0.0000068108006417
 20
20.45501518249512
 30
-116.4916458129882
 70
    32
  0
VERTEX
  5
14D
330
FA
100
AcDbEntity
  8
OracDecor_cornice_mouldings
 62
    34
420
 11622427
100
AcDbVertex
100
AcDb3dPolylineVertex
 10
-0.0000068475678745
 20
19.8594913482666
 30
-117.8701400756836
 70
    32
  0
VERTEX
  5
14E
330
FA
100
AcDbEntity
  8
OracDecor_cornice_mouldings
 62
    34
420
 11622427
100
AcDbVertex
100
AcDb3dPolylineVertex
 10
-0.0000069337643254
 20
18.99835395812988
 30
-119.1078262329101
 70
    32
  0
VERTEX
  5
14F
330
FA
100
AcDbEntity
  8
OracDecor_cornice_mouldings
 62
    34
420
 11622427
100
AcDbVertex
100
AcDb3dPolylineVertex
 10
-0.0000070660348683
 20
17.90509986877441
 30
-120.1565933227539
 70
    32
  0
VERTEX
  5
150
330
FA
100
AcDbEntity
  8
OracDecor_cornice_mouldings
 62
    34
420
 11622427
100
AcDbVertex
100
AcDb3dPolylineVertex
 10
-0.0000072392344919
 20
16.62224006652832
 30
-120.9757003784179
 70
    32
  0
VERTEX
  5
151
330
FA
100
AcDbEntity
  8
OracDecor_cornice_mouldings
 62
    34
420
 11622427
100
AcDbVertex
100
AcDb3dPolylineVertex
 10
-0.000008479589269
 20
7.959794521331787
 30
-124.8862838745117
 70
    32
  0
VERTEX
  5
152
330
FA
100
AcDbEntity
  8
OracDecor_cornice_mouldings
 62
    34
420
 11622427
100
AcDbVertex
100
AcDb3dPolylineVertex
 10
-0.0000085712390501
 20
7.291805744171142
 30
-125.2793197631836
 70
    32
  0
VERTEX
  5
153
330
FA
100
AcDbEntity
  8
OracDecor_cornice_mouldings
 62
    34
420
 11622427
100
AcDbVertex
100
AcDb3dPolylineVertex
 10
-0.0000086625004769
 20
6.543453693389892
 30
-125.9807510375976
 70
    32
  0
VERTEX
  5
154
330
FA
100
AcDbEntity
  8
OracDecor_cornice_mouldings
 62
    34
420
 11622427
100
AcDbVertex
100
AcDb3dPolylineVertex
 10
-0.0000087111720859
 20
6.011516571044921
 30
-126.8499145507812
 70
    32
  0
VERTEX
  5
155
330
FA
100
AcDbEntity
  8
OracDecor_cornice_mouldings
 62
    34
420
 11622427
100
AcDbVertex
100
AcDb3dPolylineVertex
 10
-0.0000087138078015
 20
5.73366355895996
 30
-127.8252258300781
 70
    32
  0
VERTEX
  5
156
330
FA
100
AcDbEntity
  8
OracDecor_cornice_mouldings
 62
    34
420
 11622427
100
AcDbVertex
100
AcDb3dPolylineVertex
 10
-0.000008670218449
 20
5.729562282562255
 30
-128.8377075195312
 70
    32
  0
VERTEX
  5
157
330
FA
100
AcDbEntity
  8
OracDecor_cornice_mouldings
 62
    34
420
 11622427
100
AcDbVertex
100
AcDb3dPolylineVertex
 10
-0.0000085835145001
 20
5.999507427215576
 30
-129.8151245117187
 70
    32
  0
VERTEX
  5
158
330
FA
100
AcDbEntity
  8
OracDecor_cornice_mouldings
 62
    34
420
 11622427
100
AcDbVertex
100
AcDb3dPolylineVertex
 10
-0.0000084598304966
 20
6.524387836456298
 30
-130.6883544921875
 70
    32
  0
VERTEX
  5
159
330
FA
100
AcDbEntity
  8
OracDecor_cornice_mouldings
 62
    34
420
 11622427
100
AcDbVertex
100
AcDb3dPolylineVertex
 10
-0.000008307925782
 20
7.26703405380249
 30
-131.3955383300781
 70
    32
  0
VERTEX
  5
15A
330
FA
100
AcDbEntity
  8
OracDecor_cornice_mouldings
 62
    34
420
 11622427
100
AcDbVertex
100
AcDb3dPolylineVertex
 10
-0.0000081822136053
 20
7.931817531585693
 30
-131.7937316894531
 70
    32
  0
VERTEX
  5
15B
330
FA
100
AcDbEntity
  8
OracDecor_cornice_mouldings
 62
    34
420
 11622427
100
AcDbVertex
100
AcDb3dPolylineVertex
 10
-0.00000781748804
 20
9.925274848937988
 30
-132.7076721191406
 70
    32
  0
VERTEX
  5
15C
330
FA
100
AcDbEntity
  8
OracDecor_cornice_mouldings
 62
    34
420
 11622427
100
AcDbVertex
100
AcDb3dPolylineVertex
 10
-0.0000081807411334
 20
5.470931529998779
 30
-140.9996032714843
 70
    32
  0
VERTEX
  5
15D
330
FA
100
AcDbEntity
  8
OracDecor_cornice_mouldings
 62
    34
420
 11622427
100
AcDbVertex
100
AcDb3dPolylineVertex
 10
-0.000009072067769
 20
0.0000072682009886
 30
-140.9996032714843
 70
    32
  0
VERTEX
  5
15E
330
FA
100
AcDbEntity
  8
OracDecor_cornice_mouldings
 62
    34
420
 11622427
100
AcDbVertex
100
AcDb3dPolylineVertex
 10
-0.0000099202452475
 20
0.0000104868522612
 30
-121.5955734252929
 70
    32
  0
VERTEX
  5
15F
330
FA
100
AcDbEntity
  8
OracDecor_cornice_mouldings
 62
    34
420
 11622427
100
AcDbVertex
100
AcDb3dPolylineVertex
 10
-0.0000098495402199
 20
0.4960908889770508
 30
-121.3641128540039
 70
    32
  0
VERTEX
  5
160
330
FA
100
AcDbEntity
  8
OracDecor_cornice_mouldings
 62
    34
420
 11622427
100
AcDbVertex
100
AcDb3dPolylineVertex
 10
-0.0000098031823654
 20
0.8629407882690429
 30
-121.0573501586914
 70
    32
  0
VERTEX
  5
161
330
FA
100
AcDbEntity
  8
OracDecor_cornice_mouldings
 62
    34
420
 11622427
100
AcDbVertex
100
AcDb3dPolylineVertex
 10
-0.0000097756865216
 20
1.136040925979614
 30
-120.6684799194336
 70
    32
  0
VERTEX
  5
162
330
FA
100
AcDbEntity
  8
OracDecor_cornice_mouldings
 62
    34
420
 11622427
100
AcDbVertex
100
AcDb3dPolylineVertex
 10
-0.0000097689217
 20
1.296830415725708
 30
-120.2239456176757
 70
    32
  0
VERTEX
  5
163
330
FA
100
AcDbEntity
  8
OracDecor_cornice_mouldings
 62
    34
420
 11622427
100
AcDbVertex
100
AcDb3dPolylineVertex
 10
-0.0000097833471955
 20
1.334378480911254
 30
-119.7539749145507
 70
    32
  0
VERTEX
  5
164
330
FA
100
AcDbEntity
  8
OracDecor_cornice_mouldings
 62
    34
420
 11622427
100
AcDbVertex
100
AcDb3dPolylineVertex
 10
-0.0000098179834822
 20
1.246129274368286
 30
-119.2905197143554
 70
    32
  0
VERTEX
  5
165
330
FA
100
AcDbEntity
  8
OracDecor_cornice_mouldings
 62
    34
420
 11622427
100
AcDbVertex
100
AcDb3dPolylineVertex
 10
-0.0000098704749689
 20
1.038087368011474
 30
-118.8650588989258
 70
    32
  0
VERTEX
  5
166
330
FA
100
AcDbEntity
  8
OracDecor_cornice_mouldings
 62
    34
420
 11622427
100
AcDbVertex
100
AcDb3dPolylineVertex
 10
-0.0000099372546174
 20
0.7243914604187012
 30
-118.5065307617187
 70
    32
  0
VERTEX
  5
167
330
FA
100
AcDbEntity
  8
OracDecor_cornice_mouldings
 62
    34
420
 11622427
100
AcDbVertex
100
AcDb3dPolylineVertex
 10
-0.0000100737715911
 20
0.0000148975959746
 30
-118.0832748413086
 70
    32
  0
VERTEX
  5
168
330
FA
100
AcDbEntity
  8
OracDecor_cornice_mouldings
 62
    34
420
 11622427
100
AcDbVertex
100
AcDb3dPolylineVertex
 10
-0.00001037075981
 20
0.0000159704795806
 30
-111.2889785766601
 70
    32
  0
VERTEX
  5
169
330
FA
100
AcDbEntity
  8
OracDecor_cornice_mouldings
 62
    34
420
 11622427
100
AcDbVertex
100
AcDb3dPolylineVertex
 10
-0.0000103236661744
 20
0.4004294872283936
 30
-110.8739395141601
 70
    32
  0
VERTEX
  5
16A
330
FA
100
AcDbEntity
  8
OracDecor_cornice_mouldings
 62
    34
420
 11622427
100
AcDbVertex
100
AcDb3dPolylineVertex
 10
-0.0000102644498838
 20
0.9980115890502929
 30
-110.0013351440429
 70
    32
  0
VERTEX
  5
16B
330
FA
100
AcDbEntity
  8
OracDecor_cornice_mouldings
 62
    34
420
 11622427
100
AcDbVertex
100
AcDb3dPolylineVertex
 10
-0.0000102515614344
 20
1.343726158142089
 30
-109.0076370239257
 70
    32
  0
VERTEX
  5
16C
330
FA
100
AcDbEntity
  8
OracDecor_cornice_mouldings
 62
    34
420
 11622427
100
AcDbVertex
100
AcDb3dPolylineVertex
 10
-0.0000102715030152
 20
1.431742906570434
 30
-108.223388671875
 70
    32
  0
VERTEX
  5
16D
330
FA
100
AcDbEntity
  8
OracDecor_cornice_mouldings
 62
    34
420
 11622427
100
AcDbVertex
100
AcDb3dPolylineVertex
 10
-0.0000044500006879
 20
1.431755304336547
 30
-66.86356353759766
 70
    32
  0
VERTEX
  5
16E
330
FA
100
AcDbEntity
  8
OracDecor_cornice_mouldings
 62
    34
420
 11622427
100
AcDbVertex
100
AcDb3dPolylineVertex
 10
-0.0000044642179091
 20
1.40528130531311
 30
-66.63699340820312
 70
    32
  0
VERTEX
  5
16F
330
FA
100
AcDbEntity
  8
OracDecor_cornice_mouldings
 62
    34
420
 11622427
100
AcDbVertex
100
AcDb3dPolylineVertex
 10
-0.0000044863159019
 20
1.327297687530517
 30
-66.42211151123047
 70
    32
  0
VERTEX
  5
170
330
FA
100
AcDbEntity
  8
OracDecor_cornice_mouldings
 62
    34
420
 11622427
100
AcDbVertex
100
AcDb3dPolylineVertex
 10
-0.0000045151919039
 20
1.20167589187622
 30
-66.22972106933594
 70
    32
  0
VERTEX
  5
171
330
FA
100
AcDbEntity
  8
OracDecor_cornice_mouldings
 62
    34
420
 11622427
100
AcDbVertex
100
AcDb3dPolylineVertex
 10
-0.0000045493252401
 20
1.035030841827392
 30
-66.06995391845703
 70
    32
  0
VERTEX
  5
172
330
FA
100
AcDbEntity
  8
OracDecor_cornice_mouldings
 62
    34
420
 11622427
100
AcDbVertex
100
AcDb3dPolylineVertex
 10
-0.0000045870015128
 20
0.8357472419738769
 30
-65.95079040527344
 70
    32
  0
VERTEX
  5
173
330
FA
100
AcDbEntity
  8
OracDecor_cornice_mouldings
 62
    34
420
 11622427
100
AcDbVertex
100
AcDb3dPolylineVertex
 10
-0.0000047397784328
 20
0.0000233614555327
 30
-65.57056427001953
 70
    32
  0
VERTEX
  5
174
330
FA
100
AcDbEntity
  8
OracDecor_cornice_mouldings
 62
    34
420
 11622427
100
AcDbVertex
100
AcDb3dPolylineVertex
 10
-0.0000050242142606
 20
0.0000206196418731
 30
-59.06344223022461
 70
    32
  0
VERTEX
  5
175
330
FA
100
AcDbEntity
  8
OracDecor_cornice_mouldings
 62
    34
420
 11622427
100
AcDbVertex
100
AcDb3dPolylineVertex
 10
-0.0000049944960665
 20
0.2031666040420532
 30
-58.98614501953125
 70
    32
  0
VERTEX
  5
176
330
FA
100
AcDbEntity
  8
OracDecor_cornice_mouldings
 62
    34
420
 11622427
100
AcDbVertex
100
AcDb3dPolylineVertex
 10
-0.0000049403042794
 20
0.5953328609466553
 30
-58.76423645019531
 70
    32
  0
VERTEX
  5
177
330
FA
100
AcDbEntity
  8
OracDecor_cornice_mouldings
 62
    34
420
 11622427
100
AcDbVertex
100
AcDb3dPolylineVertex
 10
-0.0000048984134082
 20
0.9408586025238037
 30
-58.43474578857422
 70
    32
  0
VERTEX
  5
178
330
FA
100
AcDbEntity
  8
OracDecor_cornice_mouldings
 62
    34
420
 11622427
100
AcDbVertex
100
AcDb3dPolylineVertex
 10
-0.0000048759789024
 20
1.187341451644897
 30
-58.02930450439453
 70
    32
  0
VERTEX
  5
179
330
FA
100
AcDbEntity
  8
OracDecor_cornice_mouldings
 62
    34
420
 11622427
100
AcDbVertex
100
AcDb3dPolylineVertex
 10
-0.0000048745250751
 20
1.318025588989257
 30
-57.57547760009765
 70
    32
  0
VERTEX
  5
17A
330
FA
100
AcDbEntity
  8
OracDecor_cornice_mouldings
 62
    34
420
 11622427
100
AcDbVertex
100
AcDb3dPolylineVertex
 10
-0.0000048941515161
 20
1.324026107788085
 30
-57.1041145324707
 70
    32
  0
VERTEX
  5
17B
330
FA
100
AcDbEntity
  8
OracDecor_cornice_mouldings
 62
    34
420
 11622427
100
AcDbVertex
100
AcDb3dPolylineVertex
 10
-0.0000049335230869
 20
1.204936981201171
 30
-56.64726257324218
 70
    32
  0
VERTEX
  5
17C
330
FA
100
AcDbEntity
  8
OracDecor_cornice_mouldings
 62
    34
420
 11622427
100
AcDbVertex
100
AcDb3dPolylineVertex
 10
-0.0000049899640544
 20
0.9688551425933837
 30
-56.23596954345703
 70
    32
  0
VERTEX
  5
17D
330
FA
100
AcDbEntity
  8
OracDecor_cornice_mouldings
 62
    34
420
 11622427
100
AcDbVertex
100
AcDb3dPolylineVertex
 10
-0.0000050596368055
 20
0.6318266391754151
 30
-55.8982048034668
 70
    32
  0
VERTEX
  5
17E
330
FA
100
AcDbEntity
  8
OracDecor_cornice_mouldings
 62
    34
420
 11622427
100
AcDbVertex
100
AcDb3dPolylineVertex
 10
-0.0000051777419685
 20
0.0000212156883208
 30
-55.55113601684571
 70
    32
  0
VERTEX
  5
17F
330
FA
100
AcDbEntity
  8
OracDecor_cornice_mouldings
 62
    34
420
 11622427
100
AcDbVertex
100
AcDb3dPolylineVertex
 10
-0.0000054625566008
 20
0.0000222885719268
 30
-49.03533172607422
 70
    32
  0
VERTEX
  5
180
330
FA
100
AcDbEntity
  8
OracDecor_cornice_mouldings
 62
    34
420
 11622427
100
AcDbVertex
100
AcDb3dPolylineVertex
 10
-0.0000052418795349
 20
1.602641582489013
 30
-48.1105728149414
 70
    32
  0
VERTEX
  5
181
330
FA
100
AcDbEntity
  8
OracDecor_cornice_mouldings
 62
    34
420
 11622427
100
AcDbVertex
100
AcDb3dPolylineVertex
 10
-0.0000049774675972
 20
3.607973098754882
 30
-46.68535614013672
 70
    32
  0
VERTEX
  5
182
330
FA
100
AcDbEntity
  8
OracDecor_cornice_mouldings
 62
    34
420
 11622427
100
AcDbVertex
100
AcDb3dPolylineVertex
 10
-0.0000047517341955
 20
5.433475494384765
 30
-45.04553985595703
 70
    32
  0
VERTEX
  5
183
330
FA
100
AcDbEntity
  8
OracDecor_cornice_mouldings
 62
    34
420
 11622427
100
AcDbVertex
100
AcDb3dPolylineVertex
 10
-0.0000045677015805
 20
7.054721355438232
 30
-43.21302032470703
 70
    32
  0
VERTEX
  5
184
330
FA
100
AcDbEntity
  8
OracDecor_cornice_mouldings
 62
    34
420
 11622427
100
AcDbVertex
100
AcDb3dPolylineVertex
 10
-0.0000044277594498
 20
8.450634002685546
 30
-41.21169281005859
 70
    32
  0
VERTEX
  5
185
330
FA
100
AcDbEntity
  8
OracDecor_cornice_mouldings
 62
    34
420
 11622427
100
AcDbVertex
100
AcDb3dPolylineVertex
 10
-0.0000043337381612
 20
9.602993965148925
 30
-39.06758880615234
 70
    32
  0
VERTEX
  5
186
330
FA
100
AcDbEntity
  8
OracDecor_cornice_mouldings
 62
    34
420
 11622427
100
AcDbVertex
100
AcDb3dPolylineVertex
 10
-0.0000042868864512
 20
10.49643611907959
 30
-36.80939483642578
 70
    32
  0
VERTEX
  5
187
330
FA
100
AcDbEntity
  8
OracDecor_cornice_mouldings
 62
    34
420
 11622427
100
AcDbVertex
100
AcDb3dPolylineVertex
 10
-0.0000042827227844
 20
11.20039463043213
 30
-34.28086471557617
 70
    32
  0
VERTEX
  5
188
330
FA
100
AcDbEntity
  8
OracDecor_cornice_mouldings
 62
    34
420
 11622427
100
AcDbVertex
100
AcDb3dPolylineVertex
 10
-0.0000042621254579
 20
12.15185737609863
 30
-31.20578384399414
 70
    32
  0
VERTEX
  5
189
330
FA
100
AcDbEntity
  8
OracDecor_cornice_mouldings
 62
    34
420
 11622427
100
AcDbVertex
100
AcDb3dPolylineVertex
 10
-0.0000041914368012
 20
13.38495731353759
 30
-28.22696304321289
 70
    32
  0
VERTEX
  5
18A
330
FA
100
AcDbEntity
  8
OracDecor_cornice_mouldings
 62
    34
420
 11622427
100
AcDbVertex
100
AcDb3dPolylineVertex
 10
-0.0000040712502596
 20
14.88927173614502
 30
-25.36963844299317
 70
    32
  0
VERTEX
  5
18B
330
FA
100
AcDbEntity
  8
OracDecor_cornice_mouldings
 62
    34
420
 11622427
100
AcDbVertex
100
AcDb3dPolylineVertex
 10
-0.000003902530807
 20
16.65275382995605
 30
-22.65666198730469
 70
    32
  0
VERTEX
  5
18C
330
FA
100
AcDbEntity
  8
OracDecor_cornice_mouldings
 62
    34
420
 11622427
100
AcDbVertex
100
AcDb3dPolylineVertex
 10
-0.0000036866938444
 20
18.66059494018555
 30
-20.1108283996582
 70
    32
  0
VERTEX
  5
18D
330
FA
100
AcDbEntity
  8
OracDecor_cornice_mouldings
 62
    34
420
 11622427
100
AcDbVertex
100
AcDb3dPolylineVertex
 10
-0.0000034254846923
 20
20.89656448364258
 30
-17.75270843505859
 70
    32
  0
VERTEX
  5
18E
330
FA
100
AcDbEntity
  8
OracDecor_cornice_mouldings
 62
    34
420
 11622427
100
AcDbVertex
100
AcDb3dPolylineVertex
 10
-0.0000107504611151
 20
23.34214401245117
 30
-15.60184478759765
 70
    32
  0
VERTEX
  5
18F
330
FA
100
AcDbEntity
  8
OracDecor_cornice_mouldings
 62
    34
420
 11622427
100
AcDbVertex
100
AcDb3dPolylineVertex
 10
-0.0000104053497125
 20
25.97713470458984
 30
-13.67596912384033
 70
    32
  0
VERTEX
  5
190
330
FA
100
AcDbEntity
  8
OracDecor_cornice_mouldings
 62
    34
420
 11622427
100
AcDbVertex
100
AcDb3dPolylineVertex
 10
-0.0000101225696199
 20
28.06034469604492
 30
-12.38070011138916
 70
    32
  0
VERTEX
  5
191
330
FA
100
AcDbEntity
  8
OracDecor_cornice_mouldings
 62
    34
420
 11622427
100
AcDbVertex
100
AcDb3dPolylineVertex
 10
-0.0000081821117419
 20
42.1061782836914
 30
-4.421687602996826
 70
    32
  0
VERTEX
  5
192
330
FA
100
AcDbEntity
  8
OracDecor_cornice_mouldings
 62
    34
420
 11622427
100
AcDbVertex
100
AcDb3dPolylineVertex
 10
-0.0000080154832176
 20
43.28692626953125
 30
-3.832835674285888
 70
    32
  0
VERTEX
  5
193
330
FA
100
AcDbEntity
  8
OracDecor_cornice_mouldings
 62
    34
420
 11622427
100
AcDbVertex
100
AcDb3dPolylineVertex
 10
-0.0000078814346125
 20
44.32180786132812
 30
-3.042308807373046
 70
    32
  0
VERTEX
  5
194
330
FA
100
AcDbEntity
  8
OracDecor_cornice_mouldings
 62
    34
420
 11622427
100
AcDbVertex
100
AcDb3dPolylineVertex
 10
-0.000007787629329
 20
45.16214752197265
 30
-2.056236267089843
 70
    32
  0
VERTEX
  5
195
330
FA
100
AcDbEntity
  8
OracDecor_cornice_mouldings
 62
    34
420
 11622427
100
AcDbVertex
100
AcDb3dPolylineVertex
 10
-0.0000077383092503
 20
45.76992797851562
 30
-0.919227659702301
 70
    32
  0
VERTEX
  5
196
330
FA
100
AcDbEntity
  8
OracDecor_cornice_mouldings
 62
    34
420
 11622427
100
AcDbVertex
100
AcDb3dPolylineVertex
 10
-0.000007730453035
 20
46.06477355957031
 30
-0.0000038834291445
 70
    32
  0
VERTEX
  5
197
330
FA
100
AcDbEntity
  8
OracDecor_cornice_mouldings
 62
    34
420
 11622427
100
AcDbVertex
100
AcDb3dPolylineVertex
 10
-0.0000068197464316
 20
51.65464782714844
 30
-0.0000048371034609
 70
    32
  0
VERTEX
  5
198
330
FA
100
AcDbEntity
  8
OracDecor_cornice_mouldings
 62
    34
420
 11622427
100
AcDbVertex
100
AcDb3dPolylineVertex
 10
-0.0000062675430854
 20
54.70872497558594
 30
-1.249814629554748
 70
    32
  0
VERTEX
  5
199
330
FA
100
AcDbEntity
  8
OracDecor_cornice_mouldings
 62
    34
420
 11622427
100
AcDbVertex
100
AcDb3dPolylineVertex
 10
-0.0000062045069171
 20
55.08088684082031
 30
-1.30479609966278
 70
    32
  0
VERTEX
  5
19A
330
FA
100
AcDbEntity
  8
OracDecor_cornice_mouldings
 62
    34
420
 11622427
100
AcDbVertex
100
AcDb3dPolylineVertex
 10
-0.0000061440873651
 20
55.45696258544921
 30
-1.285341143608093
 70
    32
  0
VERTEX
  5
19B
330
FA
100
AcDbEntity
  8
OracDecor_cornice_mouldings
 62
    34
420
 11622427
100
AcDbVertex
100
AcDb3dPolylineVertex
 10
-0.000006088824648
 20
55.82113647460937
 30
-1.192251086235046
 70
    32
  0
VERTEX
  5
19C
330
FA
100
AcDbEntity
  8
OracDecor_cornice_mouldings
 62
    34
420
 11622427
100
AcDbVertex
100
AcDb3dPolylineVertex
 10
-0.0000060409552134
 20
56.15867614746093
 30
-1.029291033744812
 70
    32
  0
VERTEX
  5
19D
330
FA
100
AcDbEntity
  8
OracDecor_cornice_mouldings
 62
    34
420
 11622427
100
AcDbVertex
100
AcDb3dPolylineVertex
 10
-0.000006002484497
 20
56.4554443359375
 30
-0.8032932877540588
 70
    32
  0
VERTEX
  5
19E
330
FA
100
AcDbEntity
  8
OracDecor_cornice_mouldings
 62
    34
420
 11622427
100
AcDbVertex
100
AcDb3dPolylineVertex
 10
-0.0000059749686443
 20
56.69943237304687
 30
-0.5233860611915589
 70
    32
  0
VERTEX
  5
19F
330
FA
100
AcDbEntity
  8
OracDecor_cornice_mouldings
 62
    34
420
 11622427
100
AcDbVertex
100
AcDb3dPolylineVertex
 10
-0.0000059552935454
 20
56.96062469482422
 30
-0.0000056715684877
 70
    32
  0
SEQEND
  5
1A0
330
FA
100
AcDbEntity
  8
OracDecor_cornice_mouldings
 62
    34
420
 11622427
  0
ENDSEC
  0
SECTION
  2
OBJECTS
  0
DICTIONARY
  5
C
330
0
100
AcDbDictionary
281
     1
  3
ACAD_COLOR
350
DC
  3
ACAD_DETAILVIEWSTYLE
350
F5
  3
ACAD_GROUP
350
D
  3
ACAD_LAYOUT
350
1A
  3
ACAD_MATERIAL
350
AA
  3
ACAD_MLEADERSTYLE
350
F1
  3
ACAD_MLINESTYLE
350
17
  3
ACAD_PLOTSETTINGS
350
19
  3
ACAD_PLOTSTYLENAME
350
E
  3
ACAD_SCALELIST
350
DF
  3
ACAD_SECTIONVIEWSTYLE
350
F3
  3
ACAD_TABLESTYLE
350
DD
  3
ACAD_VISUALSTYLE
350
C3
  3
ACDB_RECOMPOSE_DATA
350
1AD
  3
AcDbVariableDictionary
350
1A1
  0
DICTIONARY
  5
DC
102
{ACAD_REACTORS
330
C
102
}
330
C
100
AcDbDictionary
281
     1
  0
DICTIONARY
  5
F5
102
{ACAD_REACTORS
330
C
102
}
330
C
100
AcDbDictionary
281
     1
  3
Imperial24
350
F6
  0
DICTIONARY
  5
D
102
{ACAD_REACTORS
330
C
102
}
330
C
100
AcDbDictionary
281
     1
  0
DICTIONARY
  5
1A
102
{ACAD_REACTORS
330
C
102
}
330
C
100
AcDbDictionary
281
     1
  3
Layout1
350
1E
  3
Layout2
350
26
  3
Model
350
22
  0
DICTIONARY
  5
AA
102
{ACAD_REACTORS
330
C
102
}
330
C
100
AcDbDictionary
281
     1
  3
ByBlock
350
B3
  3
ByLayer
350
AB
  3
Global
350
BB
  0
DICTIONARY
  5
F1
102
{ACAD_REACTORS
330
C
102
}
330
C
100
AcDbDictionary
281
     1
  3
Standard
350
F2
  0
DICTIONARY
  5
17
102
{ACAD_REACTORS
330
C
102
}
330
C
100
AcDbDictionary
281
     1
  3
Standard
350
18
  0
DICTIONARY
  5
19
102
{ACAD_REACTORS
330
C
102
}
330
C
100
AcDbDictionary
281
     1
  0
ACDBDICTIONARYWDFLT
  5
E
102
{ACAD_REACTORS
330
C
102
}
330
C
100
AcDbDictionary
281
     1
  3
ByLayer
350
2D
  3
Normal
350
F
100
AcDbDictionaryWithDefault
340
F
  0
DICTIONARY
  5
DF
102
{ACAD_REACTORS
330
C
102
}
330
C
100
AcDbDictionary
281
     1
  3
A0
350
E0
  3
A1
350
E1
  3
A2
350
E2
  3
A3
350
E3
  3
A4
350
E4
  3
A5
350
E5
  3
A6
350
E6
  3
A7
350
E7
  3
A8
350
E8
  3
A9
350
E9
  3
B0
350
EA
  3
B1
350
EB
  3
B2
350
EC
  3
B3
350
ED
  3
B4
350
EE
  3
B5
350
EF
  3
B6
350
F0
  0
DICTIONARY
  5
F3
102
{ACAD_REACTORS
330
C
102
}
330
C
100
AcDbDictionary
281
     1
  3
Imperial24
350
F4
  0
DICTIONARY
  5
DD
102
{ACAD_REACTORS
330
C
102
}
330
C
100
AcDbDictionary
281
     1
  3
Standard
350
DE
  0
DICTIONARY
  5
C3
102
{ACAD_REACTORS
330
C
102
}
330
C
100
AcDbDictionary
281
     1
  3
2dWireframe
350
C9
  3
Basic
350
C8
  3
Brighten
350
CF
  3
ColorChange
350
D3
  3
Conceptual
350
CC
  3
Dim
350
CE
  3
EdgeColorOff
350
DB
  3
Facepattern
350
D2
  3
Flat
350
C4
  3
FlatWithEdges
350
C5
  3
Gouraud
350
C6
  3
GouraudWithEdges
350
C7
  3
Hidden
350
CB
  3
JitterOff
350
D9
  3
Linepattern
350
D1
  3
OverhangOff
350
DA
  3
Realistic
350
CD
  3
Shaded
350
D8
  3
Shaded with edges
350
D7
  3
Shades of Gray
350
D4
  3
Sketchy
350
D5
  3
Thicken
350
D0
  3
Wireframe
350
CA
  3
X-Ray
350
D6
  0
XRECORD
  5
1AD
102
{ACAD_REACTORS
330
C
102
}
330
C
100
AcDbXrecord
280
     1
 90
        1
330
DE
  0
DICTIONARY
  5
1A1
102
{ACAD_REACTORS
330
C
102
}
330
C
100
AcDbDictionary
281
     1
  3
CANNOSCALE
350
1A7
  3
CMLEADERSTYLE
350
1A3
  3
CTABLESTYLE
350
1A2
  3
CVIEWDETAILSTYLE
350
1A4
  3
CVIEWSECTIONSTYLE
350
1A5
  3
LAYEREVAL
350
1A9
  3
LAYERNOTIFY
350
1AA
  3
LIGHTINGUNITS
350
1A8
  3
MSLTSCALE
350
1A6
  0
ACDBDETAILVIEWSTYLE
  5
F6
102
{ACAD_XDICTIONARY
360
1E2
102
}
102
{ACAD_REACTORS
330
F5
102
}
330
F5
100
AcDbModelDocViewStyle
 70
     0
  3
Imperial24
290
     0
100
AcDbDetailViewStyle
 70
     0
 71
     0
 90
        3
 71
     1
340
11
 62
   256
 40
0.24
340
0
 62
   256
 40
0.24
300

 40
0.36
280
     3
 71
     2
340
16
 90
       25
 62
   256
 71
     3
340
11
 62
   256
 40
0.24
 90
        1
 40
0.75
 90
        1
300
%<\AcVar ViewType \f "%tc1">% %<\AcVar ViewDetailId>%\PSCALE %<\AcVar ViewScale \f "%sn">%
 71
     4
340
16
 90
       25
 62
   256
340
16
 90
       25
 62
   256
280
     0
  0
LAYOUT
  5
1E
102
{ACAD_REACTORS
330
1A
102
}
330
1A
100
AcDbPlotSettings
  1

  2
\\KTXNTBDC\CASF2PN1
  4

  6

 40
0.0
 41
0.0
 42
0.0
 43
0.0
 44
0.0
 45
0.0
 46
0.0
 47
0.0
 48
0.0
 49
0.0
140
0.0
141
0.0
142
1.0
143
1.0
 70
   688
 72
     0
 73
     0
 74
     5
  7

 75
    16
147
1.0
 76
     0
 77
     2
 78
   300
148
0.0
149
0.0
100
AcDbLayout
  1
Layout1
 70
     1
 71
     1
 10
0.0
 20
0.0
 11
12.0
 21
9.0
 12
0.0
 22
0.0
 32
0.0
 14
1.000000000000000E+20
 24
1.000000000000000E+20
 34
1.000000000000000E+20
 15
-1.000000000000000E+20
 25
-1.000000000000000E+20
 35
-1.000000000000000E+20
146
0.0
 13
0.0
 23
0.0
 33
0.0
 16
1.0
 26
0.0
 36
0.0
 17
0.0
 27
1.0
 37
0.0
 76
     0
330
1B
  0
LAYOUT
  5
26
102
{ACAD_REACTORS
330
1A
102
}
330
1A
100
AcDbPlotSettings
  1

  2
\\KTXNTBDC\CASF2PN1
  4

  6

 40
0.0
 41
0.0
 42
0.0
 43
0.0
 44
0.0
 45
0.0
 46
0.0
 47
0.0
 48
0.0
 49
0.0
140
0.0
141
0.0
142
1.0
143
1.0
 70
   688
 72
     0
 73
     0
 74
     5
  7

 75
    16
147
1.0
 76
     0
 77
     2
 78
   300
148
0.0
149
0.0
100
AcDbLayout
  1
Layout2
 70
     1
 71
     2
 10
0.0
 20
0.0
 11
12.0
 21
9.0
 12
0.0
 22
0.0
 32
0.0
 14
0.0
 24
0.0
 34
0.0
 15
0.0
 25
0.0
 35
0.0
146
0.0
 13
0.0
 23
0.0
 33
0.0
 16
1.0
 26
0.0
 36
0.0
 17
0.0
 27
1.0
 37
0.0
 76
     0
330
23
  0
LAYOUT
  5
22
102
{ACAD_REACTORS
330
1A
102
}
330
1A
100
AcDbPlotSettings
  1

  2
\\KTXNTBDC\CASF2PN1
  4

  6

 40
0.0
 41
0.0
 42
0.0
 43
0.0
 44
0.0
 45
0.0
 46
0.0
 47
0.0
 48
0.0
 49
0.0
140
0.0
141
0.0
142
1.0
143
1.0
 70
  1712
 72
     0
 73
     0
 74
     0
  7

 75
     0
147
1.0
 76
     0
 77
     2
 78
   300
148
0.0
149
0.0
100
AcDbLayout
  1
Model
 70
     1
 71
     0
 10
0.0
 20
0.0
 11
12.0
 21
9.0
 12
0.0
 22
0.0
 32
0.0
 14
0.0
 24
0.0
 34
0.0
 15
0.0
 25
0.0
 35
0.0
146
0.0
 13
0.0
 23
0.0
 33
0.0
 16
1.0
 26
0.0
 36
0.0
 17
0.0
 27
1.0
 37
0.0
 76
     0
330
1F
  0
MATERIAL
  5
B3
102
{ACAD_XDICTIONARY
360
B4
102
}
102
{ACAD_REACTORS
330
AA
102
}
330
AA
100
AcDbMaterial
  1
ByBlock
 72
     0
 43
0.0208333333333333
 43
0.0
 43
0.0
 43
0.0
 43
0.0
 43
0.0208333333333333
 43
0.0
 43
0.0
 43
0.0
 43
0.0
 43
1.0
 43
0.0
 43
0.0
 43
0.0
 43
0.0
 43
1.0
 77
     0
 47
0.0208333333333333
 47
0.0
 47
0.0
 47
0.0
 47
0.0
 47
0.0208333333333333
 47
0.0
 47
0.0
 47
0.0
 47
0.0
 47
1.0
 47
0.0
 47
0.0
 47
0.0
 47
0.0
 47
1.0
171
     0
 49
0.0208333333333333
 49
0.0
 49
0.0
 49
0.0
 49
0.0
 49
0.0208333333333333
 49
0.0
 49
0.0
 49
0.0
 49
0.0
 49
1.0
 49
0.0
 49
0.0
 49
0.0
 49
0.0
 49
1.0
175
     0
142
0.0208333333333333
142
0.0
142
0.0
142
0.0
142
0.0
142
0.0208333333333333
142
0.0
142
0.0
142
0.0
142
0.0
142
1.0
142
0.0
142
0.0
142
0.0
142
0.0
142
1.0
179
     0
144
0.0208333333333333
144
0.0
144
0.0
144
0.0
144
0.0
144
0.0208333333333333
144
0.0
144
0.0
144
0.0
144
0.0
144
1.0
144
0.0
144
0.0
144
0.0
144
0.0
144
1.0
147
0.0208333333333333
147
0.0
147
0.0
147
0.0
147
0.0
147
0.0208333333333333
147
0.0
147
0.0
147
0.0
147
0.0
147
1.0
147
0.0
147
0.0
147
0.0
147
0.0
147
1.0
  0
MATERIAL
  5
AB
102
{ACAD_XDICTIONARY
360
AC
102
}
102
{ACAD_REACTORS
330
AA
102
}
330
AA
100
AcDbMaterial
  1
ByLayer
 72
     0
 43
0.0208333333333333
 43
0.0
 43
0.0
 43
0.0
 43
0.0
 43
0.0208333333333333
 43
0.0
 43
0.0
 43
0.0
 43
0.0
 43
1.0
 43
0.0
 43
0.0
 43
0.0
 43
0.0
 43
1.0
 77
     0
 47
0.0208333333333333
 47
0.0
 47
0.0
 47
0.0
 47
0.0
 47
0.0208333333333333
 47
0.0
 47
0.0
 47
0.0
 47
0.0
 47
1.0
 47
0.0
 47
0.0
 47
0.0
 47
0.0
 47
1.0
171
     0
 49
0.0208333333333333
 49
0.0
 49
0.0
 49
0.0
 49
0.0
 49
0.0208333333333333
 49
0.0
 49
0.0
 49
0.0
 49
0.0
 49
1.0
 49
0.0
 49
0.0
 49
0.0
 49
0.0
 49
1.0
175
     0
142
0.0208333333333333
142
0.0
142
0.0
142
0.0
142
0.0
142
0.0208333333333333
142
0.0
142
0.0
142
0.0
142
0.0
142
1.0
142
0.0
142
0.0
142
0.0
142
0.0
142
1.0
179
     0
144
0.0208333333333333
144
0.0
144
0.0
144
0.0
144
0.0
144
0.0208333333333333
144
0.0
144
0.0
144
0.0
144
0.0
144
1.0
144
0.0
144
0.0
144
0.0
144
0.0
144
1.0
147
0.0208333333333333
147
0.0
147
0.0
147
0.0
147
0.0
147
0.0208333333333333
147
0.0
147
0.0
147
0.0
147
0.0
147
1.0
147
0.0
147
0.0
147
0.0
147
0.0
147
1.0
  0
MATERIAL
  5
BB
102
{ACAD_XDICTIONARY
360
BC
102
}
102
{ACAD_REACTORS
330
AA
102
}
330
AA
100
AcDbMaterial
  1
Global
 72
     0
 43
0.0208333333333333
 43
0.0
 43
0.0
 43
0.0
 43
0.0
 43
0.0208333333333333
 43
0.0
 43
0.0
 43
0.0
 43
0.0
 43
1.0
 43
0.0
 43
0.0
 43
0.0
 43
0.0
 43
1.0
 77
     0
 47
0.0208333333333333
 47
0.0
 47
0.0
 47
0.0
 47
0.0
 47
0.0208333333333333
 47
0.0
 47
0.0
 47
0.0
 47
0.0
 47
1.0
 47
0.0
 47
0.0
 47
0.0
 47
0.0
 47
1.0
171
     0
 49
0.0208333333333333
 49
0.0
 49
0.0
 49
0.0
 49
0.0
 49
0.0208333333333333
 49
0.0
 49
0.0
 49
0.0
 49
0.0
 49
1.0
 49
0.0
 49
0.0
 49
0.0
 49
0.0
 49
1.0
175
     0
142
0.0208333333333333
142
0.0
142
0.0
142
0.0
142
0.0
142
0.0208333333333333
142
0.0
142
0.0
142
0.0
142
0.0
142
1.0
142
0.0
142
0.0
142
0.0
142
0.0
142
1.0
179
     0
144
0.0208333333333333
144
0.0
144
0.0
144
0.0
144
0.0
144
0.0208333333333333
144
0.0
144
0.0
144
0.0
144
0.0
144
1.0
144
0.0
144
0.0
144
0.0
144
0.0
144
1.0
147
0.0208333333333333
147
0.0
147
0.0
147
0.0
147
0.0
147
0.0208333333333333
147
0.0
147
0.0
147
0.0
147
0.0
147
1.0
147
0.0
147
0.0
147
0.0
147
0.0
147
1.0
  0
MLEADERSTYLE
  5
F2
102
{ACAD_XDICTIONARY
360
1DE
102
}
102
{ACAD_REACTORS
330
F1
102
}
330
F1
100
AcDbMLeaderStyle
179
     2
170
     2
171
     1
172
     0
 90
        2
 40
0.0
 41
0.0
173
     1
 91
-1056964608
340
14
 92
       -2
290
     1
 42
0.09
291
     1
 43
0.36
  3
Standard
 44
0.18
300

342
11
174
     1
178
     6
175
     1
176
     0
 93
-1056964608
 45
0.18
292
     0
297
     0
 46
0.18
 94
-1056964608
 47
1.0
 49
1.0
140
1.0
293
     1
141
0.0
294
     1
177
     0
142
1.0
295
     0
296
     0
143
0.125
271
     0
272
     9
273
     9
  0
MLINESTYLE
  5
18
102
{ACAD_REACTORS
330
17
102
}
330
17
100
AcDbMlineStyle
  2
STANDARD
 70
     0
  3

 62
   256
 51
90.0
 52
90.0
 71
     2
 49
0.5
 62
   256
  6
BYLAYER
 49
-0.5
 62
   256
  6
BYLAYER
  0
ACDBPLACEHOLDER
  5
2D
102
{ACAD_REACTORS
330
E
102
}
330
E
  0
ACDBPLACEHOLDER
  5
F
102
{ACAD_REACTORS
330
E
102
}
330
E
  0
SCALE
  5
E0
102
{ACAD_REACTORS
330
DF
102
}
330
DF
100
AcDbScale
 70
     0
300
1:1
140
1.0
141
1.0
290
     1
  0
SCALE
  5
E1
102
{ACAD_REACTORS
330
DF
102
}
330
DF
100
AcDbScale
 70
     0
300
1/128" = 1'-0"
140
0.0078125
141
12.0
290
     0
  0
SCALE
  5
E2
102
{ACAD_REACTORS
330
DF
102
}
330
DF
100
AcDbScale
 70
     0
300
1/64" = 1'-0"
140
0.015625
141
12.0
290
     0
  0
SCALE
  5
E3
102
{ACAD_REACTORS
330
DF
102
}
330
DF
100
AcDbScale
 70
     0
300
1/32" = 1'-0"
140
0.03125
141
12.0
290
     0
  0
SCALE
  5
E4
102
{ACAD_REACTORS
330
DF
102
}
330
DF
100
AcDbScale
 70
     0
300
1/16" = 1'-0"
140
0.0625
141
12.0
290
     0
  0
SCALE
  5
E5
102
{ACAD_REACTORS
330
DF
102
}
330
DF
100
AcDbScale
 70
     0
300
3/32" = 1'-0"
140
0.09375
141
12.0
290
     0
  0
SCALE
  5
E6
102
{ACAD_REACTORS
330
DF
102
}
330
DF
100
AcDbScale
 70
     0
300
1/8" = 1'-0"
140
0.125
141
12.0
290
     0
  0
SCALE
  5
E7
102
{ACAD_REACTORS
330
DF
102
}
330
DF
100
AcDbScale
 70
     0
300
3/16" = 1'-0"
140
0.1875
141
12.0
290
     0
  0
SCALE
  5
E8
102
{ACAD_REACTORS
330
DF
102
}
330
DF
100
AcDbScale
 70
     0
300
1/4" = 1'-0"
140
0.25
141
12.0
290
     0
  0
SCALE
  5
E9
102
{ACAD_REACTORS
330
DF
102
}
330
DF
100
AcDbScale
 70
     0
300
3/8" = 1'-0"
140
0.375
141
12.0
290
     0
  0
SCALE
  5
EA
102
{ACAD_REACTORS
330
DF
102
}
330
DF
100
AcDbScale
 70
     0
300
1/2" = 1'-0"
140
0.5
141
12.0
290
     0
  0
SCALE
  5
EB
102
{ACAD_REACTORS
330
DF
102
}
330
DF
100
AcDbScale
 70
     0
300
3/4" = 1'-0"
140
0.75
141
12.0
290
     0
  0
SCALE
  5
EC
102
{ACAD_REACTORS
330
DF
102
}
330
DF
100
AcDbScale
 70
     0
300
1" = 1'-0"
140
1.0
141
12.0
290
     0
  0
SCALE
  5
ED
102
{ACAD_REACTORS
330
DF
102
}
330
DF
100
AcDbScale
 70
     0
300
1-1/2" = 1'-0"
140
1.5
141
12.0
290
     0
  0
SCALE
  5
EE
102
{ACAD_REACTORS
330
DF
102
}
330
DF
100
AcDbScale
 70
     0
300
3" = 1'-0"
140
3.0
141
12.0
290
     0
  0
SCALE
  5
EF
102
{ACAD_REACTORS
330
DF
102
}
330
DF
100
AcDbScale
 70
     0
300
6" = 1'-0"
140
6.0
141
12.0
290
     0
  0
SCALE
  5
F0
102
{ACAD_REACTORS
330
DF
102
}
330
DF
100
AcDbScale
 70
     0
300
1'-0" = 1'-0"
140
12.0
141
12.0
290
     0
  0
ACDBSECTIONVIEWSTYLE
  5
F4
102
{ACAD_XDICTIONARY
360
1E0
102
}
102
{ACAD_REACTORS
330
F3
102
}
330
F3
100
AcDbModelDocViewStyle
 70
     0
  3
Imperial24
290
     0
100
AcDbSectionViewStyle
 70
     0
 71
     0
 90
       78
 71
     1
340
11
 62
   256
 40
0.24
340
0
340
0
 62
   256
 40
0.24
300
I, O, Q, S, X, Z
 40
0.48
 90
        3
 40
0.18
 90
        1
 71
     2
340
16
 90
       25
 62
   256
340
16
 90
       50
 62
   256
 40
0.24
 40
0.0
 40
0.24
 71
     3
340
11
 62
   256
 40
0.24
 90
        1
 40
0.75
 90
        1
300
%<\AcVar ViewType \f "%tc1">% %<\AcVar ViewSectionStartId>%-%<\AcVar ViewSectionEndId>%\PSCALE %<\AcVar ViewScale \f "%sn">%
 71
     4
 62
   256
 62
   257
300
ANSI31
 40
1.0
 90
        0
290
     0
290
     0
 90
        6
 40
0.0
 40
1.570796326794896
 40
0.2617993877991494
 40
1.308996938995747
 40
-0.2617993877991494
 40
1.832595714594046
  0
TABLESTYLE
  5
DE
102
{ACAD_XDICTIONARY
360
1AB
102
}
102
{ACAD_REACTORS
330
DD
102
}
330
DD
100
AcDbTableStyle
280
     0
  3
Standard
 70
     0
 71
     0
 40
0.06
 41
0.06
280
     0
281
     0
  7
Standard
140
0.18
170
     2
 62
     0
 63
     7
283
     0
 90
      512
 91
        0
  1

274
    -2
284
     1
 64
     0
275
    -2
285
     1
 65
     0
276
    -2
286
     1
 66
     0
277
    -2
287
     1
 67
     0
278
    -2
288
     1
 68
     0
279
    -2
289
     1
 69
     0
  7
Standard
140
0.25
170
     5
 62
     0
 63
     7
283
     0
 90
      512
 91
        0
  1

274
    -2
284
     1
 64
     0
275
    -2
285
     1
 65
     0
276
    -2
286
     1
 66
     0
277
    -2
287
     1
 67
     0
278
    -2
288
     1
 68
     0
279
    -2
289
     1
 69
     0
  7
Standard
140
0.18
170
     5
 62
     0
 63
     7
283
     0
 90
      512
 91
        0
  1

274
    -2
284
     1
 64
     0
275
    -2
285
     1
 65
     0
276
    -2
286
     1
 66
     0
277
    -2
287
     1
 67
     0
278
    -2
288
     1
 68
     0
279
    -2
289
     1
 69
     0
  0
VISUALSTYLE
  5
C9
102
{ACAD_XDICTIONARY
360
1B8
102
}
102
{ACAD_REACTORS
330
C3
102
}
330
C3
100
AcDbVisualStyle
  2
2dWireframe
 70
     4
177
     2
291
     0
 71
     0
176
     1
 72
     2
176
     1
 73
     0
176
     1
 90
        0
176
     1
 40
0.6
176
     1
 41
30.0
176
     1
 63
     7
421
 16777215
176
     1
 74
     1
176
     1
 91
        4
176
     1
 64
     7
176
     1
 65
   257
176
     1
 75
     1
176
     1
175
     1
176
     1
 42
1.0
176
     1
 92
        0
176
     1
 66
   257
176
     1
 43
1.0
176
     1
 76
     1
176
     1
 77
     6
176
     1
 78
     2
176
     1
 67
     7
176
     1
 79
     5
176
     1
170
     0
176
     1
171
     0
176
     1
290
     0
176
     1
 93
        1
176
     1
 44
0.0
176
     1
173
     0
176
     1
1001
ACAD
1000
AcDbSavedByObjectVersion
1070
     0
  0
VISUALSTYLE
  5
C8
102
{ACAD_XDICTIONARY
360
1B6
102
}
102
{ACAD_REACTORS
330
C3
102
}
330
C3
100
AcDbVisualStyle
  2
Basic
 70
     7
177
     2
291
     1
 71
     1
176
     1
 72
     0
176
     1
 73
     1
176
     1
 90
        0
176
     1
 40
0.6
176
     1
 41
30.0
176
     1
 63
     7
421
 16777215
176
     1
 74
     0
176
     1
 91
        4
176
     1
 64
     7
176
     1
 65
   257
176
     1
 75
     1
176
     1
175
     1
176
     1
 42
1.0
176
     1
 92
        8
176
     1
 66
     7
176
     1
 43
1.0
176
     1
 76
     1
176
     1
 77
     6
176
     1
 78
     2
176
     1
 67
     7
176
     1
 79
     5
176
     1
170
     0
176
     1
171
     0
176
     1
290
     0
176
     1
 93
        1
176
     1
 44
0.0
176
     1
173
     0
176
     1
1001
ACAD
1000
AcDbSavedByObjectVersion
1070
     0
  0
VISUALSTYLE
  5
CF
102
{ACAD_XDICTIONARY
360
1C4
102
}
102
{ACAD_REACTORS
330
C3
102
}
330
C3
100
AcDbVisualStyle
  2
Brighten
 70
    12
177
     2
291
     1
 71
     2
176
     1
 72
     2
176
     1
 73
     0
176
     1
 90
        0
176
     1
 40
0.6
176
     1
 41
30.0
176
     1
 63
     7
421
 16777215
176
     1
 74
     1
176
     1
 91
        4
176
     1
 64
     7
176
     1
 65
   257
176
     1
 75
     1
176
     1
175
     1
176
     1
 42
1.0
176
     1
 92
        8
176
     1
 66
     7
176
     1
 43
1.0
176
     1
 76
     1
176
     1
 77
     6
176
     1
 78
     2
176
     1
 67
     7
176
     1
 79
     5
176
     1
170
     0
176
     1
171
     0
176
     1
290
     0
176
     1
 93
        1
176
     1
 44
50.0
176
     1
173
     0
176
     1
1001
ACAD
1000
AcDbSavedByObjectVersion
1070
     0
  0
VISUALSTYLE
  5
D3
102
{ACAD_XDICTIONARY
360
1CC
102
}
102
{ACAD_REACTORS
330
C3
102
}
330
C3
100
AcDbVisualStyle
  2
ColorChange
 70
    16
177
     2
291
     1
 71
     2
176
     1
 72
     2
176
     1
 73
     3
176
     1
 90
        0
176
     1
 40
0.6
176
     1
 41
30.0
176
     1
 63
     8
421
  8421504
176
     1
 74
     1
176
     1
 91
        4
176
     1
 64
     7
176
     1
 65
   257
176
     1
 75
     1
176
     1
175
     1
176
     1
 42
1.0
176
     1
 92
        8
176
     1
 66
     8
424
  8421504
176
     1
 43
1.0
176
     1
 76
     1
176
     1
 77
     6
176
     1
 78
     2
176
     1
 67
     7
176
     1
 79
     5
176
     1
170
     0
176
     1
171
     0
176
     1
290
     0
176
     1
 93
        1
176
     1
 44
0.0
176
     1
173
     0
176
     1
1001
ACAD
1000
AcDbSavedByObjectVersion
1070
     0
  0
VISUALSTYLE
  5
CC
102
{ACAD_XDICTIONARY
360
1BE
102
}
102
{ACAD_REACTORS
330
C3
102
}
330
C3
100
AcDbVisualStyle
  2
Conceptual
 70
     9
177
     2
291
     0
 71
     3
176
     1
 72
     2
176
     1
 73
     0
176
     1
 90
        0
176
     1
 40
0.6
176
     1
 41
30.0
176
     1
 63
     7
421
 16777215
176
     1
 74
     2
176
     1
 91
        2
176
     1
 64
     7
176
     1
 65
   257
176
     1
 75
     1
176
     1
175
     1
176
     1
 42
179.0
176
     1
 92
        8
176
     1
 66
     7
176
     1
 43
1.0
176
     1
 76
     1
176
     1
 77
     6
176
     1
 78
     2
176
     1
 67
     7
176
     1
 79
     3
176
     1
170
     0
176
     1
171
     0
176
     1
290
     0
176
     1
 93
        1
176
     1
 44
0.0
176
     1
173
     0
176
     1
1001
ACAD
1000
AcDbSavedByObjectVersion
1070
     0
  0
VISUALSTYLE
  5
CE
102
{ACAD_XDICTIONARY
360
1C2
102
}
102
{ACAD_REACTORS
330
C3
102
}
330
C3
100
AcDbVisualStyle
  2
Dim
 70
    11
177
     2
291
     1
 71
     2
176
     1
 72
     2
176
     1
 73
     0
176
     1
 90
        0
176
     1
 40
0.6
176
     1
 41
30.0
176
     1
 63
     7
421
 16777215
176
     1
 74
     1
176
     1
 91
        4
176
     1
 64
     7
176
     1
 65
   257
176
     1
 75
     1
176
     1
175
     1
176
     1
 42
1.0
176
     1
 92
        8
176
     1
 66
     7
176
     1
 43
1.0
176
     1
 76
     1
176
     1
 77
     6
176
     1
 78
     2
176
     1
 67
     7
176
     1
 79
     5
176
     1
170
     0
176
     1
171
     0
176
     1
290
     0
176
     1
 93
        1
176
     1
 44
-50.0
176
     1
173
     0
176
     1
1001
ACAD
1000
AcDbSavedByObjectVersion
1070
     0
  0
VISUALSTYLE
  5
DB
102
{ACAD_XDICTIONARY
360
1DC
102
}
102
{ACAD_REACTORS
330
C3
102
}
330
C3
100
AcDbVisualStyle
  2
EdgeColorOff
 70
    22
177
     2
291
     1
 71
     2
176
     0
 72
     2
176
     0
 73
     0
176
     0
 90
        0
176
     0
 40
0.6
176
     0
 41
30.0
176
     0
 63
     7
421
 16777215
176
     0
 74
     1
176
     0
 91
        4
176
     0
 64
     7
176
     0
 65
   257
176
     0
 75
     1
176
     0
175
     1
176
     0
 42
1.0
176
     0
 92
        8
176
     2
 66
     7
176
     0
 43
1.0
176
     0
 76
     1
176
     0
 77
     6
176
     0
 78
     2
176
     0
 67
     7
176
     0
 79
     5
176
     0
170
     0
176
     0
171
     0
176
     0
290
     0
176
     0
 93
        1
176
     0
 44
0.0
176
     0
173
     0
176
     0
1001
ACAD
1000
AcDbSavedByObjectVersion
1070
     0
  0
VISUALSTYLE
  5
D2
102
{ACAD_XDICTIONARY
360
1CA
102
}
102
{ACAD_REACTORS
330
C3
102
}
330
C3
100
AcDbVisualStyle
  2
Facepattern
 70
    15
177
     2
291
     1
 71
     2
176
     1
 72
     2
176
     1
 73
     0
176
     1
 90
        0
176
     1
 40
0.6
176
     1
 41
30.0
176
     1
 63
     7
421
 16777215
176
     1
 74
     1
176
     1
 91
        4
176
     1
 64
     7
176
     1
 65
   257
176
     1
 75
     1
176
     1
175
     1
176
     1
 42
1.0
176
     1
 92
        8
176
     1
 66
     7
176
     1
 43
1.0
176
     1
 76
     1
176
     1
 77
     6
176
     1
 78
     2
176
     1
 67
     7
176
     1
 79
     5
176
     1
170
     0
176
     1
171
     0
176
     1
290
     0
176
     1
 93
        1
176
     1
 44
0.0
176
     1
173
     0
176
     1
1001
ACAD
1000
AcDbSavedByObjectVersion
1070
     0
  0
VISUALSTYLE
  5
C4
102
{ACAD_XDICTIONARY
360
1AE
102
}
102
{ACAD_REACTORS
330
C3
102
}
330
C3
100
AcDbVisualStyle
  2
Flat
 70
     0
177
     2
291
     1
 71
     2
176
     1
 72
     1
176
     1
 73
     1
176
     1
 90
        2
176
     1
 40
0.6
176
     1
 41
30.0
176
     1
 63
     7
421
 16777215
176
     1
 74
     0
176
     1
 91
        0
176
     1
 64
     7
176
     1
 65
   257
176
     1
 75
     1
176
     1
175
     1
176
     1
 42
1.0
176
     1
 92
        8
176
     1
 66
     7
176
     1
 43
1.0
176
     1
 76
     1
176
     1
 77
     6
176
     1
 78
     2
176
     1
 67
     7
176
     1
 79
     5
176
     1
170
     0
176
     1
171
     0
176
     1
290
     0
176
     1
 93
       13
176
     1
 44
0.0
176
     1
173
     0
176
     1
1001
ACAD
1000
AcDbSavedByObjectVersion
1070
     0
  0
VISUALSTYLE
  5
C5
102
{ACAD_XDICTIONARY
360
1B0
102
}
102
{ACAD_REACTORS
330
C3
102
}
330
C3
100
AcDbVisualStyle
  2
FlatWithEdges
 70
     1
177
     2
291
     1
 71
     2
176
     1
 72
     1
176
     1
 73
     1
176
     1
 90
        2
176
     1
 40
0.6
176
     1
 41
30.0
176
     1
 63
     7
421
 16777215
176
     1
 74
     1
176
     1
 91
        0
176
     1
 64
     7
176
     1
 65
   257
176
     1
 75
     1
176
     1
175
     1
176
     1
 42
1.0
176
     1
 92
        0
176
     1
 66
   257
176
     1
 43
1.0
176
     1
 76
     1
176
     1
 77
     6
176
     1
 78
     2
176
     1
 67
     7
176
     1
 79
     5
176
     1
170
     0
176
     1
171
     0
176
     1
290
     0
176
     1
 93
       13
176
     1
 44
0.0
176
     1
173
     0
176
     1
1001
ACAD
1000
AcDbSavedByObjectVersion
1070
     0
  0
VISUALSTYLE
  5
C6
102
{ACAD_XDICTIONARY
360
1B2
102
}
102
{ACAD_REACTORS
330
C3
102
}
330
C3
100
AcDbVisualStyle
  2
Gouraud
 70
     2
177
     2
291
     1
 71
     2
176
     1
 72
     2
176
     1
 73
     1
176
     1
 90
        2
176
     1
 40
0.6
176
     1
 41
30.0
176
     1
 63
     7
421
 16777215
176
     1
 74
     0
176
     1
 91
        0
176
     1
 64
     7
176
     1
 65
   257
176
     1
 75
     1
176
     1
175
     1
176
     1
 42
1.0
176
     1
 92
        0
176
     1
 66
     7
176
     1
 43
1.0
176
     1
 76
     1
176
     1
 77
     6
176
     1
 78
     2
176
     1
 67
     7
176
     1
 79
     5
176
     1
170
     0
176
     1
171
     0
176
     1
290
     0
176
     1
 93
       13
176
     1
 44
0.0
176
     1
173
     0
176
     1
1001
ACAD
1000
AcDbSavedByObjectVersion
1070
     0
  0
VISUALSTYLE
  5
C7
102
{ACAD_XDICTIONARY
360
1B4
102
}
102
{ACAD_REACTORS
330
C3
102
}
330
C3
100
AcDbVisualStyle
  2
GouraudWithEdges
 70
     3
177
     2
291
     1
 71
     2
176
     1
 72
     2
176
     1
 73
     1
176
     1
 90
        2
176
     1
 40
0.6
176
     1
 41
30.0
176
     1
 63
     7
421
 16777215
176
     1
 74
     1
176
     1
 91
        0
176
     1
 64
     7
176
     1
 65
   257
176
     1
 75
     1
176
     1
175
     1
176
     1
 42
1.0
176
     1
 92
        0
176
     1
 66
   257
176
     1
 43
1.0
176
     1
 76
     1
176
     1
 77
     6
176
     1
 78
     2
176
     1
 67
     7
176
     1
 79
     5
176
     1
170
     0
176
     1
171
     0
176
     1
290
     0
176
     1
 93
       13
176
     1
 44
0.0
176
     1
173
     0
176
     1
1001
ACAD
1000
AcDbSavedByObjectVersion
1070
     0
  0
VISUALSTYLE
  5
CB
102
{ACAD_XDICTIONARY
360
1BC
102
}
102
{ACAD_REACTORS
330
C3
102
}
330
C3
100
AcDbVisualStyle
  2
Hidden
 70
     6
177
     2
291
     0
 71
     1
176
     1
 72
     2
176
     1
 73
     2
176
     1
 90
        0
176
     1
 40
0.6
176
     1
 41
30.0
176
     1
 63
     7
421
 16777215
176
     1
 74
     2
176
     1
 91
        2
176
     1
 64
     7
176
     1
 65
   257
176
     1
 75
     2
176
     1
175
     1
176
     1
 42
40.0
176
     1
 92
        0
176
     1
 66
   257
176
     1
 43
1.0
176
     1
 76
     1
176
     1
 77
     6
176
     1
 78
     2
176
     1
 67
     7
176
     1
 79
     3
176
     1
170
     0
176
     1
171
     0
176
     1
290
     0
176
     1
 93
        1
176
     1
 44
0.0
176
     1
173
     0
176
     1
1001
ACAD
1000
AcDbSavedByObjectVersion
1070
     0
  0
VISUALSTYLE
  5
D9
102
{ACAD_XDICTIONARY
360
1D8
102
}
102
{ACAD_REACTORS
330
C3
102
}
330
C3
100
AcDbVisualStyle
  2
JitterOff
 70
    20
177
     2
291
     1
 71
     2
176
     0
 72
     2
176
     0
 73
     0
176
     0
 90
        0
176
     0
 40
0.6
176
     0
 41
30.0
176
     0
 63
     7
421
 16777215
176
     0
 74
     1
176
     0
 91
        4
176
     0
 64
     7
176
     0
 65
   257
176
     0
 75
     1
176
     0
175
     1
176
     0
 42
1.0
176
     0
 92
       10
176
     2
 66
     7
176
     0
 43
1.0
176
     0
 76
     1
176
     0
 77
     6
176
     0
 78
     2
176
     0
 67
     7
176
     0
 79
     5
176
     0
170
     0
176
     0
171
     0
176
     0
290
     0
176
     0
 93
        1
176
     0
 44
0.0
176
     0
173
     0
176
     0
1001
ACAD
1000
AcDbSavedByObjectVersion
1070
     0
  0
VISUALSTYLE
  5
D1
102
{ACAD_XDICTIONARY
360
1C8
102
}
102
{ACAD_REACTORS
330
C3
102
}
330
C3
100
AcDbVisualStyle
  2
Linepattern
 70
    14
177
     2
291
     1
 71
     2
176
     1
 72
     2
176
     1
 73
     0
176
     1
 90
        0
176
     1
 40
0.6
176
     1
 41
30.0
176
     1
 63
     7
421
 16777215
176
     1
 74
     1
176
     1
 91
        4
176
     1
 64
     7
176
     1
 65
   257
176
     1
 75
     7
176
     1
175
     7
176
     1
 42
1.0
176
     1
 92
        8
176
     1
 66
     7
176
     1
 43
1.0
176
     1
 76
     1
176
     1
 77
     6
176
     1
 78
     2
176
     1
 67
     7
176
     1
 79
     5
176
     1
170
     0
176
     1
171
     0
176
     1
290
     0
176
     1
 93
        1
176
     1
 44
0.0
176
     1
173
     0
176
     1
1001
ACAD
1000
AcDbSavedByObjectVersion
1070
     0
  0
VISUALSTYLE
  5
DA
102
{ACAD_XDICTIONARY
360
1DA
102
}
102
{ACAD_REACTORS
330
C3
102
}
330
C3
100
AcDbVisualStyle
  2
OverhangOff
 70
    21
177
     2
291
     1
 71
     2
176
     0
 72
     2
176
     0
 73
     0
176
     0
 90
        0
176
     0
 40
0.6
176
     0
 41
30.0
176
     0
 63
     7
421
 16777215
176
     0
 74
     1
176
     0
 91
        4
176
     0
 64
     7
176
     0
 65
   257
176
     0
 75
     1
176
     0
175
     1
176
     0
 42
1.0
176
     0
 92
        9
176
     2
 66
     7
176
     0
 43
1.0
176
     0
 76
     1
176
     0
 77
     6
176
     0
 78
     2
176
     0
 67
     7
176
     0
 79
     5
176
     0
170
     0
176
     0
171
     0
176
     0
290
     0
176
     0
 93
        1
176
     0
 44
0.0
176
     0
173
     0
176
     0
1001
ACAD
1000
AcDbSavedByObjectVersion
1070
     0
  0
VISUALSTYLE
  5
CD
102
{ACAD_XDICTIONARY
360
1C0
102
}
102
{ACAD_REACTORS
330
C3
102
}
330
C3
100
AcDbVisualStyle
  2
Realistic
 70
     8
177
     2
291
     0
 71
     2
176
     1
 72
     3
176
     1
 73
     0
176
     1
 90
        2
176
     1
 40
0.6
176
     1
 41
30.0
176
     1
 63
     7
421
 16777215
176
     1
 74
     0
176
     1
 91
        0
176
     1
 64
     7
176
     1
 65
   257
176
     1
 75
     1
176
     1
175
     1
176
     1
 42
1.0
176
     1
 92
        8
176
     1
 66
   257
176
     1
 43
1.0
176
     1
 76
     1
176
     1
 77
     6
176
     1
 78
     2
176
     1
 67
     7
176
     1
 79
     3
176
     1
170
     0
176
     1
171
     0
176
     1
290
     0
176
     1
 93
       13
176
     1
 44
0.0
176
     1
173
     0
176
     1
1001
ACAD
1000
AcDbSavedByObjectVersion
1070
     0
  0
VISUALSTYLE
  5
D8
102
{ACAD_XDICTIONARY
360
1D6
102
}
102
{ACAD_REACTORS
330
C3
102
}
330
C3
100
AcDbVisualStyle
  2
Shaded
 70
    27
177
     2
291
     0
 71
     2
176
     1
 72
     2
176
     1
 73
     1
176
     1
 90
        2
176
     1
 40
0.6
176
     1
 41
30.0
176
     1
 63
     7
421
 16777215
176
     1
 74
     0
176
     1
 91
        4
176
     1
 64
     7
176
     1
 65
   257
176
     1
 75
     1
176
     1
175
     1
176
     1
 42
1.0
176
     1
 92
        8
176
     1
 66
   257
176
     1
 43
1.0
176
     1
 76
     1
176
     1
 77
     6
176
     1
 78
     2
176
     1
 67
     8
425
  7895160
176
     1
 79
     3
176
     1
170
     0
176
     1
171
     0
176
     1
290
     0
176
     1
 93
        5
176
     1
 44
0.0
176
     1
173
     0
176
     1
1001
ACAD
1000
AcDbSavedByObjectVersion
1070
     0
  0
VISUALSTYLE
  5
D7
102
{ACAD_XDICTIONARY
360
1D4
102
}
102
{ACAD_REACTORS
330
C3
102
}
330
C3
100
AcDbVisualStyle
  2
Shaded with edges
 70
    26
177
     2
291
     0
 71
     2
176
     1
 72
     2
176
     1
 73
     1
176
     1
 90
        2
176
     1
 40
0.6
176
     1
 41
30.0
176
     1
 63
     7
421
 16777215
176
     1
 74
     1
176
     1
 91
       10
176
     1
 64
     7
176
     1
 65
   257
176
     1
 75
     2
176
     1
175
     1
176
     1
 42
1.0
176
     1
 92
        8
176
     1
 66
   257
176
     1
 43
1.0
176
     1
 76
     1
176
     1
 77
     6
176
     1
 78
     2
176
     1
 67
     7
176
     1
 79
     3
176
     1
170
     0
176
     1
171
     0
176
     1
290
     0
176
     1
 93
        5
176
     1
 44
0.0
176
     1
173
     0
176
     1
1001
ACAD
1000
AcDbSavedByObjectVersion
1070
     0
  0
VISUALSTYLE
  5
D4
102
{ACAD_XDICTIONARY
360
1CE
102
}
102
{ACAD_REACTORS
330
C3
102
}
330
C3
100
AcDbVisualStyle
  2
Shades of Gray
 70
    23
177
     2
291
     0
 71
     2
176
     1
 72
     2
176
     1
 73
     3
176
     1
 90
        0
176
     1
 40
0.6
176
     1
 41
30.0
176
     1
 63
     7
421
 16777215
176
     1
 74
     2
176
     1
 91
        2
176
     1
 64
     7
176
     1
 65
     7
176
     1
 75
     1
176
     1
175
     1
176
     1
 42
40.0
176
     1
 92
        8
176
     1
 66
     7
176
     1
 43
1.0
176
     1
 76
     1
176
     1
 77
     6
176
     1
 78
     2
176
     1
 67
     7
176
     1
 79
     3
176
     1
170
     0
176
     1
171
     0
176
     1
290
     0
176
     1
 93
        1
176
     1
 44
0.0
176
     1
173
     0
176
     1
1001
ACAD
1000
AcDbSavedByObjectVersion
1070
     0
  0
VISUALSTYLE
  5
D5
102
{ACAD_XDICTIONARY
360
1D0
102
}
102
{ACAD_REACTORS
330
C3
102
}
330
C3
100
AcDbVisualStyle
  2
Sketchy
 70
    24
177
     2
291
     0
 71
     1
176
     1
 72
     2
176
     1
 73
     2
176
     1
 90
        0
176
     1
 40
0.6
176
     1
 41
30.0
176
     1
 63
     7
421
 16777215
176
     1
 74
     2
176
     1
 91
        2
176
     1
 64
     7
176
     1
 65
     7
176
     1
 75
     1
176
     1
175
     1
176
     1
 42
40.0
176
     1
 92
       11
176
     1
 66
     7
176
     1
 43
1.0
176
     1
 76
     1
176
     1
 77
     6
176
     1
 78
     2
176
     1
 67
     7
176
     1
 79
     6
176
     1
170
     0
176
     1
171
     0
176
     1
290
     0
176
     1
 93
        1
176
     1
 44
0.0
176
     1
173
     0
176
     1
1001
ACAD
1000
AcDbSavedByObjectVersion
1070
     0
  0
VISUALSTYLE
  5
D0
102
{ACAD_XDICTIONARY
360
1C6
102
}
102
{ACAD_REACTORS
330
C3
102
}
330
C3
100
AcDbVisualStyle
  2
Thicken
 70
    13
177
     2
291
     1
 71
     2
176
     1
 72
     2
176
     1
 73
     0
176
     1
 90
        0
176
     1
 40
0.6
176
     1
 41
30.0
176
     1
 63
     7
421
 16777215
176
     1
 74
     1
176
     1
 91
        4
176
     1
 64
     7
176
     1
 65
   257
176
     1
 75
     1
176
     1
175
     1
176
     1
 42
1.0
176
     1
 92
       12
176
     1
 66
     7
176
     1
 43
1.0
176
     1
 76
     1
176
     1
 77
     6
176
     1
 78
     2
176
     1
 67
     7
176
     1
 79
     5
176
     1
170
     0
176
     1
171
     0
176
     1
290
     0
176
     1
 93
        1
176
     1
 44
0.0
176
     1
173
     0
176
     1
1001
ACAD
1000
AcDbSavedByObjectVersion
1070
     0
  0
VISUALSTYLE
  5
CA
102
{ACAD_XDICTIONARY
360
1BA
102
}
102
{ACAD_REACTORS
330
C3
102
}
330
C3
100
AcDbVisualStyle
  2
Wireframe
 70
     5
177
     2
291
     0
 71
     0
176
     1
 72
     2
176
     1
 73
     0
176
     1
 90
        0
176
     1
 40
0.6
176
     1
 41
30.0
176
     1
 63
     7
421
 16777215
176
     1
 74
     1
176
     1
 91
        4
176
     1
 64
     7
176
     1
 65
   257
176
     1
 75
     1
176
     1
175
     1
176
     1
 42
1.0
176
     1
 92
        0
176
     1
 66
   257
176
     1
 43
1.0
176
     1
 76
     1
176
     1
 77
     6
176
     1
 78
     2
176
     1
 67
     7
176
     1
 79
     3
176
     1
170
     0
176
     1
171
     0
176
     1
290
     0
176
     1
 93
        1
176
     1
 44
0.0
176
     1
173
     0
176
     1
1001
ACAD
1000
AcDbSavedByObjectVersion
1070
     0
  0
VISUALSTYLE
  5
D6
102
{ACAD_XDICTIONARY
360
1D2
102
}
102
{ACAD_REACTORS
330
C3
102
}
330
C3
100
AcDbVisualStyle
  2
X-Ray
 70
    25
177
     2
291
     0
 71
     2
176
     1
 72
     2
176
     1
 73
     1
176
     1
 90
        1
176
     1
 40
0.5
176
     1
 41
30.0
176
     1
 63
     7
421
 16777215
176
     1
 74
     1
176
     1
 91
        0
176
     1
 64
     7
176
     1
 65
   257
176
     1
 75
     1
176
     1
175
     1
176
     1
 42
1.0
176
     1
 92
        8
176
     1
 66
     7
176
     1
 43
1.0
176
     1
 76
     1
176
     1
 77
     6
176
     1
 78
     2
176
     1
 67
     7
176
     1
 79
     3
176
     1
170
     0
176
     1
171
     0
176
     1
290
     0
176
     1
 93
       13
176
     1
 44
0.0
176
     1
173
     0
176
     1
1001
ACAD
1000
AcDbSavedByObjectVersion
1070
     0
  0
DICTIONARYVAR
  5
1A7
102
{ACAD_REACTORS
330
1A1
102
}
330
1A1
100
DictionaryVariables
280
     0
  1
1:1
  0
DICTIONARYVAR
  5
1A3
102
{ACAD_REACTORS
330
1A1
102
}
330
1A1
100
DictionaryVariables
280
     0
  1
STANDARD
  0
DICTIONARYVAR
  5
1A2
102
{ACAD_REACTORS
330
1A1
102
}
330
1A1
100
DictionaryVariables
280
     0
  1
STANDARD
  0
DICTIONARYVAR
  5
1A4
102
{ACAD_REACTORS
330
1A1
102
}
330
1A1
100
DictionaryVariables
280
     0
  1
Imperial24
  0
DICTIONARYVAR
  5
1A5
102
{ACAD_REACTORS
330
1A1
102
}
330
1A1
100
DictionaryVariables
280
     0
  1
Imperial24
  0
DICTIONARYVAR
  5
1A9
102
{ACAD_REACTORS
330
1A1
102
}
330
1A1
100
DictionaryVariables
280
     0
  1
1
  0
DICTIONARYVAR
  5
1AA
102
{ACAD_REACTORS
330
1A1
102
}
330
1A1
100
DictionaryVariables
280
     0
  1
15
  0
DICTIONARYVAR
  5
1A8
102
{ACAD_REACTORS
330
1A1
102
}
330
1A1
100
DictionaryVariables
280
     0
  1
0
  0
DICTIONARYVAR
  5
1A6
102
{ACAD_REACTORS
330
1A1
102
}
330
1A1
100
DictionaryVariables
280
     0
  1
0
  0
DICTIONARY
  5
1E2
330
F6
100
AcDbDictionary
280
     1
281
     1
  3
ACAD_XREC_ROUNDTRIP
360
1E3
  0
DICTIONARY
  5
B4
330
B3
100
AcDbDictionary
280
     1
281
     1
  3
BUMPTILE
360
B6
  3
DIFFUSETILE
360
B5
  3
OPACITYTILE
360
B9
  3
REFLECTIONTILE
360
B8
  3
REFRACTIONTILE
360
BA
  3
SPECULARTILE
360
B7
  0
DICTIONARY
  5
AC
330
AB
100
AcDbDictionary
280
     1
281
     1
  3
BUMPTILE
360
AE
  3
DIFFUSETILE
360
AD
  3
OPACITYTILE
360
B1
  3
REFLECTIONTILE
360
B0
  3
REFRACTIONTILE
360
B2
  3
SPECULARTILE
360
AF
  0
DICTIONARY
  5
BC
330
BB
100
AcDbDictionary
280
     1
281
     1
  3
BUMPTILE
360
BE
  3
DIFFUSETILE
360
BD
  3
OPACITYTILE
360
C1
  3
REFLECTIONTILE
360
C0
  3
REFRACTIONTILE
360
C2
  3
SPECULARTILE
360
BF
  0
DICTIONARY
  5
1DE
330
F2
100
AcDbDictionary
280
     1
281
     1
  3
ACAD_XREC_ROUNDTRIP
360
1DF
  0
DICTIONARY
  5
1E0
330
F4
100
AcDbDictionary
280
     1
281
     1
  3
ACAD_XREC_ROUNDTRIP
360
1E1
  0
DICTIONARY
  5
1AB
330
DE
100
AcDbDictionary
280
     1
281
     1
  3
ACAD_ROUNDTRIP_2008_TABLESTYLE_CELLSTYLEMAP
360
1AC
  0
DICTIONARY
  5
1B8
330
C9
100
AcDbDictionary
280
     1
281
     1
  3
ACAD_XREC_ROUNDTRIP
360
1B9
  0
DICTIONARY
  5
1B6
330
C8
100
AcDbDictionary
280
     1
281
     1
  3
ACAD_XREC_ROUNDTRIP
360
1B7
  0
DICTIONARY
  5
1C4
330
CF
100
AcDbDictionary
280
     1
281
     1
  3
ACAD_XREC_ROUNDTRIP
360
1C5
  0
DICTIONARY
  5
1CC
330
D3
100
AcDbDictionary
280
     1
281
     1
  3
ACAD_XREC_ROUNDTRIP
360
1CD
  0
DICTIONARY
  5
1BE
330
CC
100
AcDbDictionary
280
     1
281
     1
  3
ACAD_XREC_ROUNDTRIP
360
1BF
  0
DICTIONARY
  5
1C2
330
CE
100
AcDbDictionary
280
     1
281
     1
  3
ACAD_XREC_ROUNDTRIP
360
1C3
  0
DICTIONARY
  5
1DC
330
DB
100
AcDbDictionary
280
     1
281
     1
  3
ACAD_XREC_ROUNDTRIP
360
1DD
  0
DICTIONARY
  5
1CA
330
D2
100
AcDbDictionary
280
     1
281
     1
  3
ACAD_XREC_ROUNDTRIP
360
1CB
  0
DICTIONARY
  5
1AE
330
C4
100
AcDbDictionary
280
     1
281
     1
  3
ACAD_XREC_ROUNDTRIP
360
1AF
  0
DICTIONARY
  5
1B0
330
C5
100
AcDbDictionary
280
     1
281
     1
  3
ACAD_XREC_ROUNDTRIP
360
1B1
  0
DICTIONARY
  5
1B2
330
C6
100
AcDbDictionary
280
     1
281
     1
  3
ACAD_XREC_ROUNDTRIP
360
1B3
  0
DICTIONARY
  5
1B4
330
C7
100
AcDbDictionary
280
     1
281
     1
  3
ACAD_XREC_ROUNDTRIP
360
1B5
  0
DICTIONARY
  5
1BC
330
CB
100
AcDbDictionary
280
     1
281
     1
  3
ACAD_XREC_ROUNDTRIP
360
1BD
  0
DICTIONARY
  5
1D8
330
D9
100
AcDbDictionary
280
     1
281
     1
  3
ACAD_XREC_ROUNDTRIP
360
1D9
  0
DICTIONARY
  5
1C8
330
D1
100
AcDbDictionary
280
     1
281
     1
  3
ACAD_XREC_ROUNDTRIP
360
1C9
  0
DICTIONARY
  5
1DA
330
DA
100
AcDbDictionary
280
     1
281
     1
  3
ACAD_XREC_ROUNDTRIP
360
1DB
  0
DICTIONARY
  5
1C0
330
CD
100
AcDbDictionary
280
     1
281
     1
  3
ACAD_XREC_ROUNDTRIP
360
1C1
  0
DICTIONARY
  5
1D6
330
D8
100
AcDbDictionary
280
     1
281
     1
  3
ACAD_XREC_ROUNDTRIP
360
1D7
  0
DICTIONARY
  5
1D4
330
D7
100
AcDbDictionary
280
     1
281
     1
  3
ACAD_XREC_ROUNDTRIP
360
1D5
  0
DICTIONARY
  5
1CE
330
D4
100
AcDbDictionary
280
     1
281
     1
  3
ACAD_XREC_ROUNDTRIP
360
1CF
  0
DICTIONARY
  5
1D0
330
D5
100
AcDbDictionary
280
     1
281
     1
  3
ACAD_XREC_ROUNDTRIP
360
1D1
  0
DICTIONARY
  5
1C6
330
D0
100
AcDbDictionary
280
     1
281
     1
  3
ACAD_XREC_ROUNDTRIP
360
1C7
  0
DICTIONARY
  5
1BA
330
CA
100
AcDbDictionary
280
     1
281
     1
  3
ACAD_XREC_ROUNDTRIP
360
1BB
  0
DICTIONARY
  5
1D2
330
D6
100
AcDbDictionary
280
     1
281
     1
  3
ACAD_XREC_ROUNDTRIP
360
1D3
  0
XRECORD
  5
1E3
102
{ACAD_REACTORS
330
1E2
102
}
330
1E2
100
AcDbXrecord
280
     1
102
DISPLAYNAME
  1
Imperial24
102
FLAGS
 90
        0
  0
XRECORD
  5
B6
102
{ACAD_REACTORS
330
B4
102
}
330
B4
100
AcDbXrecord
280
     1
270
     1
271
     1
  0
XRECORD
  5
B5
102
{ACAD_REACTORS
330
B4
102
}
330
B4
100
AcDbXrecord
280
     1
270
     1
271
     1
  0
XRECORD
  5
B9
102
{ACAD_REACTORS
330
B4
102
}
330
B4
100
AcDbXrecord
280
     1
270
     1
271
     1
  0
XRECORD
  5
B8
102
{ACAD_REACTORS
330
B4
102
}
330
B4
100
AcDbXrecord
280
     1
270
     1
271
     1
  0
XRECORD
  5
BA
102
{ACAD_REACTORS
330
B4
102
}
330
B4
100
AcDbXrecord
280
     1
270
     1
271
     1
  0
XRECORD
  5
B7
102
{ACAD_REACTORS
330
B4
102
}
330
B4
100
AcDbXrecord
280
     1
270
     1
271
     1
  0
XRECORD
  5
AE
102
{ACAD_REACTORS
330
AC
102
}
330
AC
100
AcDbXrecord
280
     1
270
     1
271
     1
  0
XRECORD
  5
AD
102
{ACAD_REACTORS
330
AC
102
}
330
AC
100
AcDbXrecord
280
     1
270
     1
271
     1
  0
XRECORD
  5
B1
102
{ACAD_REACTORS
330
AC
102
}
330
AC
100
AcDbXrecord
280
     1
270
     1
271
     1
  0
XRECORD
  5
B0
102
{ACAD_REACTORS
330
AC
102
}
330
AC
100
AcDbXrecord
280
     1
270
     1
271
     1
  0
XRECORD
  5
B2
102
{ACAD_REACTORS
330
AC
102
}
330
AC
100
AcDbXrecord
280
     1
270
     1
271
     1
  0
XRECORD
  5
AF
102
{ACAD_REACTORS
330
AC
102
}
330
AC
100
AcDbXrecord
280
     1
270
     1
271
     1
  0
XRECORD
  5
BE
102
{ACAD_REACTORS
330
BC
102
}
330
BC
100
AcDbXrecord
280
     1
270
     1
271
     1
  0
XRECORD
  5
BD
102
{ACAD_REACTORS
330
BC
102
}
330
BC
100
AcDbXrecord
280
     1
270
     1
271
     1
  0
XRECORD
  5
C1
102
{ACAD_REACTORS
330
BC
102
}
330
BC
100
AcDbXrecord
280
     1
270
     1
271
     1
  0
XRECORD
  5
C0
102
{ACAD_REACTORS
330
BC
102
}
330
BC
100
AcDbXrecord
280
     1
270
     1
271
     1
  0
XRECORD
  5
C2
102
{ACAD_REACTORS
330
BC
102
}
330
BC
100
AcDbXrecord
280
     1
270
     1
271
     1
  0
XRECORD
  5
BF
102
{ACAD_REACTORS
330
BC
102
}
330
BC
100
AcDbXrecord
280
     1
270
     1
271
     1
  0
XRECORD
  5
1DF
102
{ACAD_REACTORS
330
1DE
102
}
330
1DE
100
AcDbXrecord
280
     1
102
ACAD_ROUNDTRIP_2012_MLEADER_STYLE
298
     1
  0
XRECORD
  5
1E1
102
{ACAD_REACTORS
330
1E0
102
}
330
1E0
100
AcDbXrecord
280
     1
102
DISPLAYNAME
  1
Imperial24
102
FLAGS
 90
        0
  0
CELLSTYLEMAP
  5
1AC
102
{ACAD_REACTORS
330
1AB
102
}
330
1AB
100
AcDbCellStyleMap
 90
        3
300
CELLSTYLE
  1
TABLEFORMAT_BEGIN
 90
        5
170
     1
 91
        0
 92
    32768
 62
   257
 93
        1
300
CONTENTFORMAT
  1
CONTENTFORMAT_BEGIN
 90
        0
 91
        0
 92
      512
 93
        0
300

 40
0.0
140
1.0
 94
        5
 62
     0
340
11
144
0.25
309
CONTENTFORMAT_END
171
     0
 94
        0
309
TABLEFORMAT_END
  1
CELLSTYLE_BEGIN
 90
        1
 91
        1
300
_TITLE
309
CELLSTYLE_END
300
CELLSTYLE
  1
TABLEFORMAT_BEGIN
 90
        5
170
     1
 91
        0
 92
        0
 62
   257
 93
        1
300
CONTENTFORMAT
  1
CONTENTFORMAT_BEGIN
 90
        0
 91
        0
 92
      512
 93
        0
300

 40
0.0
140
1.0
 94
        5
 62
     0
340
11
144
0.18
309
CONTENTFORMAT_END
171
     0
 94
        0
309
TABLEFORMAT_END
  1
CELLSTYLE_BEGIN
 90
        2
 91
        1
300
_HEADER
309
CELLSTYLE_END
300
CELLSTYLE
  1
TABLEFORMAT_BEGIN
 90
        5
170
     1
 91
        0
 92
        0
 62
   257
 93
        1
300
CONTENTFORMAT
  1
CONTENTFORMAT_BEGIN
 90
        0
 91
        0
 92
      512
 93
        0
300

 40
0.0
140
1.0
 94
        2
 62
     0
340
11
144
0.18
309
CONTENTFORMAT_END
171
     0
 94
        0
309
TABLEFORMAT_END
  1
CELLSTYLE_BEGIN
 90
        3
 91
        2
300
_DATA
309
CELLSTYLE_END
  0
XRECORD
  5
1B9
102
{ACAD_REACTORS
330
1B8
102
}
330
1B8
100
AcDbXrecord
280
     1
102
RTVSPost2010Prop28
280
     1
102
RTVSPost2010PropOp28
 70
     1
102
RTVSPost2010Prop29
280
     1
102
RTVSPost2010PropOp29
 70
     1
102
RTVSPost2010Prop30
280
     0
102
RTVSPost2010PropOp30
 70
     1
102
RTVSPost2010Prop31
280
     0
102
RTVSPost2010PropOp31
 70
     1
102
RTVSPost2010Prop32
280
     0
102
RTVSPost2010PropOp32
 70
     1
102
RTVSPost2010Prop33
280
     0
102
RTVSPost2010PropOp33
 70
     1
102
RTVSPost2010Prop34
280
     0
102
RTVSPost2010PropOp34
 70
     1
102
RTVSPost2010Prop35
280
     0
102
RTVSPost2010PropOp35
 70
     1
102
RTVSPost2010Prop36
280
     0
102
RTVSPost2010PropOp36
 70
     1
102
RTVSPost2010Prop37
 90
       50
102
RTVSPost2010PropOp37
 70
     1
102
RTVSPost2010Prop38
140
0.0
102
RTVSPost2010PropOp38
 70
     1
102
RTVSPost2010Prop39
140
1.0
102
RTVSPost2010PropOp39
 70
     1
102
RTVSPost2010Prop40
 90
        0
102
RTVSPost2010PropOp40
 70
     1
102
RTVSPost2010Prop41ColorIndex
 90
       18
102
RTVSPost2010Prop41ColorRGB
 90
        0
102
RTVSPost2010PropOp41
 70
     1
102
RTVSPost2010Prop42
 90
       50
102
RTVSPost2010PropOp42
 70
     1
102
RTVSPost2010Prop43
 90
        3
102
RTVSPost2010PropOp43
 70
     1
102
RTVSPost2010Prop44ColorIndex
 90
        5
102
RTVSPost2010Prop44ColorRGB
 90
      255
102
RTVSPost2010PropOp44
 70
     1
102
RTVSPost2010Prop45
280
     0
102
RTVSPost2010PropOp45
 70
     1
102
RTVSPost2010Prop46
 90
       50
102
RTVSPost2010PropOp46
 70
     1
102
RTVSPost2010Prop47
 90
       50
102
RTVSPost2010PropOp47
 70
     1
102
RTVSPost2010Prop48
 90
       50
102
RTVSPost2010PropOp48
 70
     1
102
RTVSPost2010Prop49
280
     0
102
RTVSPost2010PropOp49
 70
     1
102
RTVSPost2010Prop50
 90
       50
102
RTVSPost2010PropOp50
 70
     1
102
RTVSPost2010Prop51ColorIndex
 90
      256
102
RTVSPost2010Prop51ColorRGB
 90
-16777216
102
RTVSPost2010PropOp51
 70
     0
102
RTVSPost2010Prop52
140
1.0
102
RTVSPost2010PropOp52
 70
     0
102
RTVSPost2010Prop53
 90
        2
102
RTVSPost2010PropOp53
 70
     1
102
RTVSPost2010Prop54
  1
strokes_ogs.tif
102
RTVSPost2010PropOp54
 70
     1
102
RTVSPost2010Prop55
280
     0
102
RTVSPost2010PropOp55
 70
     1
102
RTVSPost2010Prop56
140
1.0
102
RTVSPost2010PropOp56
 70
     1
102
RTVSPost2010Prop57
140
1.0
102
RTVSPost2010PropOp57
 70
     1
  0
XRECORD
  5
1B7
102
{ACAD_REACTORS
330
1B6
102
}
330
1B6
100
AcDbXrecord
280
     1
102
RTVSPost2010Prop28
280
     0
102
RTVSPost2010PropOp28
 70
     1
102
RTVSPost2010Prop29
280
     1
102
RTVSPost2010PropOp29
 70
     1
102
RTVSPost2010Prop30
280
     1
102
RTVSPost2010PropOp30
 70
     1
102
RTVSPost2010Prop31
280
     0
102
RTVSPost2010PropOp31
 70
     1
102
RTVSPost2010Prop32
280
     0
102
RTVSPost2010PropOp32
 70
     1
102
RTVSPost2010Prop33
280
     0
102
RTVSPost2010PropOp33
 70
     1
102
RTVSPost2010Prop34
280
     0
102
RTVSPost2010PropOp34
 70
     1
102
RTVSPost2010Prop35
280
     0
102
RTVSPost2010PropOp35
 70
     1
102
RTVSPost2010Prop36
280
     0
102
RTVSPost2010PropOp36
 70
     1
102
RTVSPost2010Prop37
 90
       50
102
RTVSPost2010PropOp37
 70
     1
102
RTVSPost2010Prop38
140
0.0
102
RTVSPost2010PropOp38
 70
     1
102
RTVSPost2010Prop39
140
1.0
102
RTVSPost2010PropOp39
 70
     1
102
RTVSPost2010Prop40
 90
        0
102
RTVSPost2010PropOp40
 70
     1
102
RTVSPost2010Prop41ColorIndex
 90
       18
102
RTVSPost2010Prop41ColorRGB
 90
        0
102
RTVSPost2010PropOp41
 70
     1
102
RTVSPost2010Prop42
 90
       50
102
RTVSPost2010PropOp42
 70
     1
102
RTVSPost2010Prop43
 90
        3
102
RTVSPost2010PropOp43
 70
     1
102
RTVSPost2010Prop44ColorIndex
 90
        5
102
RTVSPost2010Prop44ColorRGB
 90
      255
102
RTVSPost2010PropOp44
 70
     1
102
RTVSPost2010Prop45
280
     0
102
RTVSPost2010PropOp45
 70
     1
102
RTVSPost2010Prop46
 90
       50
102
RTVSPost2010PropOp46
 70
     1
102
RTVSPost2010Prop47
 90
       50
102
RTVSPost2010PropOp47
 70
     1
102
RTVSPost2010Prop48
 90
       50
102
RTVSPost2010PropOp48
 70
     1
102
RTVSPost2010Prop49
280
     0
102
RTVSPost2010PropOp49
 70
     1
102
RTVSPost2010Prop50
 90
       50
102
RTVSPost2010PropOp50
 70
     1
102
RTVSPost2010Prop51ColorIndex
 90
      256
102
RTVSPost2010Prop51ColorRGB
 90
-16777216
102
RTVSPost2010PropOp51
 70
     0
102
RTVSPost2010Prop52
140
1.0
102
RTVSPost2010PropOp52
 70
     0
102
RTVSPost2010Prop53
 90
        2
102
RTVSPost2010PropOp53
 70
     1
102
RTVSPost2010Prop54
  1
strokes_ogs.tif
102
RTVSPost2010PropOp54
 70
     1
102
RTVSPost2010Prop55
280
     0
102
RTVSPost2010PropOp55
 70
     1
102
RTVSPost2010Prop56
140
1.0
102
RTVSPost2010PropOp56
 70
     1
102
RTVSPost2010Prop57
140
1.0
102
RTVSPost2010PropOp57
 70
     1
  0
XRECORD
  5
1C5
102
{ACAD_REACTORS
330
1C4
102
}
330
1C4
100
AcDbXrecord
280
     1
102
RTVSPost2010Prop28
280
     0
102
RTVSPost2010PropOp28
 70
     1
102
RTVSPost2010Prop29
280
     1
102
RTVSPost2010PropOp29
 70
     1
102
RTVSPost2010Prop30
280
     1
102
RTVSPost2010PropOp30
 70
     1
102
RTVSPost2010Prop31
280
     0
102
RTVSPost2010PropOp31
 70
     1
102
RTVSPost2010Prop32
280
     0
102
RTVSPost2010PropOp32
 70
     1
102
RTVSPost2010Prop33
280
     0
102
RTVSPost2010PropOp33
 70
     1
102
RTVSPost2010Prop34
280
     0
102
RTVSPost2010PropOp34
 70
     1
102
RTVSPost2010Prop35
280
     0
102
RTVSPost2010PropOp35
 70
     1
102
RTVSPost2010Prop36
280
     0
102
RTVSPost2010PropOp36
 70
     1
102
RTVSPost2010Prop37
 90
       50
102
RTVSPost2010PropOp37
 70
     1
102
RTVSPost2010Prop38
140
0.0
102
RTVSPost2010PropOp38
 70
     1
102
RTVSPost2010Prop39
140
1.0
102
RTVSPost2010PropOp39
 70
     1
102
RTVSPost2010Prop40
 90
        0
102
RTVSPost2010PropOp40
 70
     1
102
RTVSPost2010Prop41ColorIndex
 90
       18
102
RTVSPost2010Prop41ColorRGB
 90
        0
102
RTVSPost2010PropOp41
 70
     1
102
RTVSPost2010Prop42
 90
       50
102
RTVSPost2010PropOp42
 70
     1
102
RTVSPost2010Prop43
 90
        3
102
RTVSPost2010PropOp43
 70
     1
102
RTVSPost2010Prop44ColorIndex
 90
        5
102
RTVSPost2010Prop44ColorRGB
 90
      255
102
RTVSPost2010PropOp44
 70
     1
102
RTVSPost2010Prop45
280
     0
102
RTVSPost2010PropOp45
 70
     1
102
RTVSPost2010Prop46
 90
       50
102
RTVSPost2010PropOp46
 70
     1
102
RTVSPost2010Prop47
 90
       50
102
RTVSPost2010PropOp47
 70
     1
102
RTVSPost2010Prop48
 90
       50
102
RTVSPost2010PropOp48
 70
     1
102
RTVSPost2010Prop49
280
     0
102
RTVSPost2010PropOp49
 70
     1
102
RTVSPost2010Prop50
 90
       50
102
RTVSPost2010PropOp50
 70
     1
102
RTVSPost2010Prop51ColorIndex
 90
      256
102
RTVSPost2010Prop51ColorRGB
 90
-16777216
102
RTVSPost2010PropOp51
 70
     0
102
RTVSPost2010Prop52
140
1.0
102
RTVSPost2010PropOp52
 70
     0
102
RTVSPost2010Prop53
 90
        2
102
RTVSPost2010PropOp53
 70
     1
102
RTVSPost2010Prop54
  1
strokes_ogs.tif
102
RTVSPost2010PropOp54
 70
     1
102
RTVSPost2010Prop55
280
     0
102
RTVSPost2010PropOp55
 70
     1
102
RTVSPost2010Prop56
140
1.0
102
RTVSPost2010PropOp56
 70
     1
102
RTVSPost2010Prop57
140
1.0
102
RTVSPost2010PropOp57
 70
     1
  0
XRECORD
  5
1CD
102
{ACAD_REACTORS
330
1CC
102
}
330
1CC
100
AcDbXrecord
280
     1
102
RTVSPost2010Prop28
280
     0
102
RTVSPost2010PropOp28
 70
     1
102
RTVSPost2010Prop29
280
     1
102
RTVSPost2010PropOp29
 70
     1
102
RTVSPost2010Prop30
280
     1
102
RTVSPost2010PropOp30
 70
     1
102
RTVSPost2010Prop31
280
     0
102
RTVSPost2010PropOp31
 70
     1
102
RTVSPost2010Prop32
280
     0
102
RTVSPost2010PropOp32
 70
     1
102
RTVSPost2010Prop33
280
     0
102
RTVSPost2010PropOp33
 70
     1
102
RTVSPost2010Prop34
280
     0
102
RTVSPost2010PropOp34
 70
     1
102
RTVSPost2010Prop35
280
     0
102
RTVSPost2010PropOp35
 70
     1
102
RTVSPost2010Prop36
280
     0
102
RTVSPost2010PropOp36
 70
     1
102
RTVSPost2010Prop37
 90
       50
102
RTVSPost2010PropOp37
 70
     1
102
RTVSPost2010Prop38
140
0.0
102
RTVSPost2010PropOp38
 70
     1
102
RTVSPost2010Prop39
140
1.0
102
RTVSPost2010PropOp39
 70
     1
102
RTVSPost2010Prop40
 90
        0
102
RTVSPost2010PropOp40
 70
     1
102
RTVSPost2010Prop41ColorIndex
 90
       18
102
RTVSPost2010Prop41ColorRGB
 90
        0
102
RTVSPost2010PropOp41
 70
     1
102
RTVSPost2010Prop42
 90
       50
102
RTVSPost2010PropOp42
 70
     1
102
RTVSPost2010Prop43
 90
        3
102
RTVSPost2010PropOp43
 70
     1
102
RTVSPost2010Prop44ColorIndex
 90
        5
102
RTVSPost2010Prop44ColorRGB
 90
      255
102
RTVSPost2010PropOp44
 70
     1
102
RTVSPost2010Prop45
280
     0
102
RTVSPost2010PropOp45
 70
     1
102
RTVSPost2010Prop46
 90
       50
102
RTVSPost2010PropOp46
 70
     1
102
RTVSPost2010Prop47
 90
       50
102
RTVSPost2010PropOp47
 70
     1
102
RTVSPost2010Prop48
 90
       50
102
RTVSPost2010PropOp48
 70
     1
102
RTVSPost2010Prop49
280
     0
102
RTVSPost2010PropOp49
 70
     1
102
RTVSPost2010Prop50
 90
       50
102
RTVSPost2010PropOp50
 70
     1
102
RTVSPost2010Prop51ColorIndex
 90
      256
102
RTVSPost2010Prop51ColorRGB
 90
-16777216
102
RTVSPost2010PropOp51
 70
     0
102
RTVSPost2010Prop52
140
1.0
102
RTVSPost2010PropOp52
 70
     0
102
RTVSPost2010Prop53
 90
        2
102
RTVSPost2010PropOp53
 70
     1
102
RTVSPost2010Prop54
  1
strokes_ogs.tif
102
RTVSPost2010PropOp54
 70
     1
102
RTVSPost2010Prop55
280
     0
102
RTVSPost2010PropOp55
 70
     1
102
RTVSPost2010Prop56
140
1.0
102
RTVSPost2010PropOp56
 70
     1
102
RTVSPost2010Prop57
140
1.0
102
RTVSPost2010PropOp57
 70
     1
  0
XRECORD
  5
1BF
102
{ACAD_REACTORS
330
1BE
102
}
330
1BE
100
AcDbXrecord
280
     1
102
RTVSPost2010Prop28
280
     0
102
RTVSPost2010PropOp28
 70
     1
102
RTVSPost2010Prop29
280
     1
102
RTVSPost2010PropOp29
 70
     1
102
RTVSPost2010Prop30
280
     1
102
RTVSPost2010PropOp30
 70
     1
102
RTVSPost2010Prop31
280
     0
102
RTVSPost2010PropOp31
 70
     1
102
RTVSPost2010Prop32
280
     0
102
RTVSPost2010PropOp32
 70
     1
102
RTVSPost2010Prop33
280
     0
102
RTVSPost2010PropOp33
 70
     1
102
RTVSPost2010Prop34
280
     0
102
RTVSPost2010PropOp34
 70
     1
102
RTVSPost2010Prop35
280
     0
102
RTVSPost2010PropOp35
 70
     1
102
RTVSPost2010Prop36
280
     0
102
RTVSPost2010PropOp36
 70
     1
102
RTVSPost2010Prop37
 90
       50
102
RTVSPost2010PropOp37
 70
     1
102
RTVSPost2010Prop38
140
0.0
102
RTVSPost2010PropOp38
 70
     1
102
RTVSPost2010Prop39
140
1.0
102
RTVSPost2010PropOp39
 70
     1
102
RTVSPost2010Prop40
 90
        0
102
RTVSPost2010PropOp40
 70
     1
102
RTVSPost2010Prop41ColorIndex
 90
       18
102
RTVSPost2010Prop41ColorRGB
 90
        0
102
RTVSPost2010PropOp41
 70
     1
102
RTVSPost2010Prop42
 90
       50
102
RTVSPost2010PropOp42
 70
     1
102
RTVSPost2010Prop43
 90
        3
102
RTVSPost2010PropOp43
 70
     1
102
RTVSPost2010Prop44ColorIndex
 90
        5
102
RTVSPost2010Prop44ColorRGB
 90
      255
102
RTVSPost2010PropOp44
 70
     1
102
RTVSPost2010Prop45
280
     0
102
RTVSPost2010PropOp45
 70
     1
102
RTVSPost2010Prop46
 90
       50
102
RTVSPost2010PropOp46
 70
     1
102
RTVSPost2010Prop47
 90
       50
102
RTVSPost2010PropOp47
 70
     1
102
RTVSPost2010Prop48
 90
       50
102
RTVSPost2010PropOp48
 70
     1
102
RTVSPost2010Prop49
280
     0
102
RTVSPost2010PropOp49
 70
     1
102
RTVSPost2010Prop50
 90
       50
102
RTVSPost2010PropOp50
 70
     1
102
RTVSPost2010Prop51ColorIndex
 90
      256
102
RTVSPost2010Prop51ColorRGB
 90
-16777216
102
RTVSPost2010PropOp51
 70
     0
102
RTVSPost2010Prop52
140
1.0
102
RTVSPost2010PropOp52
 70
     0
102
RTVSPost2010Prop53
 90
        2
102
RTVSPost2010PropOp53
 70
     1
102
RTVSPost2010Prop54
  1
strokes_ogs.tif
102
RTVSPost2010PropOp54
 70
     1
102
RTVSPost2010Prop55
280
     0
102
RTVSPost2010PropOp55
 70
     1
102
RTVSPost2010Prop56
140
1.0
102
RTVSPost2010PropOp56
 70
     1
102
RTVSPost2010Prop57
140
1.0
102
RTVSPost2010PropOp57
 70
     1
  0
XRECORD
  5
1C3
102
{ACAD_REACTORS
330
1C2
102
}
330
1C2
100
AcDbXrecord
280
     1
102
RTVSPost2010Prop28
280
     0
102
RTVSPost2010PropOp28
 70
     1
102
RTVSPost2010Prop29
280
     1
102
RTVSPost2010PropOp29
 70
     1
102
RTVSPost2010Prop30
280
     1
102
RTVSPost2010PropOp30
 70
     1
102
RTVSPost2010Prop31
280
     0
102
RTVSPost2010PropOp31
 70
     1
102
RTVSPost2010Prop32
280
     0
102
RTVSPost2010PropOp32
 70
     1
102
RTVSPost2010Prop33
280
     0
102
RTVSPost2010PropOp33
 70
     1
102
RTVSPost2010Prop34
280
     0
102
RTVSPost2010PropOp34
 70
     1
102
RTVSPost2010Prop35
280
     0
102
RTVSPost2010PropOp35
 70
     1
102
RTVSPost2010Prop36
280
     0
102
RTVSPost2010PropOp36
 70
     1
102
RTVSPost2010Prop37
 90
       50
102
RTVSPost2010PropOp37
 70
     1
102
RTVSPost2010Prop38
140
0.0
102
RTVSPost2010PropOp38
 70
     1
102
RTVSPost2010Prop39
140
1.0
102
RTVSPost2010PropOp39
 70
     1
102
RTVSPost2010Prop40
 90
        0
102
RTVSPost2010PropOp40
 70
     1
102
RTVSPost2010Prop41ColorIndex
 90
       18
102
RTVSPost2010Prop41ColorRGB
 90
        0
102
RTVSPost2010PropOp41
 70
     1
102
RTVSPost2010Prop42
 90
       50
102
RTVSPost2010PropOp42
 70
     1
102
RTVSPost2010Prop43
 90
        3
102
RTVSPost2010PropOp43
 70
     1
102
RTVSPost2010Prop44ColorIndex
 90
        5
102
RTVSPost2010Prop44ColorRGB
 90
      255
102
RTVSPost2010PropOp44
 70
     1
102
RTVSPost2010Prop45
280
     0
102
RTVSPost2010PropOp45
 70
     1
102
RTVSPost2010Prop46
 90
       50
102
RTVSPost2010PropOp46
 70
     1
102
RTVSPost2010Prop47
 90
       50
102
RTVSPost2010PropOp47
 70
     1
102
RTVSPost2010Prop48
 90
       50
102
RTVSPost2010PropOp48
 70
     1
102
RTVSPost2010Prop49
280
     0
102
RTVSPost2010PropOp49
 70
     1
102
RTVSPost2010Prop50
 90
       50
102
RTVSPost2010PropOp50
 70
     1
102
RTVSPost2010Prop51ColorIndex
 90
      256
102
RTVSPost2010Prop51ColorRGB
 90
-16777216
102
RTVSPost2010PropOp51
 70
     0
102
RTVSPost2010Prop52
140
1.0
102
RTVSPost2010PropOp52
 70
     0
102
RTVSPost2010Prop53
 90
        2
102
RTVSPost2010PropOp53
 70
     1
102
RTVSPost2010Prop54
  1
strokes_ogs.tif
102
RTVSPost2010PropOp54
 70
     1
102
RTVSPost2010Prop55
280
     0
102
RTVSPost2010PropOp55
 70
     1
102
RTVSPost2010Prop56
140
1.0
102
RTVSPost2010PropOp56
 70
     1
102
RTVSPost2010Prop57
140
1.0
102
RTVSPost2010PropOp57
 70
     1
  0
XRECORD
  5
1DD
102
{ACAD_REACTORS
330
1DC
102
}
330
1DC
100
AcDbXrecord
280
     1
102
RTVSPost2010Prop28
280
     0
102
RTVSPost2010PropOp28
 70
     0
102
RTVSPost2010Prop29
280
     1
102
RTVSPost2010PropOp29
 70
     0
102
RTVSPost2010Prop30
280
     1
102
RTVSPost2010PropOp30
 70
     0
102
RTVSPost2010Prop31
280
     0
102
RTVSPost2010PropOp31
 70
     0
102
RTVSPost2010Prop32
280
     0
102
RTVSPost2010PropOp32
 70
     0
102
RTVSPost2010Prop33
280
     0
102
RTVSPost2010PropOp33
 70
     0
102
RTVSPost2010Prop34
280
     0
102
RTVSPost2010PropOp34
 70
     0
102
RTVSPost2010Prop35
280
     0
102
RTVSPost2010PropOp35
 70
     0
102
RTVSPost2010Prop36
280
     0
102
RTVSPost2010PropOp36
 70
     0
102
RTVSPost2010Prop37
 90
       50
102
RTVSPost2010PropOp37
 70
     0
102
RTVSPost2010Prop38
140
0.0
102
RTVSPost2010PropOp38
 70
     0
102
RTVSPost2010Prop39
140
1.0
102
RTVSPost2010PropOp39
 70
     0
102
RTVSPost2010Prop40
 90
        0
102
RTVSPost2010PropOp40
 70
     0
102
RTVSPost2010Prop41ColorIndex
 90
       18
102
RTVSPost2010Prop41ColorRGB
 90
        0
102
RTVSPost2010PropOp41
 70
     0
102
RTVSPost2010Prop42
 90
       50
102
RTVSPost2010PropOp42
 70
     0
102
RTVSPost2010Prop43
 90
        3
102
RTVSPost2010PropOp43
 70
     0
102
RTVSPost2010Prop44ColorIndex
 90
        5
102
RTVSPost2010Prop44ColorRGB
 90
      255
102
RTVSPost2010PropOp44
 70
     0
102
RTVSPost2010Prop45
280
     0
102
RTVSPost2010PropOp45
 70
     0
102
RTVSPost2010Prop46
 90
       50
102
RTVSPost2010PropOp46
 70
     0
102
RTVSPost2010Prop47
 90
       50
102
RTVSPost2010PropOp47
 70
     0
102
RTVSPost2010Prop48
 90
       50
102
RTVSPost2010PropOp48
 70
     0
102
RTVSPost2010Prop49
280
     0
102
RTVSPost2010PropOp49
 70
     0
102
RTVSPost2010Prop50
 90
       50
102
RTVSPost2010PropOp50
 70
     0
102
RTVSPost2010Prop51ColorIndex
 90
      256
102
RTVSPost2010Prop51ColorRGB
 90
-16777216
102
RTVSPost2010PropOp51
 70
     0
102
RTVSPost2010Prop52
140
1.0
102
RTVSPost2010PropOp52
 70
     0
102
RTVSPost2010Prop53
 90
        2
102
RTVSPost2010PropOp53
 70
     0
102
RTVSPost2010Prop54
  1
strokes_ogs.tif
102
RTVSPost2010PropOp54
 70
     0
102
RTVSPost2010Prop55
280
     0
102
RTVSPost2010PropOp55
 70
     0
102
RTVSPost2010Prop56
140
1.0
102
RTVSPost2010PropOp56
 70
     0
102
RTVSPost2010Prop57
140
1.0
102
RTVSPost2010PropOp57
 70
     0
  0
XRECORD
  5
1CB
102
{ACAD_REACTORS
330
1CA
102
}
330
1CA
100
AcDbXrecord
280
     1
102
RTVSPost2010Prop28
280
     0
102
RTVSPost2010PropOp28
 70
     1
102
RTVSPost2010Prop29
280
     1
102
RTVSPost2010PropOp29
 70
     1
102
RTVSPost2010Prop30
280
     1
102
RTVSPost2010PropOp30
 70
     1
102
RTVSPost2010Prop31
280
     0
102
RTVSPost2010PropOp31
 70
     1
102
RTVSPost2010Prop32
280
     0
102
RTVSPost2010PropOp32
 70
     1
102
RTVSPost2010Prop33
280
     0
102
RTVSPost2010PropOp33
 70
     1
102
RTVSPost2010Prop34
280
     0
102
RTVSPost2010PropOp34
 70
     1
102
RTVSPost2010Prop35
280
     0
102
RTVSPost2010PropOp35
 70
     1
102
RTVSPost2010Prop36
280
     0
102
RTVSPost2010PropOp36
 70
     1
102
RTVSPost2010Prop37
 90
       50
102
RTVSPost2010PropOp37
 70
     1
102
RTVSPost2010Prop38
140
0.0
102
RTVSPost2010PropOp38
 70
     1
102
RTVSPost2010Prop39
140
1.0
102
RTVSPost2010PropOp39
 70
     1
102
RTVSPost2010Prop40
 90
        0
102
RTVSPost2010PropOp40
 70
     1
102
RTVSPost2010Prop41ColorIndex
 90
       18
102
RTVSPost2010Prop41ColorRGB
 90
        0
102
RTVSPost2010PropOp41
 70
     1
102
RTVSPost2010Prop42
 90
       50
102
RTVSPost2010PropOp42
 70
     1
102
RTVSPost2010Prop43
 90
        3
102
RTVSPost2010PropOp43
 70
     1
102
RTVSPost2010Prop44ColorIndex
 90
        5
102
RTVSPost2010Prop44ColorRGB
 90
      255
102
RTVSPost2010PropOp44
 70
     1
102
RTVSPost2010Prop45
280
     0
102
RTVSPost2010PropOp45
 70
     1
102
RTVSPost2010Prop46
 90
       50
102
RTVSPost2010PropOp46
 70
     1
102
RTVSPost2010Prop47
 90
       50
102
RTVSPost2010PropOp47
 70
     1
102
RTVSPost2010Prop48
 90
       50
102
RTVSPost2010PropOp48
 70
     1
102
RTVSPost2010Prop49
280
     0
102
RTVSPost2010PropOp49
 70
     1
102
RTVSPost2010Prop50
 90
       50
102
RTVSPost2010PropOp50
 70
     1
102
RTVSPost2010Prop51ColorIndex
 90
      256
102
RTVSPost2010Prop51ColorRGB
 90
-16777216
102
RTVSPost2010PropOp51
 70
     0
102
RTVSPost2010Prop52
140
1.0
102
RTVSPost2010PropOp52
 70
     0
102
RTVSPost2010Prop53
 90
        2
102
RTVSPost2010PropOp53
 70
     1
102
RTVSPost2010Prop54
  1
strokes_ogs.tif
102
RTVSPost2010PropOp54
 70
     1
102
RTVSPost2010Prop55
280
     0
102
RTVSPost2010PropOp55
 70
     1
102
RTVSPost2010Prop56
140
1.0
102
RTVSPost2010PropOp56
 70
     1
102
RTVSPost2010Prop57
140
1.0
102
RTVSPost2010PropOp57
 70
     1
  0
XRECORD
  5
1AF
102
{ACAD_REACTORS
330
1AE
102
}
330
1AE
100
AcDbXrecord
280
     1
102
RTVSPost2010Prop28
280
     0
102
RTVSPost2010PropOp28
 70
     1
102
RTVSPost2010Prop29
280
     1
102
RTVSPost2010PropOp29
 70
     1
102
RTVSPost2010Prop30
280
     1
102
RTVSPost2010PropOp30
 70
     1
102
RTVSPost2010Prop31
280
     0
102
RTVSPost2010PropOp31
 70
     1
102
RTVSPost2010Prop32
280
     0
102
RTVSPost2010PropOp32
 70
     1
102
RTVSPost2010Prop33
280
     0
102
RTVSPost2010PropOp33
 70
     1
102
RTVSPost2010Prop34
280
     0
102
RTVSPost2010PropOp34
 70
     1
102
RTVSPost2010Prop35
280
     0
102
RTVSPost2010PropOp35
 70
     1
102
RTVSPost2010Prop36
280
     0
102
RTVSPost2010PropOp36
 70
     1
102
RTVSPost2010Prop37
 90
       50
102
RTVSPost2010PropOp37
 70
     1
102
RTVSPost2010Prop38
140
0.0
102
RTVSPost2010PropOp38
 70
     1
102
RTVSPost2010Prop39
140
1.0
102
RTVSPost2010PropOp39
 70
     1
102
RTVSPost2010Prop40
 90
        0
102
RTVSPost2010PropOp40
 70
     1
102
RTVSPost2010Prop41ColorIndex
 90
       18
102
RTVSPost2010Prop41ColorRGB
 90
        0
102
RTVSPost2010PropOp41
 70
     1
102
RTVSPost2010Prop42
 90
       50
102
RTVSPost2010PropOp42
 70
     1
102
RTVSPost2010Prop43
 90
        3
102
RTVSPost2010PropOp43
 70
     1
102
RTVSPost2010Prop44ColorIndex
 90
        5
102
RTVSPost2010Prop44ColorRGB
 90
      255
102
RTVSPost2010PropOp44
 70
     1
102
RTVSPost2010Prop45
280
     0
102
RTVSPost2010PropOp45
 70
     1
102
RTVSPost2010Prop46
 90
       50
102
RTVSPost2010PropOp46
 70
     1
102
RTVSPost2010Prop47
 90
       50
102
RTVSPost2010PropOp47
 70
     1
102
RTVSPost2010Prop48
 90
       50
102
RTVSPost2010PropOp48
 70
     1
102
RTVSPost2010Prop49
280
     0
102
RTVSPost2010PropOp49
 70
     1
102
RTVSPost2010Prop50
 90
       50
102
RTVSPost2010PropOp50
 70
     1
102
RTVSPost2010Prop51ColorIndex
 90
      256
102
RTVSPost2010Prop51ColorRGB
 90
-16777216
102
RTVSPost2010PropOp51
 70
     0
102
RTVSPost2010Prop52
140
1.0
102
RTVSPost2010PropOp52
 70
     0
102
RTVSPost2010Prop53
 90
        2
102
RTVSPost2010PropOp53
 70
     1
102
RTVSPost2010Prop54
  1
strokes_ogs.tif
102
RTVSPost2010PropOp54
 70
     1
102
RTVSPost2010Prop55
280
     0
102
RTVSPost2010PropOp55
 70
     1
102
RTVSPost2010Prop56
140
1.0
102
RTVSPost2010PropOp56
 70
     1
102
RTVSPost2010Prop57
140
1.0
102
RTVSPost2010PropOp57
 70
     1
  0
XRECORD
  5
1B1
102
{ACAD_REACTORS
330
1B0
102
}
330
1B0
100
AcDbXrecord
280
     1
102
RTVSPost2010Prop28
280
     0
102
RTVSPost2010PropOp28
 70
     1
102
RTVSPost2010Prop29
280
     1
102
RTVSPost2010PropOp29
 70
     1
102
RTVSPost2010Prop30
280
     1
102
RTVSPost2010PropOp30
 70
     1
102
RTVSPost2010Prop31
280
     0
102
RTVSPost2010PropOp31
 70
     1
102
RTVSPost2010Prop32
280
     0
102
RTVSPost2010PropOp32
 70
     1
102
RTVSPost2010Prop33
280
     0
102
RTVSPost2010PropOp33
 70
     1
102
RTVSPost2010Prop34
280
     0
102
RTVSPost2010PropOp34
 70
     1
102
RTVSPost2010Prop35
280
     0
102
RTVSPost2010PropOp35
 70
     1
102
RTVSPost2010Prop36
280
     0
102
RTVSPost2010PropOp36
 70
     1
102
RTVSPost2010Prop37
 90
       50
102
RTVSPost2010PropOp37
 70
     1
102
RTVSPost2010Prop38
140
0.0
102
RTVSPost2010PropOp38
 70
     1
102
RTVSPost2010Prop39
140
1.0
102
RTVSPost2010PropOp39
 70
     1
102
RTVSPost2010Prop40
 90
        0
102
RTVSPost2010PropOp40
 70
     1
102
RTVSPost2010Prop41ColorIndex
 90
       18
102
RTVSPost2010Prop41ColorRGB
 90
        0
102
RTVSPost2010PropOp41
 70
     1
102
RTVSPost2010Prop42
 90
       50
102
RTVSPost2010PropOp42
 70
     1
102
RTVSPost2010Prop43
 90
        3
102
RTVSPost2010PropOp43
 70
     1
102
RTVSPost2010Prop44ColorIndex
 90
        5
102
RTVSPost2010Prop44ColorRGB
 90
      255
102
RTVSPost2010PropOp44
 70
     1
102
RTVSPost2010Prop45
280
     0
102
RTVSPost2010PropOp45
 70
     1
102
RTVSPost2010Prop46
 90
       50
102
RTVSPost2010PropOp46
 70
     1
102
RTVSPost2010Prop47
 90
       50
102
RTVSPost2010PropOp47
 70
     1
102
RTVSPost2010Prop48
 90
       50
102
RTVSPost2010PropOp48
 70
     1
102
RTVSPost2010Prop49
280
     0
102
RTVSPost2010PropOp49
 70
     1
102
RTVSPost2010Prop50
 90
       50
102
RTVSPost2010PropOp50
 70
     1
102
RTVSPost2010Prop51ColorIndex
 90
      256
102
RTVSPost2010Prop51ColorRGB
 90
-16777216
102
RTVSPost2010PropOp51
 70
     0
102
RTVSPost2010Prop52
140
1.0
102
RTVSPost2010PropOp52
 70
     0
102
RTVSPost2010Prop53
 90
        2
102
RTVSPost2010PropOp53
 70
     1
102
RTVSPost2010Prop54
  1
strokes_ogs.tif
102
RTVSPost2010PropOp54
 70
     1
102
RTVSPost2010Prop55
280
     0
102
RTVSPost2010PropOp55
 70
     1
102
RTVSPost2010Prop56
140
1.0
102
RTVSPost2010PropOp56
 70
     1
102
RTVSPost2010Prop57
140
1.0
102
RTVSPost2010PropOp57
 70
     1
  0
XRECORD
  5
1B3
102
{ACAD_REACTORS
330
1B2
102
}
330
1B2
100
AcDbXrecord
280
     1
102
RTVSPost2010Prop28
280
     0
102
RTVSPost2010PropOp28
 70
     1
102
RTVSPost2010Prop29
280
     1
102
RTVSPost2010PropOp29
 70
     1
102
RTVSPost2010Prop30
280
     1
102
RTVSPost2010PropOp30
 70
     1
102
RTVSPost2010Prop31
280
     0
102
RTVSPost2010PropOp31
 70
     1
102
RTVSPost2010Prop32
280
     0
102
RTVSPost2010PropOp32
 70
     1
102
RTVSPost2010Prop33
280
     0
102
RTVSPost2010PropOp33
 70
     1
102
RTVSPost2010Prop34
280
     0
102
RTVSPost2010PropOp34
 70
     1
102
RTVSPost2010Prop35
280
     0
102
RTVSPost2010PropOp35
 70
     1
102
RTVSPost2010Prop36
280
     0
102
RTVSPost2010PropOp36
 70
     1
102
RTVSPost2010Prop37
 90
       50
102
RTVSPost2010PropOp37
 70
     1
102
RTVSPost2010Prop38
140
0.0
102
RTVSPost2010PropOp38
 70
     1
102
RTVSPost2010Prop39
140
1.0
102
RTVSPost2010PropOp39
 70
     1
102
RTVSPost2010Prop40
 90
        0
102
RTVSPost2010PropOp40
 70
     1
102
RTVSPost2010Prop41ColorIndex
 90
       18
102
RTVSPost2010Prop41ColorRGB
 90
        0
102
RTVSPost2010PropOp41
 70
     1
102
RTVSPost2010Prop42
 90
       50
102
RTVSPost2010PropOp42
 70
     1
102
RTVSPost2010Prop43
 90
        3
102
RTVSPost2010PropOp43
 70
     1
102
RTVSPost2010Prop44ColorIndex
 90
        5
102
RTVSPost2010Prop44ColorRGB
 90
      255
102
RTVSPost2010PropOp44
 70
     1
102
RTVSPost2010Prop45
280
     0
102
RTVSPost2010PropOp45
 70
     1
102
RTVSPost2010Prop46
 90
       50
102
RTVSPost2010PropOp46
 70
     1
102
RTVSPost2010Prop47
 90
       50
102
RTVSPost2010PropOp47
 70
     1
102
RTVSPost2010Prop48
 90
       50
102
RTVSPost2010PropOp48
 70
     1
102
RTVSPost2010Prop49
280
     0
102
RTVSPost2010PropOp49
 70
     1
102
RTVSPost2010Prop50
 90
       50
102
RTVSPost2010PropOp50
 70
     1
102
RTVSPost2010Prop51ColorIndex
 90
      256
102
RTVSPost2010Prop51ColorRGB
 90
-16777216
102
RTVSPost2010PropOp51
 70
     0
102
RTVSPost2010Prop52
140
1.0
102
RTVSPost2010PropOp52
 70
     0
102
RTVSPost2010Prop53
 90
        2
102
RTVSPost2010PropOp53
 70
     1
102
RTVSPost2010Prop54
  1
strokes_ogs.tif
102
RTVSPost2010PropOp54
 70
     1
102
RTVSPost2010Prop55
280
     0
102
RTVSPost2010PropOp55
 70
     1
102
RTVSPost2010Prop56
140
1.0
102
RTVSPost2010PropOp56
 70
     1
102
RTVSPost2010Prop57
140
1.0
102
RTVSPost2010PropOp57
 70
     1
  0
XRECORD
  5
1B5
102
{ACAD_REACTORS
330
1B4
102
}
330
1B4
100
AcDbXrecord
280
     1
102
RTVSPost2010Prop28
280
     0
102
RTVSPost2010PropOp28
 70
     1
102
RTVSPost2010Prop29
280
     1
102
RTVSPost2010PropOp29
 70
     1
102
RTVSPost2010Prop30
280
     1
102
RTVSPost2010PropOp30
 70
     1
102
RTVSPost2010Prop31
280
     0
102
RTVSPost2010PropOp31
 70
     1
102
RTVSPost2010Prop32
280
     0
102
RTVSPost2010PropOp32
 70
     1
102
RTVSPost2010Prop33
280
     0
102
RTVSPost2010PropOp33
 70
     1
102
RTVSPost2010Prop34
280
     0
102
RTVSPost2010PropOp34
 70
     1
102
RTVSPost2010Prop35
280
     0
102
RTVSPost2010PropOp35
 70
     1
102
RTVSPost2010Prop36
280
     0
102
RTVSPost2010PropOp36
 70
     1
102
RTVSPost2010Prop37
 90
       50
102
RTVSPost2010PropOp37
 70
     1
102
RTVSPost2010Prop38
140
0.0
102
RTVSPost2010PropOp38
 70
     1
102
RTVSPost2010Prop39
140
1.0
102
RTVSPost2010PropOp39
 70
     1
102
RTVSPost2010Prop40
 90
        0
102
RTVSPost2010PropOp40
 70
     1
102
RTVSPost2010Prop41ColorIndex
 90
       18
102
RTVSPost2010Prop41ColorRGB
 90
        0
102
RTVSPost2010PropOp41
 70
     1
102
RTVSPost2010Prop42
 90
       50
102
RTVSPost2010PropOp42
 70
     1
102
RTVSPost2010Prop43
 90
        3
102
RTVSPost2010PropOp43
 70
     1
102
RTVSPost2010Prop44ColorIndex
 90
        5
102
RTVSPost2010Prop44ColorRGB
 90
      255
102
RTVSPost2010PropOp44
 70
     1
102
RTVSPost2010Prop45
280
     0
102
RTVSPost2010PropOp45
 70
     1
102
RTVSPost2010Prop46
 90
       50
102
RTVSPost2010PropOp46
 70
     1
102
RTVSPost2010Prop47
 90
       50
102
RTVSPost2010PropOp47
 70
     1
102
RTVSPost2010Prop48
 90
       50
102
RTVSPost2010PropOp48
 70
     1
102
RTVSPost2010Prop49
280
     0
102
RTVSPost2010PropOp49
 70
     1
102
RTVSPost2010Prop50
 90
       50
102
RTVSPost2010PropOp50
 70
     1
102
RTVSPost2010Prop51ColorIndex
 90
      256
102
RTVSPost2010Prop51ColorRGB
 90
-16777216
102
RTVSPost2010PropOp51
 70
     0
102
RTVSPost2010Prop52
140
1.0
102
RTVSPost2010PropOp52
 70
     0
102
RTVSPost2010Prop53
 90
        2
102
RTVSPost2010PropOp53
 70
     1
102
RTVSPost2010Prop54
  1
strokes_ogs.tif
102
RTVSPost2010PropOp54
 70
     1
102
RTVSPost2010Prop55
280
     0
102
RTVSPost2010PropOp55
 70
     1
102
RTVSPost2010Prop56
140
1.0
102
RTVSPost2010PropOp56
 70
     1
102
RTVSPost2010Prop57
140
1.0
102
RTVSPost2010PropOp57
 70
     1
  0
XRECORD
  5
1BD
102
{ACAD_REACTORS
330
1BC
102
}
330
1BC
100
AcDbXrecord
280
     1
102
RTVSPost2010Prop28
280
     0
102
RTVSPost2010PropOp28
 70
     1
102
RTVSPost2010Prop29
280
     1
102
RTVSPost2010PropOp29
 70
     1
102
RTVSPost2010Prop30
280
     1
102
RTVSPost2010PropOp30
 70
     1
102
RTVSPost2010Prop31
280
     0
102
RTVSPost2010PropOp31
 70
     1
102
RTVSPost2010Prop32
280
     0
102
RTVSPost2010PropOp32
 70
     1
102
RTVSPost2010Prop33
280
     0
102
RTVSPost2010PropOp33
 70
     1
102
RTVSPost2010Prop34
280
     0
102
RTVSPost2010PropOp34
 70
     1
102
RTVSPost2010Prop35
280
     0
102
RTVSPost2010PropOp35
 70
     1
102
RTVSPost2010Prop36
280
     0
102
RTVSPost2010PropOp36
 70
     1
102
RTVSPost2010Prop37
 90
       50
102
RTVSPost2010PropOp37
 70
     1
102
RTVSPost2010Prop38
140
0.0
102
RTVSPost2010PropOp38
 70
     1
102
RTVSPost2010Prop39
140
1.0
102
RTVSPost2010PropOp39
 70
     1
102
RTVSPost2010Prop40
 90
        0
102
RTVSPost2010PropOp40
 70
     1
102
RTVSPost2010Prop41ColorIndex
 90
       18
102
RTVSPost2010Prop41ColorRGB
 90
        0
102
RTVSPost2010PropOp41
 70
     1
102
RTVSPost2010Prop42
 90
       50
102
RTVSPost2010PropOp42
 70
     1
102
RTVSPost2010Prop43
 90
        3
102
RTVSPost2010PropOp43
 70
     1
102
RTVSPost2010Prop44ColorIndex
 90
        5
102
RTVSPost2010Prop44ColorRGB
 90
      255
102
RTVSPost2010PropOp44
 70
     1
102
RTVSPost2010Prop45
280
     0
102
RTVSPost2010PropOp45
 70
     1
102
RTVSPost2010Prop46
 90
       50
102
RTVSPost2010PropOp46
 70
     1
102
RTVSPost2010Prop47
 90
       50
102
RTVSPost2010PropOp47
 70
     1
102
RTVSPost2010Prop48
 90
       50
102
RTVSPost2010PropOp48
 70
     1
102
RTVSPost2010Prop49
280
     0
102
RTVSPost2010PropOp49
 70
     1
102
RTVSPost2010Prop50
 90
       50
102
RTVSPost2010PropOp50
 70
     1
102
RTVSPost2010Prop51ColorIndex
 90
      256
102
RTVSPost2010Prop51ColorRGB
 90
-16777216
102
RTVSPost2010PropOp51
 70
     0
102
RTVSPost2010Prop52
140
1.0
102
RTVSPost2010PropOp52
 70
     0
102
RTVSPost2010Prop53
 90
        2
102
RTVSPost2010PropOp53
 70
     1
102
RTVSPost2010Prop54
  1
strokes_ogs.tif
102
RTVSPost2010PropOp54
 70
     1
102
RTVSPost2010Prop55
280
     0
102
RTVSPost2010PropOp55
 70
     1
102
RTVSPost2010Prop56
140
1.0
102
RTVSPost2010PropOp56
 70
     1
102
RTVSPost2010Prop57
140
1.0
102
RTVSPost2010PropOp57
 70
     1
  0
XRECORD
  5
1D9
102
{ACAD_REACTORS
330
1D8
102
}
330
1D8
100
AcDbXrecord
280
     1
102
RTVSPost2010Prop28
280
     0
102
RTVSPost2010PropOp28
 70
     0
102
RTVSPost2010Prop29
280
     1
102
RTVSPost2010PropOp29
 70
     0
102
RTVSPost2010Prop30
280
     1
102
RTVSPost2010PropOp30
 70
     0
102
RTVSPost2010Prop31
280
     0
102
RTVSPost2010PropOp31
 70
     0
102
RTVSPost2010Prop32
280
     0
102
RTVSPost2010PropOp32
 70
     0
102
RTVSPost2010Prop33
280
     0
102
RTVSPost2010PropOp33
 70
     0
102
RTVSPost2010Prop34
280
     0
102
RTVSPost2010PropOp34
 70
     0
102
RTVSPost2010Prop35
280
     0
102
RTVSPost2010PropOp35
 70
     0
102
RTVSPost2010Prop36
280
     0
102
RTVSPost2010PropOp36
 70
     0
102
RTVSPost2010Prop37
 90
       50
102
RTVSPost2010PropOp37
 70
     0
102
RTVSPost2010Prop38
140
0.0
102
RTVSPost2010PropOp38
 70
     0
102
RTVSPost2010Prop39
140
1.0
102
RTVSPost2010PropOp39
 70
     0
102
RTVSPost2010Prop40
 90
        0
102
RTVSPost2010PropOp40
 70
     0
102
RTVSPost2010Prop41ColorIndex
 90
       18
102
RTVSPost2010Prop41ColorRGB
 90
        0
102
RTVSPost2010PropOp41
 70
     0
102
RTVSPost2010Prop42
 90
       50
102
RTVSPost2010PropOp42
 70
     0
102
RTVSPost2010Prop43
 90
        3
102
RTVSPost2010PropOp43
 70
     0
102
RTVSPost2010Prop44ColorIndex
 90
        5
102
RTVSPost2010Prop44ColorRGB
 90
      255
102
RTVSPost2010PropOp44
 70
     0
102
RTVSPost2010Prop45
280
     0
102
RTVSPost2010PropOp45
 70
     0
102
RTVSPost2010Prop46
 90
       50
102
RTVSPost2010PropOp46
 70
     0
102
RTVSPost2010Prop47
 90
       50
102
RTVSPost2010PropOp47
 70
     0
102
RTVSPost2010Prop48
 90
       50
102
RTVSPost2010PropOp48
 70
     0
102
RTVSPost2010Prop49
280
     0
102
RTVSPost2010PropOp49
 70
     0
102
RTVSPost2010Prop50
 90
       50
102
RTVSPost2010PropOp50
 70
     0
102
RTVSPost2010Prop51ColorIndex
 90
      256
102
RTVSPost2010Prop51ColorRGB
 90
-16777216
102
RTVSPost2010PropOp51
 70
     0
102
RTVSPost2010Prop52
140
1.0
102
RTVSPost2010PropOp52
 70
     0
102
RTVSPost2010Prop53
 90
        2
102
RTVSPost2010PropOp53
 70
     0
102
RTVSPost2010Prop54
  1
strokes_ogs.tif
102
RTVSPost2010PropOp54
 70
     0
102
RTVSPost2010Prop55
280
     0
102
RTVSPost2010PropOp55
 70
     0
102
RTVSPost2010Prop56
140
1.0
102
RTVSPost2010PropOp56
 70
     0
102
RTVSPost2010Prop57
140
1.0
102
RTVSPost2010PropOp57
 70
     0
  0
XRECORD
  5
1C9
102
{ACAD_REACTORS
330
1C8
102
}
330
1C8
100
AcDbXrecord
280
     1
102
RTVSPost2010Prop28
280
     0
102
RTVSPost2010PropOp28
 70
     1
102
RTVSPost2010Prop29
280
     1
102
RTVSPost2010PropOp29
 70
     1
102
RTVSPost2010Prop30
280
     1
102
RTVSPost2010PropOp30
 70
     1
102
RTVSPost2010Prop31
280
     0
102
RTVSPost2010PropOp31
 70
     1
102
RTVSPost2010Prop32
280
     0
102
RTVSPost2010PropOp32
 70
     1
102
RTVSPost2010Prop33
280
     0
102
RTVSPost2010PropOp33
 70
     1
102
RTVSPost2010Prop34
280
     0
102
RTVSPost2010PropOp34
 70
     1
102
RTVSPost2010Prop35
280
     0
102
RTVSPost2010PropOp35
 70
     1
102
RTVSPost2010Prop36
280
     0
102
RTVSPost2010PropOp36
 70
     1
102
RTVSPost2010Prop37
 90
       50
102
RTVSPost2010PropOp37
 70
     1
102
RTVSPost2010Prop38
140
0.0
102
RTVSPost2010PropOp38
 70
     1
102
RTVSPost2010Prop39
140
1.0
102
RTVSPost2010PropOp39
 70
     1
102
RTVSPost2010Prop40
 90
        0
102
RTVSPost2010PropOp40
 70
     1
102
RTVSPost2010Prop41ColorIndex
 90
       18
102
RTVSPost2010Prop41ColorRGB
 90
        0
102
RTVSPost2010PropOp41
 70
     1
102
RTVSPost2010Prop42
 90
       50
102
RTVSPost2010PropOp42
 70
     1
102
RTVSPost2010Prop43
 90
        3
102
RTVSPost2010PropOp43
 70
     1
102
RTVSPost2010Prop44ColorIndex
 90
        5
102
RTVSPost2010Prop44ColorRGB
 90
      255
102
RTVSPost2010PropOp44
 70
     1
102
RTVSPost2010Prop45
280
     0
102
RTVSPost2010PropOp45
 70
     1
102
RTVSPost2010Prop46
 90
       50
102
RTVSPost2010PropOp46
 70
     1
102
RTVSPost2010Prop47
 90
       50
102
RTVSPost2010PropOp47
 70
     1
102
RTVSPost2010Prop48
 90
       50
102
RTVSPost2010PropOp48
 70
     1
102
RTVSPost2010Prop49
280
     0
102
RTVSPost2010PropOp49
 70
     1
102
RTVSPost2010Prop50
 90
       50
102
RTVSPost2010PropOp50
 70
     1
102
RTVSPost2010Prop51ColorIndex
 90
      256
102
RTVSPost2010Prop51ColorRGB
 90
-16777216
102
RTVSPost2010PropOp51
 70
     0
102
RTVSPost2010Prop52
140
1.0
102
RTVSPost2010PropOp52
 70
     0
102
RTVSPost2010Prop53
 90
        2
102
RTVSPost2010PropOp53
 70
     1
102
RTVSPost2010Prop54
  1
strokes_ogs.tif
102
RTVSPost2010PropOp54
 70
     1
102
RTVSPost2010Prop55
280
     0
102
RTVSPost2010PropOp55
 70
     1
102
RTVSPost2010Prop56
140
1.0
102
RTVSPost2010PropOp56
 70
     1
102
RTVSPost2010Prop57
140
1.0
102
RTVSPost2010PropOp57
 70
     1
  0
XRECORD
  5
1DB
102
{ACAD_REACTORS
330
1DA
102
}
330
1DA
100
AcDbXrecord
280
     1
102
RTVSPost2010Prop28
280
     0
102
RTVSPost2010PropOp28
 70
     0
102
RTVSPost2010Prop29
280
     1
102
RTVSPost2010PropOp29
 70
     0
102
RTVSPost2010Prop30
280
     1
102
RTVSPost2010PropOp30
 70
     0
102
RTVSPost2010Prop31
280
     0
102
RTVSPost2010PropOp31
 70
     0
102
RTVSPost2010Prop32
280
     0
102
RTVSPost2010PropOp32
 70
     0
102
RTVSPost2010Prop33
280
     0
102
RTVSPost2010PropOp33
 70
     0
102
RTVSPost2010Prop34
280
     0
102
RTVSPost2010PropOp34
 70
     0
102
RTVSPost2010Prop35
280
     0
102
RTVSPost2010PropOp35
 70
     0
102
RTVSPost2010Prop36
280
     0
102
RTVSPost2010PropOp36
 70
     0
102
RTVSPost2010Prop37
 90
       50
102
RTVSPost2010PropOp37
 70
     0
102
RTVSPost2010Prop38
140
0.0
102
RTVSPost2010PropOp38
 70
     0
102
RTVSPost2010Prop39
140
1.0
102
RTVSPost2010PropOp39
 70
     0
102
RTVSPost2010Prop40
 90
        0
102
RTVSPost2010PropOp40
 70
     0
102
RTVSPost2010Prop41ColorIndex
 90
       18
102
RTVSPost2010Prop41ColorRGB
 90
        0
102
RTVSPost2010PropOp41
 70
     0
102
RTVSPost2010Prop42
 90
       50
102
RTVSPost2010PropOp42
 70
     0
102
RTVSPost2010Prop43
 90
        3
102
RTVSPost2010PropOp43
 70
     0
102
RTVSPost2010Prop44ColorIndex
 90
        5
102
RTVSPost2010Prop44ColorRGB
 90
      255
102
RTVSPost2010PropOp44
 70
     0
102
RTVSPost2010Prop45
280
     0
102
RTVSPost2010PropOp45
 70
     0
102
RTVSPost2010Prop46
 90
       50
102
RTVSPost2010PropOp46
 70
     0
102
RTVSPost2010Prop47
 90
       50
102
RTVSPost2010PropOp47
 70
     0
102
RTVSPost2010Prop48
 90
       50
102
RTVSPost2010PropOp48
 70
     0
102
RTVSPost2010Prop49
280
     0
102
RTVSPost2010PropOp49
 70
     0
102
RTVSPost2010Prop50
 90
       50
102
RTVSPost2010PropOp50
 70
     0
102
RTVSPost2010Prop51ColorIndex
 90
      256
102
RTVSPost2010Prop51ColorRGB
 90
-16777216
102
RTVSPost2010PropOp51
 70
     0
102
RTVSPost2010Prop52
140
1.0
102
RTVSPost2010PropOp52
 70
     0
102
RTVSPost2010Prop53
 90
        2
102
RTVSPost2010PropOp53
 70
     0
102
RTVSPost2010Prop54
  1
strokes_ogs.tif
102
RTVSPost2010PropOp54
 70
     0
102
RTVSPost2010Prop55
280
     0
102
RTVSPost2010PropOp55
 70
     0
102
RTVSPost2010Prop56
140
1.0
102
RTVSPost2010PropOp56
 70
     0
102
RTVSPost2010Prop57
140
1.0
102
RTVSPost2010PropOp57
 70
     0
  0
XRECORD
  5
1C1
102
{ACAD_REACTORS
330
1C0
102
}
330
1C0
100
AcDbXrecord
280
     1
102
RTVSPost2010Prop28
280
     0
102
RTVSPost2010PropOp28
 70
     1
102
RTVSPost2010Prop29
280
     1
102
RTVSPost2010PropOp29
 70
     1
102
RTVSPost2010Prop30
280
     1
102
RTVSPost2010PropOp30
 70
     1
102
RTVSPost2010Prop31
280
     0
102
RTVSPost2010PropOp31
 70
     1
102
RTVSPost2010Prop32
280
     0
102
RTVSPost2010PropOp32
 70
     1
102
RTVSPost2010Prop33
280
     0
102
RTVSPost2010PropOp33
 70
     1
102
RTVSPost2010Prop34
280
     0
102
RTVSPost2010PropOp34
 70
     1
102
RTVSPost2010Prop35
280
     0
102
RTVSPost2010PropOp35
 70
     1
102
RTVSPost2010Prop36
280
     0
102
RTVSPost2010PropOp36
 70
     1
102
RTVSPost2010Prop37
 90
       50
102
RTVSPost2010PropOp37
 70
     1
102
RTVSPost2010Prop38
140
0.0
102
RTVSPost2010PropOp38
 70
     1
102
RTVSPost2010Prop39
140
1.0
102
RTVSPost2010PropOp39
 70
     1
102
RTVSPost2010Prop40
 90
        0
102
RTVSPost2010PropOp40
 70
     1
102
RTVSPost2010Prop41ColorIndex
 90
       18
102
RTVSPost2010Prop41ColorRGB
 90
        0
102
RTVSPost2010PropOp41
 70
     1
102
RTVSPost2010Prop42
 90
       50
102
RTVSPost2010PropOp42
 70
     1
102
RTVSPost2010Prop43
 90
        3
102
RTVSPost2010PropOp43
 70
     1
102
RTVSPost2010Prop44ColorIndex
 90
        5
102
RTVSPost2010Prop44ColorRGB
 90
      255
102
RTVSPost2010PropOp44
 70
     1
102
RTVSPost2010Prop45
280
     0
102
RTVSPost2010PropOp45
 70
     1
102
RTVSPost2010Prop46
 90
       50
102
RTVSPost2010PropOp46
 70
     1
102
RTVSPost2010Prop47
 90
       50
102
RTVSPost2010PropOp47
 70
     1
102
RTVSPost2010Prop48
 90
       50
102
RTVSPost2010PropOp48
 70
     1
102
RTVSPost2010Prop49
280
     0
102
RTVSPost2010PropOp49
 70
     1
102
RTVSPost2010Prop50
 90
       50
102
RTVSPost2010PropOp50
 70
     1
102
RTVSPost2010Prop51ColorIndex
 90
      256
102
RTVSPost2010Prop51ColorRGB
 90
-16777216
102
RTVSPost2010PropOp51
 70
     0
102
RTVSPost2010Prop52
140
1.0
102
RTVSPost2010PropOp52
 70
     0
102
RTVSPost2010Prop53
 90
        2
102
RTVSPost2010PropOp53
 70
     1
102
RTVSPost2010Prop54
  1
strokes_ogs.tif
102
RTVSPost2010PropOp54
 70
     1
102
RTVSPost2010Prop55
280
     0
102
RTVSPost2010PropOp55
 70
     1
102
RTVSPost2010Prop56
140
1.0
102
RTVSPost2010PropOp56
 70
     1
102
RTVSPost2010Prop57
140
1.0
102
RTVSPost2010PropOp57
 70
     1
  0
XRECORD
  5
1D7
102
{ACAD_REACTORS
330
1D6
102
}
330
1D6
100
AcDbXrecord
280
     1
102
RTVSPost2010Prop28
280
     0
102
RTVSPost2010PropOp28
 70
     1
102
RTVSPost2010Prop29
280
     1
102
RTVSPost2010PropOp29
 70
     1
102
RTVSPost2010Prop30
280
     1
102
RTVSPost2010PropOp30
 70
     1
102
RTVSPost2010Prop31
280
     0
102
RTVSPost2010PropOp31
 70
     1
102
RTVSPost2010Prop32
280
     0
102
RTVSPost2010PropOp32
 70
     1
102
RTVSPost2010Prop33
280
     0
102
RTVSPost2010PropOp33
 70
     1
102
RTVSPost2010Prop34
280
     0
102
RTVSPost2010PropOp34
 70
     1
102
RTVSPost2010Prop35
280
     0
102
RTVSPost2010PropOp35
 70
     1
102
RTVSPost2010Prop36
280
     0
102
RTVSPost2010PropOp36
 70
     1
102
RTVSPost2010Prop37
 90
       50
102
RTVSPost2010PropOp37
 70
     1
102
RTVSPost2010Prop38
140
0.0
102
RTVSPost2010PropOp38
 70
     1
102
RTVSPost2010Prop39
140
1.0
102
RTVSPost2010PropOp39
 70
     1
102
RTVSPost2010Prop40
 90
        0
102
RTVSPost2010PropOp40
 70
     1
102
RTVSPost2010Prop41ColorIndex
 90
       18
102
RTVSPost2010Prop41ColorRGB
 90
        0
102
RTVSPost2010PropOp41
 70
     1
102
RTVSPost2010Prop42
 90
       50
102
RTVSPost2010PropOp42
 70
     1
102
RTVSPost2010Prop43
 90
        3
102
RTVSPost2010PropOp43
 70
     1
102
RTVSPost2010Prop44ColorIndex
 90
        5
102
RTVSPost2010Prop44ColorRGB
 90
      255
102
RTVSPost2010PropOp44
 70
     1
102
RTVSPost2010Prop45
280
     0
102
RTVSPost2010PropOp45
 70
     1
102
RTVSPost2010Prop46
 90
       50
102
RTVSPost2010PropOp46
 70
     1
102
RTVSPost2010Prop47
 90
       50
102
RTVSPost2010PropOp47
 70
     1
102
RTVSPost2010Prop48
 90
       50
102
RTVSPost2010PropOp48
 70
     1
102
RTVSPost2010Prop49
280
     0
102
RTVSPost2010PropOp49
 70
     1
102
RTVSPost2010Prop50
 90
       50
102
RTVSPost2010PropOp50
 70
     1
102
RTVSPost2010Prop51ColorIndex
 90
      256
102
RTVSPost2010Prop51ColorRGB
 90
-16777216
102
RTVSPost2010PropOp51
 70
     0
102
RTVSPost2010Prop52
140
1.0
102
RTVSPost2010PropOp52
 70
     0
102
RTVSPost2010Prop53
 90
        2
102
RTVSPost2010PropOp53
 70
     1
102
RTVSPost2010Prop54
  1
strokes_ogs.tif
102
RTVSPost2010PropOp54
 70
     1
102
RTVSPost2010Prop55
280
     0
102
RTVSPost2010PropOp55
 70
     1
102
RTVSPost2010Prop56
140
1.0
102
RTVSPost2010PropOp56
 70
     1
102
RTVSPost2010Prop57
140
1.0
102
RTVSPost2010PropOp57
 70
     1
  0
XRECORD
  5
1D5
102
{ACAD_REACTORS
330
1D4
102
}
330
1D4
100
AcDbXrecord
280
     1
102
RTVSPost2010Prop28
280
     0
102
RTVSPost2010PropOp28
 70
     1
102
RTVSPost2010Prop29
280
     1
102
RTVSPost2010PropOp29
 70
     1
102
RTVSPost2010Prop30
280
     1
102
RTVSPost2010PropOp30
 70
     1
102
RTVSPost2010Prop31
280
     0
102
RTVSPost2010PropOp31
 70
     1
102
RTVSPost2010Prop32
280
     0
102
RTVSPost2010PropOp32
 70
     1
102
RTVSPost2010Prop33
280
     0
102
RTVSPost2010PropOp33
 70
     1
102
RTVSPost2010Prop34
280
     0
102
RTVSPost2010PropOp34
 70
     1
102
RTVSPost2010Prop35
280
     0
102
RTVSPost2010PropOp35
 70
     1
102
RTVSPost2010Prop36
280
     0
102
RTVSPost2010PropOp36
 70
     1
102
RTVSPost2010Prop37
 90
       50
102
RTVSPost2010PropOp37
 70
     1
102
RTVSPost2010Prop38
140
0.0
102
RTVSPost2010PropOp38
 70
     1
102
RTVSPost2010Prop39
140
1.0
102
RTVSPost2010PropOp39
 70
     1
102
RTVSPost2010Prop40
 90
        0
102
RTVSPost2010PropOp40
 70
     1
102
RTVSPost2010Prop41ColorIndex
 90
       18
102
RTVSPost2010Prop41ColorRGB
 90
        0
102
RTVSPost2010PropOp41
 70
     1
102
RTVSPost2010Prop42
 90
       50
102
RTVSPost2010PropOp42
 70
     1
102
RTVSPost2010Prop43
 90
        3
102
RTVSPost2010PropOp43
 70
     1
102
RTVSPost2010Prop44ColorIndex
 90
        5
102
RTVSPost2010Prop44ColorRGB
 90
      255
102
RTVSPost2010PropOp44
 70
     1
102
RTVSPost2010Prop45
280
     0
102
RTVSPost2010PropOp45
 70
     1
102
RTVSPost2010Prop46
 90
       50
102
RTVSPost2010PropOp46
 70
     1
102
RTVSPost2010Prop47
 90
       50
102
RTVSPost2010PropOp47
 70
     1
102
RTVSPost2010Prop48
 90
       50
102
RTVSPost2010PropOp48
 70
     1
102
RTVSPost2010Prop49
280
     0
102
RTVSPost2010PropOp49
 70
     1
102
RTVSPost2010Prop50
 90
       50
102
RTVSPost2010PropOp50
 70
     1
102
RTVSPost2010Prop51ColorIndex
 90
      256
102
RTVSPost2010Prop51ColorRGB
 90
-16777216
102
RTVSPost2010PropOp51
 70
     0
102
RTVSPost2010Prop52
140
1.0
102
RTVSPost2010PropOp52
 70
     0
102
RTVSPost2010Prop53
 90
        2
102
RTVSPost2010PropOp53
 70
     1
102
RTVSPost2010Prop54
  1
strokes_ogs.tif
102
RTVSPost2010PropOp54
 70
     1
102
RTVSPost2010Prop55
280
     0
102
RTVSPost2010PropOp55
 70
     1
102
RTVSPost2010Prop56
140
1.0
102
RTVSPost2010PropOp56
 70
     1
102
RTVSPost2010Prop57
140
1.0
102
RTVSPost2010PropOp57
 70
     1
  0
XRECORD
  5
1CF
102
{ACAD_REACTORS
330
1CE
102
}
330
1CE
100
AcDbXrecord
280
     1
102
RTVSPost2010Prop28
280
     0
102
RTVSPost2010PropOp28
 70
     1
102
RTVSPost2010Prop29
280
     1
102
RTVSPost2010PropOp29
 70
     1
102
RTVSPost2010Prop30
280
     1
102
RTVSPost2010PropOp30
 70
     1
102
RTVSPost2010Prop31
280
     0
102
RTVSPost2010PropOp31
 70
     1
102
RTVSPost2010Prop32
280
     0
102
RTVSPost2010PropOp32
 70
     1
102
RTVSPost2010Prop33
280
     0
102
RTVSPost2010PropOp33
 70
     1
102
RTVSPost2010Prop34
280
     0
102
RTVSPost2010PropOp34
 70
     1
102
RTVSPost2010Prop35
280
     0
102
RTVSPost2010PropOp35
 70
     1
102
RTVSPost2010Prop36
280
     0
102
RTVSPost2010PropOp36
 70
     1
102
RTVSPost2010Prop37
 90
       50
102
RTVSPost2010PropOp37
 70
     1
102
RTVSPost2010Prop38
140
0.0
102
RTVSPost2010PropOp38
 70
     1
102
RTVSPost2010Prop39
140
1.0
102
RTVSPost2010PropOp39
 70
     1
102
RTVSPost2010Prop40
 90
        0
102
RTVSPost2010PropOp40
 70
     1
102
RTVSPost2010Prop41ColorIndex
 90
       18
102
RTVSPost2010Prop41ColorRGB
 90
        0
102
RTVSPost2010PropOp41
 70
     1
102
RTVSPost2010Prop42
 90
       50
102
RTVSPost2010PropOp42
 70
     1
102
RTVSPost2010Prop43
 90
        3
102
RTVSPost2010PropOp43
 70
     1
102
RTVSPost2010Prop44ColorIndex
 90
        5
102
RTVSPost2010Prop44ColorRGB
 90
      255
102
RTVSPost2010PropOp44
 70
     1
102
RTVSPost2010Prop45
280
     0
102
RTVSPost2010PropOp45
 70
     1
102
RTVSPost2010Prop46
 90
       50
102
RTVSPost2010PropOp46
 70
     1
102
RTVSPost2010Prop47
 90
       50
102
RTVSPost2010PropOp47
 70
     1
102
RTVSPost2010Prop48
 90
       50
102
RTVSPost2010PropOp48
 70
     1
102
RTVSPost2010Prop49
280
     0
102
RTVSPost2010PropOp49
 70
     1
102
RTVSPost2010Prop50
 90
       50
102
RTVSPost2010PropOp50
 70
     1
102
RTVSPost2010Prop51ColorIndex
 90
      256
102
RTVSPost2010Prop51ColorRGB
 90
-16777216
102
RTVSPost2010PropOp51
 70
     0
102
RTVSPost2010Prop52
140
1.0
102
RTVSPost2010PropOp52
 70
     0
102
RTVSPost2010Prop53
 90
        2
102
RTVSPost2010PropOp53
 70
     1
102
RTVSPost2010Prop54
  1
strokes_ogs.tif
102
RTVSPost2010PropOp54
 70
     1
102
RTVSPost2010Prop55
280
     0
102
RTVSPost2010PropOp55
 70
     1
102
RTVSPost2010Prop56
140
1.0
102
RTVSPost2010PropOp56
 70
     1
102
RTVSPost2010Prop57
140
1.0
102
RTVSPost2010PropOp57
 70
     1
  0
XRECORD
  5
1D1
102
{ACAD_REACTORS
330
1D0
102
}
330
1D0
100
AcDbXrecord
280
     1
102
RTVSPost2010Prop28
280
     0
102
RTVSPost2010PropOp28
 70
     1
102
RTVSPost2010Prop29
280
     1
102
RTVSPost2010PropOp29
 70
     1
102
RTVSPost2010Prop30
280
     1
102
RTVSPost2010PropOp30
 70
     1
102
RTVSPost2010Prop31
280
     0
102
RTVSPost2010PropOp31
 70
     1
102
RTVSPost2010Prop32
280
     0
102
RTVSPost2010PropOp32
 70
     1
102
RTVSPost2010Prop33
280
     0
102
RTVSPost2010PropOp33
 70
     1
102
RTVSPost2010Prop34
280
     0
102
RTVSPost2010PropOp34
 70
     1
102
RTVSPost2010Prop35
280
     0
102
RTVSPost2010PropOp35
 70
     1
102
RTVSPost2010Prop36
280
     0
102
RTVSPost2010PropOp36
 70
     1
102
RTVSPost2010Prop37
 90
       50
102
RTVSPost2010PropOp37
 70
     1
102
RTVSPost2010Prop38
140
0.0
102
RTVSPost2010PropOp38
 70
     1
102
RTVSPost2010Prop39
140
1.0
102
RTVSPost2010PropOp39
 70
     1
102
RTVSPost2010Prop40
 90
        0
102
RTVSPost2010PropOp40
 70
     1
102
RTVSPost2010Prop41ColorIndex
 90
       18
102
RTVSPost2010Prop41ColorRGB
 90
        0
102
RTVSPost2010PropOp41
 70
     1
102
RTVSPost2010Prop42
 90
       50
102
RTVSPost2010PropOp42
 70
     1
102
RTVSPost2010Prop43
 90
        3
102
RTVSPost2010PropOp43
 70
     1
102
RTVSPost2010Prop44ColorIndex
 90
        5
102
RTVSPost2010Prop44ColorRGB
 90
      255
102
RTVSPost2010PropOp44
 70
     1
102
RTVSPost2010Prop45
280
     0
102
RTVSPost2010PropOp45
 70
     1
102
RTVSPost2010Prop46
 90
       50
102
RTVSPost2010PropOp46
 70
     1
102
RTVSPost2010Prop47
 90
       50
102
RTVSPost2010PropOp47
 70
     1
102
RTVSPost2010Prop48
 90
       50
102
RTVSPost2010PropOp48
 70
     1
102
RTVSPost2010Prop49
280
     0
102
RTVSPost2010PropOp49
 70
     1
102
RTVSPost2010Prop50
 90
       50
102
RTVSPost2010PropOp50
 70
     1
102
RTVSPost2010Prop51ColorIndex
 90
      256
102
RTVSPost2010Prop51ColorRGB
 90
-16777216
102
RTVSPost2010PropOp51
 70
     0
102
RTVSPost2010Prop52
140
1.0
102
RTVSPost2010PropOp52
 70
     0
102
RTVSPost2010Prop53
 90
        2
102
RTVSPost2010PropOp53
 70
     1
102
RTVSPost2010Prop54
  1
strokes_ogs.tif
102
RTVSPost2010PropOp54
 70
     1
102
RTVSPost2010Prop55
280
     0
102
RTVSPost2010PropOp55
 70
     1
102
RTVSPost2010Prop56
140
1.0
102
RTVSPost2010PropOp56
 70
     1
102
RTVSPost2010Prop57
140
1.0
102
RTVSPost2010PropOp57
 70
     1
  0
XRECORD
  5
1C7
102
{ACAD_REACTORS
330
1C6
102
}
330
1C6
100
AcDbXrecord
280
     1
102
RTVSPost2010Prop28
280
     0
102
RTVSPost2010PropOp28
 70
     1
102
RTVSPost2010Prop29
280
     1
102
RTVSPost2010PropOp29
 70
     1
102
RTVSPost2010Prop30
280
     1
102
RTVSPost2010PropOp30
 70
     1
102
RTVSPost2010Prop31
280
     0
102
RTVSPost2010PropOp31
 70
     1
102
RTVSPost2010Prop32
280
     0
102
RTVSPost2010PropOp32
 70
     1
102
RTVSPost2010Prop33
280
     0
102
RTVSPost2010PropOp33
 70
     1
102
RTVSPost2010Prop34
280
     0
102
RTVSPost2010PropOp34
 70
     1
102
RTVSPost2010Prop35
280
     0
102
RTVSPost2010PropOp35
 70
     1
102
RTVSPost2010Prop36
280
     0
102
RTVSPost2010PropOp36
 70
     1
102
RTVSPost2010Prop37
 90
       50
102
RTVSPost2010PropOp37
 70
     1
102
RTVSPost2010Prop38
140
0.0
102
RTVSPost2010PropOp38
 70
     1
102
RTVSPost2010Prop39
140
1.0
102
RTVSPost2010PropOp39
 70
     1
102
RTVSPost2010Prop40
 90
        0
102
RTVSPost2010PropOp40
 70
     1
102
RTVSPost2010Prop41ColorIndex
 90
       18
102
RTVSPost2010Prop41ColorRGB
 90
        0
102
RTVSPost2010PropOp41
 70
     1
102
RTVSPost2010Prop42
 90
       50
102
RTVSPost2010PropOp42
 70
     1
102
RTVSPost2010Prop43
 90
        3
102
RTVSPost2010PropOp43
 70
     1
102
RTVSPost2010Prop44ColorIndex
 90
        5
102
RTVSPost2010Prop44ColorRGB
 90
      255
102
RTVSPost2010PropOp44
 70
     1
102
RTVSPost2010Prop45
280
     0
102
RTVSPost2010PropOp45
 70
     1
102
RTVSPost2010Prop46
 90
       50
102
RTVSPost2010PropOp46
 70
     1
102
RTVSPost2010Prop47
 90
       50
102
RTVSPost2010PropOp47
 70
     1
102
RTVSPost2010Prop48
 90
       50
102
RTVSPost2010PropOp48
 70
     1
102
RTVSPost2010Prop49
280
     0
102
RTVSPost2010PropOp49
 70
     1
102
RTVSPost2010Prop50
 90
       50
102
RTVSPost2010PropOp50
 70
     1
102
RTVSPost2010Prop51ColorIndex
 90
      256
102
RTVSPost2010Prop51ColorRGB
 90
-16777216
102
RTVSPost2010PropOp51
 70
     0
102
RTVSPost2010Prop52
140
1.0
102
RTVSPost2010PropOp52
 70
     0
102
RTVSPost2010Prop53
 90
        2
102
RTVSPost2010PropOp53
 70
     1
102
RTVSPost2010Prop54
  1
strokes_ogs.tif
102
RTVSPost2010PropOp54
 70
     1
102
RTVSPost2010Prop55
280
     0
102
RTVSPost2010PropOp55
 70
     1
102
RTVSPost2010Prop56
140
1.0
102
RTVSPost2010PropOp56
 70
     1
102
RTVSPost2010Prop57
140
1.0
102
RTVSPost2010PropOp57
 70
     1
  0
XRECORD
  5
1BB
102
{ACAD_REACTORS
330
1BA
102
}
330
1BA
100
AcDbXrecord
280
     1
102
RTVSPost2010Prop28
280
     0
102
RTVSPost2010PropOp28
 70
     1
102
RTVSPost2010Prop29
280
     1
102
RTVSPost2010PropOp29
 70
     1
102
RTVSPost2010Prop30
280
     1
102
RTVSPost2010PropOp30
 70
     1
102
RTVSPost2010Prop31
280
     0
102
RTVSPost2010PropOp31
 70
     1
102
RTVSPost2010Prop32
280
     0
102
RTVSPost2010PropOp32
 70
     1
102
RTVSPost2010Prop33
280
     0
102
RTVSPost2010PropOp33
 70
     1
102
RTVSPost2010Prop34
280
     0
102
RTVSPost2010PropOp34
 70
     1
102
RTVSPost2010Prop35
280
     0
102
RTVSPost2010PropOp35
 70
     1
102
RTVSPost2010Prop36
280
     0
102
RTVSPost2010PropOp36
 70
     1
102
RTVSPost2010Prop37
 90
       50
102
RTVSPost2010PropOp37
 70
     1
102
RTVSPost2010Prop38
140
0.0
102
RTVSPost2010PropOp38
 70
     1
102
RTVSPost2010Prop39
140
1.0
102
RTVSPost2010PropOp39
 70
     1
102
RTVSPost2010Prop40
 90
        0
102
RTVSPost2010PropOp40
 70
     1
102
RTVSPost2010Prop41ColorIndex
 90
       18
102
RTVSPost2010Prop41ColorRGB
 90
        0
102
RTVSPost2010PropOp41
 70
     1
102
RTVSPost2010Prop42
 90
       50
102
RTVSPost2010PropOp42
 70
     1
102
RTVSPost2010Prop43
 90
        3
102
RTVSPost2010PropOp43
 70
     1
102
RTVSPost2010Prop44ColorIndex
 90
        5
102
RTVSPost2010Prop44ColorRGB
 90
      255
102
RTVSPost2010PropOp44
 70
     1
102
RTVSPost2010Prop45
280
     0
102
RTVSPost2010PropOp45
 70
     1
102
RTVSPost2010Prop46
 90
       50
102
RTVSPost2010PropOp46
 70
     1
102
RTVSPost2010Prop47
 90
       50
102
RTVSPost2010PropOp47
 70
     1
102
RTVSPost2010Prop48
 90
       50
102
RTVSPost2010PropOp48
 70
     1
102
RTVSPost2010Prop49
280
     0
102
RTVSPost2010PropOp49
 70
     1
102
RTVSPost2010Prop50
 90
       50
102
RTVSPost2010PropOp50
 70
     1
102
RTVSPost2010Prop51ColorIndex
 90
      256
102
RTVSPost2010Prop51ColorRGB
 90
-16777216
102
RTVSPost2010PropOp51
 70
     0
102
RTVSPost2010Prop52
140
1.0
102
RTVSPost2010PropOp52
 70
     0
102
RTVSPost2010Prop53
 90
        2
102
RTVSPost2010PropOp53
 70
     1
102
RTVSPost2010Prop54
  1
strokes_ogs.tif
102
RTVSPost2010PropOp54
 70
     1
102
RTVSPost2010Prop55
280
     0
102
RTVSPost2010PropOp55
 70
     1
102
RTVSPost2010Prop56
140
1.0
102
RTVSPost2010PropOp56
 70
     1
102
RTVSPost2010Prop57
140
1.0
102
RTVSPost2010PropOp57
 70
     1
  0
XRECORD
  5
1D3
102
{ACAD_REACTORS
330
1D2
102
}
330
1D2
100
AcDbXrecord
280
     1
102
RTVSPost2010Prop28
280
     0
102
RTVSPost2010PropOp28
 70
     1
102
RTVSPost2010Prop29
280
     1
102
RTVSPost2010PropOp29
 70
     1
102
RTVSPost2010Prop30
280
     1
102
RTVSPost2010PropOp30
 70
     1
102
RTVSPost2010Prop31
280
     0
102
RTVSPost2010PropOp31
 70
     1
102
RTVSPost2010Prop32
280
     0
102
RTVSPost2010PropOp32
 70
     1
102
RTVSPost2010Prop33
280
     0
102
RTVSPost2010PropOp33
 70
     1
102
RTVSPost2010Prop34
280
     0
102
RTVSPost2010PropOp34
 70
     1
102
RTVSPost2010Prop35
280
     0
102
RTVSPost2010PropOp35
 70
     1
102
RTVSPost2010Prop36
280
     0
102
RTVSPost2010PropOp36
 70
     1
102
RTVSPost2010Prop37
 90
       50
102
RTVSPost2010PropOp37
 70
     1
102
RTVSPost2010Prop38
140
0.0
102
RTVSPost2010PropOp38
 70
     1
102
RTVSPost2010Prop39
140
1.0
102
RTVSPost2010PropOp39
 70
     1
102
RTVSPost2010Prop40
 90
        0
102
RTVSPost2010PropOp40
 70
     1
102
RTVSPost2010Prop41ColorIndex
 90
       18
102
RTVSPost2010Prop41ColorRGB
 90
        0
102
RTVSPost2010PropOp41
 70
     1
102
RTVSPost2010Prop42
 90
       50
102
RTVSPost2010PropOp42
 70
     1
102
RTVSPost2010Prop43
 90
        3
102
RTVSPost2010PropOp43
 70
     1
102
RTVSPost2010Prop44ColorIndex
 90
        5
102
RTVSPost2010Prop44ColorRGB
 90
      255
102
RTVSPost2010PropOp44
 70
     1
102
RTVSPost2010Prop45
280
     0
102
RTVSPost2010PropOp45
 70
     1
102
RTVSPost2010Prop46
 90
       50
102
RTVSPost2010PropOp46
 70
     1
102
RTVSPost2010Prop47
 90
       50
102
RTVSPost2010PropOp47
 70
     1
102
RTVSPost2010Prop48
 90
       50
102
RTVSPost2010PropOp48
 70
     1
102
RTVSPost2010Prop49
280
     0
102
RTVSPost2010PropOp49
 70
     1
102
RTVSPost2010Prop50
 90
       50
102
RTVSPost2010PropOp50
 70
     1
102
RTVSPost2010Prop51ColorIndex
 90
      256
102
RTVSPost2010Prop51ColorRGB
 90
-16777216
102
RTVSPost2010PropOp51
 70
     0
102
RTVSPost2010Prop52
140
1.0
102
RTVSPost2010PropOp52
 70
     0
102
RTVSPost2010Prop53
 90
        2
102
RTVSPost2010PropOp53
 70
     1
102
RTVSPost2010Prop54
  1
strokes_ogs.tif
102
RTVSPost2010PropOp54
 70
     1
102
RTVSPost2010Prop55
280
     0
102
RTVSPost2010PropOp55
 70
     1
102
RTVSPost2010Prop56
140
1.0
102
RTVSPost2010PropOp56
 70
     1
102
RTVSPost2010Prop57
140
1.0
102
RTVSPost2010PropOp57
 70
     1
  0
ENDSEC
  0
EOF
