  0
SECTION
  2
HEADER
  9
$ACADVER
  1
AC1024
  9
$ACADMAINTVER
 70
   205
  9
$DWGCODEPAGE
  3
ANSI_1251
  9
$INSBASE
 10
0.0
 20
0.0
 30
0.0
  9
$EXTMIN
 10
1.000000000000000E+20
 20
1.000000000000000E+20
 30
1.000000000000000E+20
  9
$EXTMAX
 10
-1.000000000000000E+20
 20
-1.000000000000000E+20
 30
-1.000000000000000E+20
  9
$LIMMIN
 10
0.0
 20
0.0
  9
$LIMMAX
 10
12.0
 20
9.0
  9
$ORTHOMODE
 70
     0
  9
$REGENMODE
 70
     1
  9
$FILLMODE
 70
     1
  9
$QTEXTMODE
 70
     0
  9
$MIRRTEXT
 70
     1
  9
$LTSCALE
 40
1.0
  9
$ATTMODE
 70
     1
  9
$TEXTSIZE
 40
0.2
  9
$TRACEWID
 40
0.05
  9
$TEXTSTYLE
  7
Standard
  9
$CLAYER
  8
OracDecor_cornice_mouldings
  9
$CELTYPE
  6
ByLayer
  9
$CECOLOR
 62
   256
  9
$CELTSCALE
 40
1.0
  9
$DISPSILH
 70
     0
  9
$DIMSCALE
 40
1.0
  9
$DIMASZ
 40
0.18
  9
$DIMEXO
 40
0.0625
  9
$DIMDLI
 40
0.38
  9
$DIMRND
 40
0.0
  9
$DIMDLE
 40
0.0
  9
$DIMEXE
 40
0.18
  9
$DIMTP
 40
0.0
  9
$DIMTM
 40
0.0
  9
$DIMTXT
 40
0.18
  9
$DIMCEN
 40
0.09
  9
$DIMTSZ
 40
0.0
  9
$DIMTOL
 70
     0
  9
$DIMLIM
 70
     0
  9
$DIMTIH
 70
     1
  9
$DIMTOH
 70
     1
  9
$DIMSE1
 70
     0
  9
$DIMSE2
 70
     0
  9
$DIMTAD
 70
     0
  9
$DIMZIN
 70
     0
  9
$DIMBLK
  1

  9
$DIMASO
 70
     1
  9
$DIMSHO
 70
     1
  9
$DIMPOST
  1

  9
$DIMAPOST
  1

  9
$DIMALT
 70
     0
  9
$DIMALTD
 70
     2
  9
$DIMALTF
 40
25.4
  9
$DIMLFAC
 40
1.0
  9
$DIMTOFL
 70
     0
  9
$DIMTVP
 40
0.0
  9
$DIMTIX
 70
     0
  9
$DIMSOXD
 70
     0
  9
$DIMSAH
 70
     0
  9
$DIMBLK1
  1

  9
$DIMBLK2
  1

  9
$DIMSTYLE
  2
Standard
  9
$DIMCLRD
 70
     0
  9
$DIMCLRE
 70
     0
  9
$DIMCLRT
 70
     0
  9
$DIMTFAC
 40
1.0
  9
$DIMGAP
 40
0.09
  9
$DIMJUST
 70
     0
  9
$DIMSD1
 70
     0
  9
$DIMSD2
 70
     0
  9
$DIMTOLJ
 70
     1
  9
$DIMTZIN
 70
     0
  9
$DIMALTZ
 70
     0
  9
$DIMALTTZ
 70
     0
  9
$DIMUPT
 70
     0
  9
$DIMDEC
 70
     4
  9
$DIMTDEC
 70
     4
  9
$DIMALTU
 70
     2
  9
$DIMALTTD
 70
     2
  9
$DIMTXSTY
  7
Standard
  9
$DIMAUNIT
 70
     0
  9
$DIMADEC
 70
     0
  9
$DIMALTRND
 40
0.0
  9
$DIMAZIN
 70
     0
  9
$DIMDSEP
 70
    46
  9
$DIMATFIT
 70
     3
  9
$DIMFRAC
 70
     0
  9
$DIMLDRBLK
  1

  9
$DIMLUNIT
 70
     2
  9
$DIMLWD
 70
    -2
  9
$DIMLWE
 70
    -2
  9
$DIMTMOVE
 70
     0
  9
$DIMFXL
 40
1.0
  9
$DIMFXLON
 70
     0
  9
$DIMJOGANG
 40
0.7853981633974483
  9
$DIMTFILL
 70
     0
  9
$DIMTFILLCLR
 70
     0
  9
$DIMARCSYM
 70
     0
  9
$DIMLTYPE
  6

  9
$DIMLTEX1
  6

  9
$DIMLTEX2
  6

  9
$DIMTXTDIRECTION
 70
     0
  9
$LUNITS
 70
     2
  9
$LUPREC
 70
     4
  9
$SKETCHINC
 40
0.1
  9
$FILLETRAD
 40
0.5
  9
$AUNITS
 70
     0
  9
$AUPREC
 70
     0
  9
$MENU
  1
.
  9
$ELEVATION
 40
0.0
  9
$PELEVATION
 40
0.0
  9
$THICKNESS
 40
0.0
  9
$LIMCHECK
 70
     0
  9
$CHAMFERA
 40
0.5
  9
$CHAMFERB
 40
0.5
  9
$CHAMFERC
 40
1.0
  9
$CHAMFERD
 40
0.0
  9
$SKPOLY
 70
     0
  9
$TDCREATE
 40
2451380.930432396
  9
$TDUCREATE
 40
2451380.805432396
  9
$TDUPDATE
 40
2451380.966180555
  9
$TDUUPDATE
 40
2451380.841180556
  9
$TDINDWG
 40
0.0075643403
  9
$TDUSRTIMER
 40
0.0075553009
  9
$USRTIMER
 70
     1
  9
$ANGBASE
 50
0.0
  9
$ANGDIR
 70
     0
  9
$PDMODE
 70
     0
  9
$PDSIZE
 40
0.0
  9
$PLINEWID
 40
0.0
  9
$SPLFRAME
 70
     0
  9
$SPLINETYPE
 70
     6
  9
$SPLINESEGS
 70
     8
  9
$HANDSEED
  5
1B4
  9
$SURFTAB1
 70
     6
  9
$SURFTAB2
 70
     6
  9
$SURFTYPE
 70
     6
  9
$SURFU
 70
     6
  9
$SURFV
 70
     6
  9
$UCSBASE
  2

  9
$UCSNAME
  2

  9
$UCSORG
 10
0.0
 20
0.0
 30
0.0
  9
$UCSXDIR
 10
1.0
 20
0.0
 30
0.0
  9
$UCSYDIR
 10
0.0
 20
1.0
 30
0.0
  9
$UCSORTHOREF
  2

  9
$UCSORTHOVIEW
 70
     0
  9
$UCSORGTOP
 10
0.0
 20
0.0
 30
0.0
  9
$UCSORGBOTTOM
 10
0.0
 20
0.0
 30
0.0
  9
$UCSORGLEFT
 10
0.0
 20
0.0
 30
0.0
  9
$UCSORGRIGHT
 10
0.0
 20
0.0
 30
0.0
  9
$UCSORGFRONT
 10
0.0
 20
0.0
 30
0.0
  9
$UCSORGBACK
 10
0.0
 20
0.0
 30
0.0
  9
$PUCSBASE
  2

  9
$PUCSNAME
  2

  9
$PUCSORG
 10
0.0
 20
0.0
 30
0.0
  9
$PUCSXDIR
 10
1.0
 20
0.0
 30
0.0
  9
$PUCSYDIR
 10
0.0
 20
1.0
 30
0.0
  9
$PUCSORTHOREF
  2

  9
$PUCSORTHOVIEW
 70
     0
  9
$PUCSORGTOP
 10
0.0
 20
0.0
 30
0.0
  9
$PUCSORGBOTTOM
 10
0.0
 20
0.0
 30
0.0
  9
$PUCSORGLEFT
 10
0.0
 20
0.0
 30
0.0
  9
$PUCSORGRIGHT
 10
0.0
 20
0.0
 30
0.0
  9
$PUCSORGFRONT
 10
0.0
 20
0.0
 30
0.0
  9
$PUCSORGBACK
 10
0.0
 20
0.0
 30
0.0
  9
$USERI1
 70
     0
  9
$USERI2
 70
     0
  9
$USERI3
 70
     0
  9
$USERI4
 70
     0
  9
$USERI5
 70
     0
  9
$USERR1
 40
0.0
  9
$USERR2
 40
0.0
  9
$USERR3
 40
0.0
  9
$USERR4
 40
0.0
  9
$USERR5
 40
0.0
  9
$WORLDVIEW
 70
     1
  9
$SHADEDGE
 70
     3
  9
$SHADEDIF
 70
    70
  9
$TILEMODE
 70
     1
  9
$MAXACTVP
 70
    64
  9
$PINSBASE
 10
0.0
 20
0.0
 30
0.0
  9
$PLIMCHECK
 70
     0
  9
$PEXTMIN
 10
1.000000000000000E+20
 20
1.000000000000000E+20
 30
1.000000000000000E+20
  9
$PEXTMAX
 10
-1.000000000000000E+20
 20
-1.000000000000000E+20
 30
-1.000000000000000E+20
  9
$PLIMMIN
 10
0.0
 20
0.0
  9
$PLIMMAX
 10
12.0
 20
9.0
  9
$UNITMODE
 70
     0
  9
$VISRETAIN
 70
     1
  9
$PLINEGEN
 70
     0
  9
$PSLTSCALE
 70
     1
  9
$TREEDEPTH
 70
  3020
  9
$CMLSTYLE
  2
Standard
  9
$CMLJUST
 70
     0
  9
$CMLSCALE
 40
1.0
  9
$PROXYGRAPHICS
 70
     1
  9
$MEASUREMENT
 70
     1
  9
$CELWEIGHT
370
    -1
  9
$ENDCAPS
280
     0
  9
$JOINSTYLE
280
     0
  9
$LWDISPLAY
290
     0
  9
$INSUNITS
 70
     4
  9
$HYPERLINKBASE
  1

  9
$STYLESHEET
  1

  9
$XEDIT
290
     1
  9
$CEPSNTYPE
380
     0
  9
$PSTYLEMODE
290
     1
  9
$FINGERPRINTGUID
  2
{12F50282-3ED8-11D3-A8B7-0060B0F84BC6}
  9
$VERSIONGUID
  2
{12F50293-3ED8-11D3-A8B7-0060B0F84BC6}
  9
$EXTNAMES
290
     1
  9
$PSVPSCALE
 40
0.0
  9
$OLESTARTUP
290
     0
  9
$SORTENTS
280
   127
  9
$INDEXCTL
280
     0
  9
$HIDETEXT
280
     0
  9
$XCLIPFRAME
280
     2
  9
$HALOGAP
280
     0
  9
$OBSCOLOR
 70
   257
  9
$OBSLTYPE
280
     0
  9
$INTERSECTIONDISPLAY
280
     0
  9
$INTERSECTIONCOLOR
 70
   257
  9
$DIMASSOC
280
     1
  9
$PROJECTNAME
  1

  9
$CAMERADISPLAY
290
     0
  9
$LENSLENGTH
 40
50.0
  9
$CAMERAHEIGHT
 40
0.0
  9
$STEPSPERSEC
 40
2.0
  9
$STEPSIZE
 40
6.0
  9
$3DDWFPREC
 40
2.0
  9
$PSOLWIDTH
 40
0.25
  9
$PSOLHEIGHT
 40
4.0
  9
$LOFTANG1
 40
1.570796326794896
  9
$LOFTANG2
 40
1.570796326794896
  9
$LOFTMAG1
 40
0.0
  9
$LOFTMAG2
 40
0.0
  9
$LOFTPARAM
 70
     7
  9
$LOFTNORMALS
280
     1
  9
$LATITUDE
 40
37.795
  9
$LONGITUDE
 40
-122.394
  9
$NORTHDIRECTION
 40
0.0
  9
$TIMEZONE
 70
 -8000
  9
$LIGHTGLYPHDISPLAY
280
     1
  9
$TILEMODELIGHTSYNCH
280
     1
  9
$CMATERIAL
347
AB
  9
$SOLIDHIST
280
     0
  9
$SHOWHIST
280
     1
  9
$DWFFRAME
280
     2
  9
$DGNFRAME
280
     0
  9
$REALWORLDSCALE
290
     1
  9
$INTERFERECOLOR
 62
     1
  9
$INTERFEREOBJVS
345
CD
  9
$INTERFEREVPVS
346
CA
  9
$CSHADOW
280
     0
  9
$SHADOWPLANELOCATION
 40
0.0
  0
ENDSEC
  0
SECTION
  2
CLASSES
  0
CLASS
  1
ACDBDICTIONARYWDFLT
  2
AcDbDictionaryWithDefault
  3
ObjectDBX Classes
 90
        0
 91
        1
280
     0
281
     0
  0
CLASS
  1
ACDBPLACEHOLDER
  2
AcDbPlaceHolder
  3
ObjectDBX Classes
 90
        0
 91
        2
280
     0
281
     0
  0
CLASS
  1
LAYOUT
  2
AcDbLayout
  3
ObjectDBX Classes
 90
        0
 91
        3
280
     0
281
     0
  0
CLASS
  1
MATERIAL
  2
AcDbMaterial
  3
ObjectDBX Classes
 90
     1153
 91
        3
280
     0
281
     0
  0
CLASS
  1
VISUALSTYLE
  2
AcDbVisualStyle
  3
ObjectDBX Classes
 90
     4095
 91
       24
280
     0
281
     0
  0
CLASS
  1
TABLESTYLE
  2
AcDbTableStyle
  3
ObjectDBX Classes
 90
     4095
 91
        1
280
     0
281
     0
  0
CLASS
  1
SCALE
  2
AcDbScale
  3
ObjectDBX Classes
 90
     1153
 91
       17
280
     0
281
     0
  0
CLASS
  1
MLEADERSTYLE
  2
AcDbMLeaderStyle
  3
ACDB_MLEADERSTYLE_CLASS
 90
     4095
 91
        1
280
     0
281
     0
  0
CLASS
  1
ACDBSECTIONVIEWSTYLE
  2
AcDbSectionViewStyle
  3
ObjectDBX Classes
 90
     1025
 91
        1
280
     0
281
     0
  0
CLASS
  1
ACDBDETAILVIEWSTYLE
  2
AcDbDetailViewStyle
  3
ObjectDBX Classes
 90
     1025
 91
        1
280
     0
281
     0
  0
CLASS
  1
MESH
  2
AcDbSubDMesh
  3
ObjectDBX Classes
 90
        0
 91
        1
280
     0
281
     1
  0
CLASS
  1
DICTIONARYVAR
  2
AcDbDictionaryVar
  3
ObjectDBX Classes
 90
        0
 91
        9
280
     0
281
     0
  0
CLASS
  1
CELLSTYLEMAP
  2
AcDbCellStyleMap
  3
ObjectDBX Classes
 90
     1152
 91
        1
280
     0
281
     0
  0
ENDSEC
  0
SECTION
  2
TABLES
  0
TABLE
  2
VPORT
  5
8
330
0
100
AcDbSymbolTable
 70
     1
  0
VPORT
  5
A8
330
8
100
AcDbSymbolTableRecord
100
AcDbViewportTableRecord
  2
*Active
 70
     0
 10
0.0
 20
0.0
 11
1.0
 21
1.0
 12
0.0000188817903108
 22
-49.91433334350586
 13
0.0
 23
0.0
 14
0.5
 24
0.5
 15
0.5
 25
0.5
 16
-1.0
 26
-1.0
 36
1.0
 17
0.0
 27
0.0
 37
0.0
 40
1232.993366212664
 41
1.560299154338347
 42
50.0
 43
0.0
 44
0.0
 50
0.0
 51
0.0
 71
     0
 72
   100
 73
     1
 74
     3
 75
     0
 76
     0
 77
     0
 78
     0
281
     0
 65
     1
110
0.0
120
0.0
130
0.0
111
1.0
121
0.0
131
0.0
112
0.0
122
1.0
132
0.0
 79
     0
146
0.0
348
C9
 60
     3
 61
     5
292
     1
282
     1
141
0.0
142
0.0
 63
   250
421
  3355443
  0
ENDTAB
  0
TABLE
  2
LTYPE
  5
5
330
0
100
AcDbSymbolTable
 70
     1
  0
LTYPE
  5
14
330
5
100
AcDbSymbolTableRecord
100
AcDbLinetypeTableRecord
  2
ByBlock
 70
     0
  3

 72
    65
 73
     0
 40
0.0
  0
LTYPE
  5
15
330
5
100
AcDbSymbolTableRecord
100
AcDbLinetypeTableRecord
  2
ByLayer
 70
     0
  3

 72
    65
 73
     0
 40
0.0
  0
LTYPE
  5
16
330
5
100
AcDbSymbolTableRecord
100
AcDbLinetypeTableRecord
  2
Continuous
 70
     0
  3
Solid line
 72
    65
 73
     0
 40
0.0
  0
ENDTAB
  0
TABLE
  2
LAYER
  5
2
330
0
100
AcDbSymbolTable
 70
     3
  0
LAYER
  5
10
330
2
100
AcDbSymbolTableRecord
100
AcDbLayerTableRecord
  2
0
 70
     0
 62
     7
  6
Continuous
370
    -3
390
F
347
BB
  0
LAYER
  5
2B
330
2
100
AcDbSymbolTableRecord
100
AcDbLayerTableRecord
  2
ASHADE
 70
     4
 62
     7
  6
Continuous
370
    -3
390
2D
347
BB
  0
LAYER
  5
F8
330
2
100
AcDbSymbolTableRecord
100
AcDbLayerTableRecord
  2
OracDecor_cornice_mouldings
 70
     0
 62
    41
420
 14997145
  6
Continuous
370
    -3
390
F
347
BB
  0
ENDTAB
  0
TABLE
  2
STYLE
  5
3
330
0
100
AcDbSymbolTable
 70
     2
  0
STYLE
  5
11
330
3
100
AcDbSymbolTableRecord
100
AcDbTextStyleTableRecord
  2
Standard
 70
     0
 40
0.0
 41
1.0
 50
0.0
 71
     0
 42
0.2
  3
txt
  4

  0
STYLE
  5
2C
330
3
100
AcDbSymbolTableRecord
100
AcDbTextStyleTableRecord
  2
ASHADE
 70
     0
 40
0.2
 41
1.0
 50
0.0
 71
     0
 42
0.2
  3
simplex
  4

  0
ENDTAB
  0
TABLE
  2
VIEW
  5
6
330
0
100
AcDbSymbolTable
 70
     0
  0
ENDTAB
  0
TABLE
  2
UCS
  5
7
330
0
100
AcDbSymbolTable
 70
     0
  0
ENDTAB
  0
TABLE
  2
APPID
  5
9
330
0
100
AcDbSymbolTable
 70
     6
  0
APPID
  5
12
330
9
100
AcDbSymbolTableRecord
100
AcDbRegAppTableRecord
  2
ACAD
 70
     0
  0
APPID
  5
8F
330
9
100
AcDbSymbolTableRecord
100
AcDbRegAppTableRecord
  2
AVE_RENDER
 70
     0
  0
APPID
  5
90
330
9
100
AcDbSymbolTableRecord
100
AcDbRegAppTableRecord
  2
AVE_ENTITY_MATERIAL
 70
     0
  0
APPID
  5
9C
330
9
100
AcDbSymbolTableRecord
100
AcDbRegAppTableRecord
  2
AVE_FINISH
 70
     0
  0
APPID
  5
9D
330
9
100
AcDbSymbolTableRecord
100
AcDbRegAppTableRecord
  2
AVE_MATERIAL
 70
     0
  0
APPID
  5
9E
330
9
100
AcDbSymbolTableRecord
100
AcDbRegAppTableRecord
  2
AVE_GLOBAL
 70
     0
  0
ENDTAB
  0
TABLE
  2
DIMSTYLE
  5
A
330
0
100
AcDbSymbolTable
 70
     1
100
AcDbDimStyleTable
 71
     0
  0
DIMSTYLE
105
27
330
A
100
AcDbSymbolTableRecord
100
AcDbDimStyleTableRecord
  2
Standard
 70
     0
340
11
  0
ENDTAB
  0
TABLE
  2
BLOCK_RECORD
  5
1
330
0
100
AcDbSymbolTable
 70
     6
  0
BLOCK_RECORD
  5
1F
330
1
100
AcDbSymbolTableRecord
100
AcDbBlockTableRecord
  2
*Model_Space
340
22
 70
     0
280
     1
281
     0
  0
BLOCK_RECORD
  5
1B
330
1
100
AcDbSymbolTableRecord
100
AcDbBlockTableRecord
  2
*Paper_Space
340
1E
 70
     0
280
     1
281
     0
  0
BLOCK_RECORD
  5
23
330
1
100
AcDbSymbolTableRecord
100
AcDbBlockTableRecord
  2
*Paper_Space0
340
26
 70
     0
280
     1
281
     0
  0
BLOCK_RECORD
  5
2E
330
1
100
AcDbSymbolTableRecord
100
AcDbBlockTableRecord
  2
direct
340
0
 70
     0
280
     1
281
     0
  0
BLOCK_RECORD
  5
42
330
1
100
AcDbSymbolTableRecord
100
AcDbBlockTableRecord
  2
overhead
340
0
 70
     0
280
     1
281
     0
  0
BLOCK_RECORD
  5
5F
330
1
100
AcDbSymbolTableRecord
100
AcDbBlockTableRecord
  2
sh_spot
340
0
 70
     0
280
     1
281
     0
  0
BLOCK_RECORD
  5
91
330
1
100
AcDbSymbolTableRecord
100
AcDbBlockTableRecord
  2
AVE_RENDER
340
0
102
{BLKREFS
331
94
331
95
331
96
331
97
331
98
331
99
331
9A
331
9B
102
}
 70
     0
280
     1
281
     0
  0
BLOCK_RECORD
  5
9F
330
1
100
AcDbSymbolTableRecord
100
AcDbBlockTableRecord
  2
AVE_GLOBAL
340
0
102
{BLKREFS
331
A2
102
}
 70
     0
280
     1
281
     0
  0
ENDTAB
  0
ENDSEC
  0
SECTION
  2
BLOCKS
  0
BLOCK
  5
20
330
1F
100
AcDbEntity
  8
0
100
AcDbBlockBegin
  2
*Model_Space
 70
     0
 10
0.0
 20
0.0
 30
0.0
  3
*Model_Space
  1

  0
ENDBLK
  5
21
330
1F
100
AcDbEntity
  8
0
100
AcDbBlockEnd
  0
BLOCK
  5
1C
330
1B
100
AcDbEntity
 67
     1
  8
0
100
AcDbBlockBegin
  2
*Paper_Space
 70
     0
 10
0.0
 20
0.0
 30
0.0
  3
*Paper_Space
  1

  0
ENDBLK
  5
1D
330
1B
100
AcDbEntity
 67
     1
  8
0
100
AcDbBlockEnd
  0
BLOCK
  5
24
330
23
100
AcDbEntity
 67
     1
  8
0
100
AcDbBlockBegin
  2
*Paper_Space0
 70
     0
 10
0.0
 20
0.0
 30
0.0
  3
*Paper_Space0
  1

  0
ENDBLK
  5
25
330
23
100
AcDbEntity
 67
     1
  8
0
100
AcDbBlockEnd
  0
BLOCK
  5
40
330
2E
100
AcDbEntity
  8
0
100
AcDbBlockBegin
  2
direct
 70
     2
 10
0.0
 20
0.0
 30
0.0
  3
direct
  1

  0
ATTDEF
  5
2F
330
2E
100
AcDbEntity
  8
ASHADE
  6
Continuous
 62
     1
100
AcDbText
 10
0.0
 20
-0.1
 30
0.0
 40
0.2
  1

  7
ASHADE
 72
     1
 11
0.0
 21
-0.1
 31
0.0
100
AcDbAttributeDefinition
280
     0
  3
Light Name
  2
SNAME
 70
     0
280
     0
  0
ARC
  5
30
330
2E
100
AcDbEntity
  8
ASHADE
  6
Continuous
 62
     7
100
AcDbCircle
 10
0.0
 20
0.0
 30
0.0
 40
0.3
100
AcDbArc
 50
205.6792886194569
 51
334.3207113805431
  0
ARC
  5
31
330
2E
100
AcDbEntity
  8
ASHADE
  6
Continuous
 62
     7
100
AcDbCircle
 10
0.0
 20
0.0
 30
0.0
 40
0.3
100
AcDbArc
 50
25.67928861945685
 51
154.3207113805431
  0
LINE
  5
32
330
2E
100
AcDbEntity
  8
ASHADE
  6
Continuous
 62
     7
100
AcDbLine
 10
-0.21
 20
0.2142428528562855
 30
0.0
 11
-0.21
 21
0.5
 31
0.0
  0
LINE
  5
33
330
2E
100
AcDbEntity
  8
ASHADE
  6
Continuous
 62
     7
100
AcDbLine
 10
-0.11
 20
0.2791057147390572
 30
0.0
 11
-0.11
 21
0.5
 31
0.0
  0
LINE
  5
34
330
2E
100
AcDbEntity
  8
ASHADE
  6
Continuous
 62
     7
100
AcDbLine
 10
0.21
 20
0.2142428528562855
 30
0.0
 11
0.21
 21
0.5
 31
0.0
  0
ATTDEF
  5
35
330
2E
100
AcDbEntity
  8
ASHADE
  6
Continuous
 62
     7
100
AcDbText
 10
0.0
 20
0.25
 30
0.0
 40
0.01
  1

100
AcDbAttributeDefinition
280
     0
  3
Look-at Y
  2
LAY
 70
     1
280
     0
  0
ATTDEF
  5
36
330
2E
100
AcDbEntity
  8
ASHADE
  6
Continuous
 62
     7
100
AcDbText
 10
0.0
 20
0.22
 30
0.0
 40
0.01
  1
1
100
AcDbAttributeDefinition
280
     0
  3
Light Intensity
  2
INTENSITY
 70
     1
280
     0
  0
ATTDEF
  5
37
330
2E
100
AcDbEntity
  8
ASHADE
  6
Continuous
 62
     7
100
AcDbText
 10
0.0
 20
0.16
 30
0.0
 40
0.01
  1
-1
100
AcDbAttributeDefinition
280
     0
  3
*not used*
  2
BEAMD
 70
     1
280
     0
  0
ATTDEF
  5
38
330
2E
100
AcDbEntity
  8
ASHADE
  6
Continuous
 62
     7
100
AcDbText
 10
0.0
 20
0.175
 30
0.0
 40
0.01
  1
-1
100
AcDbAttributeDefinition
280
     0
  3
*not used*
  2
CONED
 70
     1
280
     0
  0
ATTDEF
  5
39
330
2E
100
AcDbEntity
  8
ASHADE
  6
Continuous
 62
     7
100
AcDbText
 10
0.0
 20
0.19
 30
0.0
 40
0.01
  1
0
100
AcDbAttributeDefinition
280
     0
  3
Depth Map Size
  2
CONEA
 70
     1
280
     0
  0
ATTDEF
  5
3A
330
2E
100
AcDbEntity
  8
ASHADE
  6
Continuous
 62
     7
100
AcDbText
 10
0.0
 20
0.2050000000000001
 30
0.0
 40
0.01
  1
1,1,1
100
AcDbAttributeDefinition
280
     0
  3
Light Color (RGB)
  2
COLOR
 70
     1
280
     0
  0
ATTDEF
  5
3B
330
2E
100
AcDbEntity
  8
ASHADE
  6
Continuous
 62
     7
100
AcDbText
 10
0.0
 20
0.235
 30
0.0
 40
0.01
  1

100
AcDbAttributeDefinition
280
     0
  3
Look-at Z
  2
LAZ
 70
     1
280
     0
  0
LINE
  5
3C
330
2E
100
AcDbEntity
  8
ASHADE
  6
Continuous
 62
     7
100
AcDbLine
 10
0.0
 20
0.3
 30
0.0
 11
0.0
 21
0.5
 31
0.0
  0
LINE
  5
3D
330
2E
100
AcDbEntity
  8
ASHADE
  6
Continuous
 62
     7
100
AcDbLine
 10
0.11
 20
0.2791057147390572
 30
0.0
 11
0.11
 21
0.5
 31
0.0
  0
ATTDEF
  5
3E
330
2E
100
AcDbEntity
  8
ASHADE
  6
Continuous
 62
     7
100
AcDbText
 10
0.0
 20
0.265
 30
0.0
 40
0.01
  1

100
AcDbAttributeDefinition
280
     0
  3
Look-at X
  2
LAX
 70
     1
280
     0
  0
ATTDEF
  5
3F
330
2E
100
AcDbEntity
  8
ASHADE
  6
Continuous
 62
     7
100
AcDbText
 10
0.0
 20
0.28
 30
0.0
 40
0.01
  1

100
AcDbAttributeDefinition
280
     0
  3

  2
GNAME
 70
     1
280
     0
  0
ENDBLK
  5
41
330
2E
100
AcDbEntity
  8
0
100
AcDbBlockEnd
  0
BLOCK
  5
5D
330
42
100
AcDbEntity
  8
0
100
AcDbBlockBegin
  2
overhead
 70
     2
 10
0.0
 20
0.0
 30
0.0
  3
overhead
  1

  0
ATTDEF
  5
43
330
42
100
AcDbEntity
  8
ASHADE
  6
Continuous
 62
     1
100
AcDbText
 10
0.0
 20
-0.1
 30
0.0
 40
0.2
  1

  7
ASHADE
 72
     1
 11
0.0
 21
-0.1
 31
0.0
100
AcDbAttributeDefinition
280
     0
  3
Light Name
  2
SNAME
 70
     0
280
     0
  0
ARC
  5
44
330
42
100
AcDbEntity
  8
ASHADE
  6
Continuous
 62
     7
100
AcDbCircle
 10
0.0
 20
0.0
 30
0.0
 40
0.3
100
AcDbArc
 50
205.6792886194569
 51
334.3207113805431
  0
LINE
  5
45
330
42
100
AcDbEntity
  8
ASHADE
  6
Continuous
 62
     7
100
AcDbLine
 10
-0.2041413561583015
 20
-0.2198324514393848
 30
0.0
 11
-0.2721884748777353
 21
-0.2931099352525131
 31
0.0
  0
LINE
  5
46
330
42
100
AcDbEntity
  8
ASHADE
  6
Continuous
 62
     7
100
AcDbLine
 10
-0.1096591641591904
 20
-0.2792398032442862
 30
0.0
 11
-0.1279356915190555
 21
-0.3257797704516673
 31
0.0
  0
LINE
  5
47
330
42
100
AcDbEntity
  8
ASHADE
  6
Continuous
 62
     7
100
AcDbLine
 10
0.0
 20
-0.2999999999999999
 30
0.0
 11
0.0
 21
-0.4
 31
0.0
  0
LINE
  5
48
330
42
100
AcDbEntity
  8
ASHADE
  6
Continuous
 62
     7
100
AcDbLine
 10
0.1096591641591904
 20
-0.2792398032442862
 30
0.0
 11
0.1279356915190555
 21
-0.3257797704516673
 31
0.0
  0
LINE
  5
49
330
42
100
AcDbEntity
  8
ASHADE
  6
Continuous
 62
     7
100
AcDbLine
 10
0.2041413561583015
 20
-0.2198324514393848
 30
0.0
 11
0.2721884748777353
 21
-0.2931099352525131
 31
0.0
  0
ARC
  5
4A
330
42
100
AcDbEntity
  8
ASHADE
  6
Continuous
 62
     7
100
AcDbCircle
 10
0.0
 20
0.0
 30
0.0
 40
0.3
100
AcDbArc
 50
25.67928861945685
 51
154.3207113805431
  0
LINE
  5
4B
330
42
100
AcDbEntity
  8
ASHADE
  6
Continuous
 62
     7
100
AcDbLine
 10
-0.2703701166919155
 20
0.13
 30
0.0
 11
-0.3154318028072347
 21
0.1516666666666666
 31
0.0
  0
LINE
  5
4C
330
42
100
AcDbEntity
  8
ASHADE
  6
Continuous
 62
     7
100
AcDbLine
 10
-0.2703701166919155
 20
-0.13
 30
0.0
 11
-0.3154318028072347
 21
-0.1516666666666666
 31
0.0
  0
LINE
  5
4D
330
42
100
AcDbEntity
  8
ASHADE
  6
Continuous
 62
     7
100
AcDbLine
 10
-0.2041413561583015
 20
0.2198324514393849
 30
0.0
 11
-0.2721884748777353
 21
0.2931099352525131
 31
0.0
  0
LINE
  5
4E
330
42
100
AcDbEntity
  8
ASHADE
  6
Continuous
 62
     7
100
AcDbLine
 10
-0.1096591641591904
 20
0.2792398032442862
 30
0.0
 11
-0.1279356915190555
 21
0.3257797704516674
 31
0.0
  0
LINE
  5
4F
330
42
100
AcDbEntity
  8
ASHADE
  6
Continuous
 62
     7
100
AcDbLine
 10
0.2703701166919155
 20
-0.13
 30
0.0
 11
0.3154318028072347
 21
-0.1516666666666666
 31
0.0
  0
LINE
  5
50
330
42
100
AcDbEntity
  8
ASHADE
  6
Continuous
 62
     7
100
AcDbLine
 10
0.2703701166919155
 20
0.13
 30
0.0
 11
0.3154318028072347
 21
0.1516666666666666
 31
0.0
  0
LINE
  5
51
330
42
100
AcDbEntity
  8
ASHADE
  6
Continuous
 62
     7
100
AcDbLine
 10
0.0
 20
0.3
 30
0.0
 11
0.0
 21
0.4
 31
0.0
  0
ATTDEF
  5
52
330
42
100
AcDbEntity
  8
ASHADE
  6
Continuous
 62
     7
100
AcDbText
 10
0.0
 20
0.22
 30
0.0
 40
0.01
  1
1
100
AcDbAttributeDefinition
280
     0
  3
Light Intensity
  2
INTENSITY
 70
     1
280
     0
  0
ATTDEF
  5
53
330
42
100
AcDbEntity
  8
ASHADE
  6
Continuous
 62
     7
100
AcDbText
 10
0.0
 20
0.16
 30
0.0
 40
0.01
  1
-1
100
AcDbAttributeDefinition
280
     0
  3
*not used*
  2
BEAMD
 70
     1
280
     0
  0
ATTDEF
  5
54
330
42
100
AcDbEntity
  8
ASHADE
  6
Continuous
 62
     7
100
AcDbText
 10
0.0
 20
0.175
 30
0.0
 40
0.01
  1
-1
100
AcDbAttributeDefinition
280
     0
  3
*not used*
  2
CONED
 70
     1
280
     0
  0
ATTDEF
  5
55
330
42
100
AcDbEntity
  8
ASHADE
  6
Continuous
 62
     7
100
AcDbText
 10
0.0
 20
0.19
 30
0.0
 40
0.01
  1
0
100
AcDbAttributeDefinition
280
     0
  3
Depth Map Size
  2
CONEA
 70
     1
280
     0
  0
ATTDEF
  5
56
330
42
100
AcDbEntity
  8
ASHADE
  6
Continuous
 62
     7
100
AcDbText
 10
0.0
 20
0.2050000000000001
 30
0.0
 40
0.01
  1
1,1,1
100
AcDbAttributeDefinition
280
     0
  3
Light Color (RGB)
  2
COLOR
 70
     1
280
     0
  0
ATTDEF
  5
57
330
42
100
AcDbEntity
  8
ASHADE
  6
Continuous
 62
     7
100
AcDbText
 10
0.0
 20
0.235
 30
0.0
 40
0.01
  1

100
AcDbAttributeDefinition
280
     0
  3
Look-at Z
  2
LAZ
 70
     1
280
     0
  0
ATTDEF
  5
58
330
42
100
AcDbEntity
  8
ASHADE
  6
Continuous
 62
     7
100
AcDbText
 10
0.0
 20
0.25
 30
0.0
 40
0.01
  1

100
AcDbAttributeDefinition
280
     0
  3
Look-at Y
  2
LAY
 70
     1
280
     0
  0
ATTDEF
  5
59
330
42
100
AcDbEntity
  8
ASHADE
  6
Continuous
 62
     7
100
AcDbText
 10
0.0
 20
0.265
 30
0.0
 40
0.01
  1

100
AcDbAttributeDefinition
280
     0
  3
Look-at X
  2
LAX
 70
     1
280
     0
  0
ATTDEF
  5
5A
330
42
100
AcDbEntity
  8
ASHADE
  6
Continuous
 62
     7
100
AcDbText
 10
0.0
 20
0.28
 30
0.0
 40
0.01
  1

100
AcDbAttributeDefinition
280
     0
  3

  2
GNAME
 70
     1
280
     0
  0
LINE
  5
5B
330
42
100
AcDbEntity
  8
ASHADE
  6
Continuous
 62
     7
100
AcDbLine
 10
0.1096591641591904
 20
0.2792398032442862
 30
0.0
 11
0.1279356915190555
 21
0.3257797704516674
 31
0.0
  0
LINE
  5
5C
330
42
100
AcDbEntity
  8
ASHADE
  6
Continuous
 62
     7
100
AcDbLine
 10
0.2041413561583015
 20
0.2198324514393849
 30
0.0
 11
0.2721884748777353
 21
0.2931099352525131
 31
0.0
  0
ENDBLK
  5
5E
330
42
100
AcDbEntity
  8
0
100
AcDbBlockEnd
  0
BLOCK
  5
85
330
5F
100
AcDbEntity
  8
0
100
AcDbBlockBegin
  2
sh_spot
 70
     2
 10
0.0
 20
0.0
 30
0.0
  3
sh_spot
  1

  0
LINE
  5
60
330
5F
100
AcDbEntity
  8
ASHADE
  6
Continuous
 62
     7
100
AcDbLine
 10
0.25
 20
0.26
 30
0.0
 11
-0.25
 21
0.26
 31
0.0
  0
LINE
  5
61
330
5F
100
AcDbEntity
  8
ASHADE
  6
Continuous
 62
     7
100
AcDbLine
 10
-0.25
 20
-0.3399999999999999
 30
0.0
 11
0.25
 21
-0.3399999999999999
 31
0.0
  0
ATTDEF
  5
62
330
5F
100
AcDbEntity
  8
ASHADE
  6
Continuous
 62
     1
100
AcDbText
 10
0.0
 20
-0.1
 30
0.0
 40
0.2
  1

  7
ASHADE
 72
     1
 11
0.0
 21
-0.1
 31
0.0
100
AcDbAttributeDefinition
280
     0
  3
Light Name
  2
SNAME
 70
     0
280
     0
  0
LINE
  5
63
330
5F
100
AcDbEntity
  8
ASHADE
  6
Continuous
 62
     7
100
AcDbLine
 10
-0.25
 20
-0.13
 30
0.0
 11
-0.25
 21
-0.3399999999999999
 31
0.0
  0
LINE
  5
64
330
5F
100
AcDbEntity
  8
ASHADE
  6
Continuous
 62
     7
100
AcDbLine
 10
-0.25
 20
-0.18
 30
0.0
 11
-0.29
 21
-0.18
 31
0.0
  0
LINE
  5
65
330
5F
100
AcDbEntity
  8
ASHADE
  6
Continuous
 62
     7
100
AcDbLine
 10
-0.29
 20
-0.22
 30
0.0
 11
-0.25
 21
-0.22
 31
0.0
  0
LINE
  5
66
330
5F
100
AcDbEntity
  8
ASHADE
  6
Continuous
 62
     7
100
AcDbLine
 10
-0.29
 20
-0.18
 30
0.0
 11
-0.29
 21
-0.22
 31
0.0
  0
LINE
  5
67
330
5F
100
AcDbEntity
  8
ASHADE
  6
Continuous
 62
     7
100
AcDbLine
 10
-0.1045454545454545
 20
0.26
 30
0.0
 11
-0.15
 21
0.46
 31
0.0
  0
LINE
  5
68
330
5F
100
AcDbEntity
  8
ASHADE
  6
Continuous
 62
     7
100
AcDbLine
 10
-0.21
 20
0.26
 30
0.0
 11
-0.301304347826087
 21
0.46
 31
0.0
  0
LINE
  5
69
330
5F
100
AcDbEntity
  8
ASHADE
  6
Continuous
 62
     7
100
AcDbLine
 10
-0.25
 20
0.26
 30
0.0
 11
-0.25
 21
0.13
 31
0.0
  0
LINE
  5
6A
330
5F
100
AcDbEntity
  8
ASHADE
  6
Continuous
 62
     7
100
AcDbLine
 10
-0.25
 20
0.22
 30
0.0
 11
-0.29
 21
0.22
 31
0.0
  0
LINE
  5
6B
330
5F
100
AcDbEntity
  8
ASHADE
  6
Continuous
 62
     7
100
AcDbLine
 10
-0.29
 20
0.1799999999999999
 30
0.0
 11
-0.25
 21
0.1799999999999999
 31
0.0
  0
LINE
  5
6C
330
5F
100
AcDbEntity
  8
ASHADE
  6
Continuous
 62
     7
100
AcDbLine
 10
-0.29
 20
0.22
 30
0.0
 11
-0.29
 21
0.1799999999999999
 31
0.0
  0
ATTDEF
  5
6D
330
5F
100
AcDbEntity
  8
ASHADE
  6
Continuous
 62
     7
100
AcDbText
 10
0.0
 20
-0.24
 30
0.0
 40
0.01
  1
0
100
AcDbAttributeDefinition
280
     0
  3
Depth Map Size
  2
ZSIZE
 70
     1
280
     0
  0
ATTDEF
  5
6E
330
5F
100
AcDbEntity
  8
ASHADE
  6
Continuous
 62
     7
100
AcDbText
 10
0.0
 20
-0.3300000000000001
 30
0.0
 40
0.01
  1
0,0,0
100
AcDbAttributeDefinition
280
     0
  3
Look-from XYZ
  2
LFXYZ
 70
     1
280
     0
  0
ATTDEF
  5
6F
330
5F
100
AcDbEntity
  8
ASHADE
  6
Continuous
 62
     7
100
AcDbText
 10
0.0
 20
-0.315
 30
0.0
 40
0.01
  1
0.0
100
AcDbAttributeDefinition
280
     0
  3
Beam Distribution
  2
BEAMDI
 70
     1
280
     0
  0
ATTDEF
  5
70
330
5F
100
AcDbEntity
  8
ASHADE
  6
Continuous
 62
     7
100
AcDbText
 10
0.0
 20
-0.3
 30
0.0
 40
0.01
  1
0.0
100
AcDbAttributeDefinition
280
     0
  3
Cone Delta
  2
CONEDE
 70
     1
280
     0
  0
ATTDEF
  5
71
330
5F
100
AcDbEntity
  8
ASHADE
  6
Continuous
 62
     7
100
AcDbText
 10
0.0
 20
-0.2850000000000001
 30
0.0
 40
0.01
  1
10.0
100
AcDbAttributeDefinition
280
     0
  3
Cone Angle
  2
CONEAN
 70
     1
280
     0
  0
ATTDEF
  5
72
330
5F
100
AcDbEntity
  8
ASHADE
  6
Continuous
 62
     7
100
AcDbText
 10
0.0
 20
-0.27
 30
0.0
 40
0.01
  1
-1
100
AcDbAttributeDefinition
280
     0
  3
*not used*
  2
BIASMAX
 70
     1
280
     0
  0
ATTDEF
  5
73
330
5F
100
AcDbEntity
  8
ASHADE
  6
Continuous
 62
     7
100
AcDbText
 10
0.0
 20
-0.255
 30
0.0
 40
0.01
  1
-1
100
AcDbAttributeDefinition
280
     0
  3
*not used*
  2
BIASMIN
 70
     1
280
     0
  0
ATTDEF
  5
74
330
5F
100
AcDbEntity
  8
ASHADE
  6
Continuous
 62
     7
100
AcDbText
 10
0.0
 20
-0.225
 30
0.0
 40
0.01
  1
1,1,1
100
AcDbAttributeDefinition
280
     0
  3
Light Color (RGB)
  2
COLOR
 70
     1
280
     0
  0
ATTDEF
  5
75
330
5F
100
AcDbEntity
  8
ASHADE
  6
Continuous
 62
     7
100
AcDbText
 10
0.0
 20
-0.21
 30
0.0
 40
0.01
  1
1
100
AcDbAttributeDefinition
280
     0
  3
Light Intensity
  2
INTENSITY
 70
     1
280
     0
  0
ATTDEF
  5
76
330
5F
100
AcDbEntity
  8
ASHADE
  6
Continuous
 62
     7
100
AcDbText
 10
0.0
 20
-0.15
 30
0.0
 40
0.01
  1

100
AcDbAttributeDefinition
280
     0
  3

  2
GNAME
 70
     1
280
     0
  0
ATTDEF
  5
77
330
5F
100
AcDbEntity
  8
ASHADE
  6
Continuous
 62
     7
100
AcDbText
 10
0.0
 20
-0.195
 30
0.0
 40
0.01
  1

100
AcDbAttributeDefinition
280
     0
  3
Look-at Z
  2
LAZ
 70
     1
280
     0
  0
ATTDEF
  5
78
330
5F
100
AcDbEntity
  8
ASHADE
  6
Continuous
 62
     7
100
AcDbText
 10
0.0
 20
-0.18
 30
0.0
 40
0.01
  1

100
AcDbAttributeDefinition
280
     0
  3
Look-at Y
  2
LAY
 70
     1
280
     0
  0
ATTDEF
  5
79
330
5F
100
AcDbEntity
  8
ASHADE
  6
Continuous
 62
     7
100
AcDbText
 10
0.0
 20
-0.165
 30
0.0
 40
0.01
  1

100
AcDbAttributeDefinition
280
     0
  3
Look-at X
  2
LAX
 70
     1
280
     0
  0
LINE
  5
7A
330
5F
100
AcDbEntity
  8
ASHADE
  6
Continuous
 62
     7
100
AcDbLine
 10
0.25
 20
-0.3399999999999999
 30
0.0
 11
0.25
 21
-0.13
 31
0.0
  0
LINE
  5
7B
330
5F
100
AcDbEntity
  8
ASHADE
  6
Continuous
 62
     7
100
AcDbLine
 10
0.25
 20
-0.18
 30
0.0
 11
0.29
 21
-0.18
 31
0.0
  0
LINE
  5
7C
330
5F
100
AcDbEntity
  8
ASHADE
  6
Continuous
 62
     7
100
AcDbLine
 10
0.29
 20
-0.22
 30
0.0
 11
0.25
 21
-0.22
 31
0.0
  0
LINE
  5
7D
330
5F
100
AcDbEntity
  8
ASHADE
  6
Continuous
 62
     7
100
AcDbLine
 10
0.29
 20
-0.18
 30
0.0
 11
0.29
 21
-0.22
 31
0.0
  0
LINE
  5
7E
330
5F
100
AcDbEntity
  8
ASHADE
  6
Continuous
 62
     7
100
AcDbLine
 10
0.21
 20
0.26
 30
0.0
 11
0.301304347826087
 21
0.46
 31
0.0
  0
LINE
  5
7F
330
5F
100
AcDbEntity
  8
ASHADE
  6
Continuous
 62
     7
100
AcDbLine
 10
0.1045454545454545
 20
0.26
 30
0.0
 11
0.15
 21
0.46
 31
0.0
  0
LINE
  5
80
330
5F
100
AcDbEntity
  8
ASHADE
  6
Continuous
 62
     7
100
AcDbLine
 10
0.0
 20
0.26
 30
0.0
 11
0.0
 21
0.46
 31
0.0
  0
LINE
  5
81
330
5F
100
AcDbEntity
  8
ASHADE
  6
Continuous
 62
     7
100
AcDbLine
 10
0.25
 20
0.13
 30
0.0
 11
0.25
 21
0.26
 31
0.0
  0
LINE
  5
82
330
5F
100
AcDbEntity
  8
ASHADE
  6
Continuous
 62
     7
100
AcDbLine
 10
0.25
 20
0.22
 30
0.0
 11
0.29
 21
0.22
 31
0.0
  0
LINE
  5
83
330
5F
100
AcDbEntity
  8
ASHADE
  6
Continuous
 62
     7
100
AcDbLine
 10
0.29
 20
0.1799999999999999
 30
0.0
 11
0.25
 21
0.1799999999999999
 31
0.0
  0
LINE
  5
84
330
5F
100
AcDbEntity
  8
ASHADE
  6
Continuous
 62
     7
100
AcDbLine
 10
0.29
 20
0.22
 30
0.0
 11
0.29
 21
0.1799999999999999
 31
0.0
  0
ENDBLK
  5
86
330
5F
100
AcDbEntity
  8
0
100
AcDbBlockEnd
  0
BLOCK
  5
92
330
91
100
AcDbEntity
  8
ASHADE
100
AcDbBlockBegin
  2
AVE_RENDER
 70
     0
 10
0.0
 20
0.0
 30
0.0
  3
AVE_RENDER
  1
AVE_RENDER
  0
ENDBLK
  5
93
330
91
100
AcDbEntity
  8
0
100
AcDbBlockEnd
  0
BLOCK
  5
A0
330
9F
100
AcDbEntity
  8
ASHADE
100
AcDbBlockBegin
  2
AVE_GLOBAL
 70
     0
 10
0.0
 20
0.0
 30
0.0
  3
AVE_GLOBAL
  1
AVE_GLOBAL
  0
ENDBLK
  5
A1
330
9F
100
AcDbEntity
  8
0
100
AcDbBlockEnd
  0
ENDSEC
  0
SECTION
  2
ENTITIES
  0
INSERT
  5
94
330
1F
100
AcDbEntity
  8
ASHADE
 62
     1
100
AcDbBlockReference
  2
AVE_RENDER
 10
0.0
 20
0.0
 30
0.0
1001
AVE_RENDER
1002
{
1070
     7
1000
Pref
1070
    30
1070
    20
1070
     1
1070
     0
1000

1070
    10
1070
     1
1070
    10
1040
1.0
1070
     1
1040
0.3
1040
0.7
1040
0.0
1040
10.0
1010
-1.0
1020
-1.0
1030
-1.0
1040
0.3
1070
    49
1070
     0
1070
     0
1010
1.0
1020
1.0
1030
1.0
1040
45.0
1070
     1
1070
     0
1000
WCS
1040
0.0
1070
     0
1040
10.0
1002
}
  0
INSERT
  5
95
330
1F
100
AcDbEntity
  8
ASHADE
 62
     3
100
AcDbBlockReference
  2
AVE_RENDER
 10
0.0
 20
0.0
 30
0.0
1001
AVE_RENDER
1002
{
1070
     0
1000
Full Opt
1070
     0
1070
     1
1070
     1
1070
     1
1070
     0
1070
     0
1070
     0
1070
     1
1070
     1
1040
0.0001
1040
0.0001
1002
}
  0
INSERT
  5
96
330
1F
100
AcDbEntity
  8
ASHADE
 62
     4
100
AcDbBlockReference
  2
AVE_RENDER
 10
0.0
 20
0.0
 30
0.0
1001
AVE_RENDER
1002
{
1070
     0
1000
Quick Opt
1070
     0
1070
     1
1070
     1
1070
     1
1070
     0
1070
     0
1070
     1
1002
}
  0
INSERT
  5
97
330
1F
100
AcDbEntity
  8
ASHADE
 62
     5
100
AcDbBlockReference
  2
AVE_RENDER
 10
0.0
 20
0.0
 30
0.0
1001
AVE_RENDER
1002
{
1070
     1
1000
Scanl Opt
1070
     2
1070
     0
1070
     2
1040
2.0
1040
4.0
1070
     0
1070
     1
1070
     0
1040
0.03
1002
}
  0
INSERT
  5
98
330
1F
100
AcDbEntity
  8
ASHADE
 62
     6
100
AcDbBlockReference
  2
AVE_RENDER
 10
0.0
 20
0.0
 30
0.0
1001
AVE_RENDER
1002
{
1070
     2
1000
Raytr Opt
1070
     2
1070
     0
1070
     2
1040
2.0
1040
4.0
1070
     0
1070
     1
1070
     1
1040
0.03
1070
     3
1040
0.03
1002
}
  0
INSERT
  5
99
330
1F
100
AcDbEntity
  8
ASHADE
 62
     7
100
AcDbBlockReference
  2
AVE_RENDER
 10
0.0
 20
0.0
 30
0.0
1001
AVE_RENDER
1002
{
1070
     0
1000
RFile Opt
1070
     1
1070
   640
1070
   480
1070
 10000
1070
     1
1070
     8
1070
     8
1070
     0
1070
     0
1070
     0
1070
     0
1070
     0
1070
     0
1070
     0
1002
}
  0
INSERT
  5
9A
330
1F
100
AcDbEntity
  8
ASHADE
 62
     8
100
AcDbBlockReference
  2
AVE_RENDER
 10
0.0
 20
0.0
 30
0.0
1001
AVE_RENDER
1002
{
1070
     0
1000
Fog Opt
1070
     0
1070
     0
1040
0.0
1040
1.0
1040
0.0
1040
1.0
1010
0.5
1020
0.5
1030
0.5
1002
}
  0
INSERT
  5
9B
330
1F
100
AcDbEntity
  8
ASHADE
 62
     9
100
AcDbBlockReference
  2
AVE_RENDER
 10
0.0
 20
0.0
 30
0.0
1001
AVE_RENDER
1002
{
1070
     0
1000
BG Opt
1070
     0
1070
     1
1010
0.0
1020
0.0
1030
0.0
1010
1.0
1020
0.0
1030
0.0
1010
0.0
1020
1.0
1030
0.0
1010
0.0
1020
0.0
1030
1.0
1040
0.5
1040
0.33
1040
0.0
1000

1070
     1
1000

1070
     1
1070
     1
1040
1.0
1040
1.0
1040
0.0
1040
0.0
1070
     0
1002
}
  0
INSERT
  5
A2
330
1F
100
AcDbEntity
  8
ASHADE
 62
     1
100
AcDbBlockReference
  2
AVE_GLOBAL
 10
0.0
 20
0.0
 30
0.0
1001
AVE_MATERIAL
1002
{
1000
*GLOBAL*
1000
2
1000
Global finish.
1002
{
1002
}
1002
{
1070
    63
1002
{
1002
{
1010
-1.0
1020
-1.0
1030
-1.0
1002
}
1040
0.1000000014901161
1000

1040
0.0
1002
{
1002
}
1040
0.0
1002
{
1002
}
1040
0.0
1002
}
1002
{
1002
{
1010
-1.0
1020
-1.0
1030
-1.0
1002
}
1040
0.6999999880790711
1000

1040
0.0
1002
{
1002
}
1040
0.0
1002
{
1002
}
1040
0.0
1002
}
1002
{
1002
{
1010
-1.0
1020
-1.0
1030
-1.0
1002
}
1040
0.2000000029802322
1000

1040
0.0
1002
{
1002
}
1040
0.0
1002
{
1002
}
1040
0.0
1002
}
1002
{
1070
     0
1002
{
1070
     1
1002
{
1040
1.0
1040
1.0
1000

1040
0.0
1002
{
1002
}
1040
0.0
1002
{
1002
}
1040
0.0
1002
}
1002
}
1040
1.0
1040
0.0
1040
0.0
1002
}
1002
{
1040
1.0
1040
1.0
1000

1040
0.0
1002
{
1002
}
1040
0.0
1002
{
1002
}
1040
0.0
1002
}
1002
{
1040
0.5
1040
1.0
1000

1040
0.0
1002
{
1002
}
1040
0.0
1002
{
1002
}
1040
0.0
1002
}
1002
{
1070
     0
1040
0.0
1002
{
1002
}
1040
1.0
1002
{
1002
}
1040
0.0
1002
}
1002
{
1040
0.0
1002
{
1002
{
1010
0.0
1020
0.0
1030
0.0
1002
}
1040
1.0
1000

1040
0.0
1002
{
1002
}
1040
0.0
1002
{
1002
}
1040
0.0
1002
}
1002
}
1002
{
1002
{
1070
     1
1002
{
1040
0.0
1040
1.0
1000

1040
0.0
1002
{
1002
}
1040
0.0
1002
{
1002
}
1040
0.0
1002
}
1002
}
1040
0.0
1002
{
1002
}
1010
1.0
1020
0.0
1030
0.0
1010
0.0
1020
1.0
1030
0.0
1010
0.0
1020
0.0
1030
1.0
1070
     0
1002
}
1002
{
1002
{
1040
1.0
1040
1.0
1002
{
1070
     1
1002
{
1040
1.0
1040
1.0
1000

1040
0.0
1002
{
1002
}
1040
0.0
1002
{
1002
}
1040
0.0
1002
}
1002
}
1002
}
1070
     0
1040
0.0
1002
{
1002
}
1002
}
1002
{
1002
}
1002
}
1002
{
1071
        3
1070
     3
1070
     0
1002
{
1070
     2
1070
     0
1070
     0
1040
0.0
1002
}
1070
     0
1070
     2
1002
{
1002
}
1002
}
1002
{
1040
8030.0
1040
190.3000030517578
1040
0.3050000071525574
1040
228.0
1040
545.0
1040
14.0
1040
17.39999961853027
1040
0.4560000002384186
1002
}
1002
}
  0
MESH
  5
F9
330
1F
100
AcDbEntity
  8
OracDecor_cornice_mouldings
 62
   176
420
   526472
160
             36656
310
308F0000FA0300000C00000013000000020000003C0000000600000002000000000000C0FF3F8FC00000000000B91AC000000000EA8F5EC0000000C0FF3F8FC000000000000026BF00000040F0905EC00C000000130000000A0000003C0000000600000002000000000000C0FF3F8FC000000000000026BF00000040F0905E
310
C0000000E0FF3F8F4000000000008027BF00000060F0905EC00C00000013000000120000003C0000000600000002000000000000E0FF3F8F400000000003B91AC000000000EA8F5EC0000000E0FF3F8F4000000000008027BF00000060F0905EC00C000000130000001A0000003C0000000600000002000000000000C0FF3F
310
8FC00000000000B91AC000000000EA8F5EC0000000E0FF3F8F400000000003B91AC000000000EA8F5EC00C00000013000000220000003C0000000600000002000000000000C0FF3F8FC0000000000034933F0000002052975CC0000000C0FF3F8FC000000000000026BF00000040F0905EC00C000000130000002A0000003C
310
0000000600000002000000000000C0FF3F8FC0000000000034933F0000002052975CC0000000E0FF3F8F40000000000031933F0000000052975CC00C00000013000000320000003C0000000600000002000000000000E0FF3F8F40000000000031933F0000000052975CC0000000E0FF3F8F4000000000008027BF00000060
310
F0905EC00C000000130000003A0000003C0000000600000002000000000000C0FF3F8FC0000000007824E5BF000000C027805CC0000000C0FF3F8FC0000000000034933F0000002052975CC00C00000013000000420000003C0000000600000002000000000000C0FF3F8FC0000000007824E5BF000000C027805CC0000000
310
E0FF3F8F40000000008824E5BF000000C027805CC00C000000130000004A0000003C0000000600000002000000000000E0FF3F8F40000000008824E5BF000000C027805CC0000000E0FF3F8F40000000000031933F0000000052975CC00C00000013000000520000003C0000000600000002000000000000C0FF3F8FC00000
310
0000C41BF2BF0000004075595CC0000000C0FF3F8FC0000000007824E5BF000000C027805CC00C000000130000005A0000003C0000000600000002000000000000C0FF3F8FC000000000C41BF2BF0000004075595CC0000000E0FF3F8F4000000000CC1BF2BF0000004075595CC00C00000013000000620000003C00000006
310
00000002000000000000E0FF3F8F4000000000CC1BF2BF0000004075595CC0000000E0FF3F8F40000000008824E5BF000000C027805CC00C000000130000006A0000003C0000000600000002000000000000C0FF3F8FC0000000000000F5BF00000040F6295CC0000000C0FF3F8FC000000000C41BF2BF0000004075595CC0
310
0C00000013000000720000003C0000000600000002000000000000C0FF3F8FC0000000000000F5BF00000040F6295CC0000000E0FF3F8F40000000000C00F5BF00000020F6295CC00C000000130000007A0000003C0000000600000002000000000000E0FF3F8F40000000000C00F5BF00000020F6295CC0000000E0FF3F8F
310
4000000000CC1BF2BF0000004075595CC00C00000013000000820000003C0000000600000002000000000000C0FF3F8FC00000000030BEF2BF00000000EEF95BC0000000C0FF3F8FC0000000000000F5BF00000040F6295CC00C000000130000008A0000003C0000000600000002000000000000C0FF3F8FC00000000030BE
310
F2BF00000000EEF95BC0000000E0FF3F8F40000000003CBEF2BF00000000EEF95BC00C00000013000000920000003C0000000600000002000000000000E0FF3F8F40000000003CBEF2BF00000000EEF95BC0000000E0FF3F8F40000000000C00F5BF00000020F6295CC00C000000130000009A0000003C0000000600000002
310
000000000000C0FF3F8FC000000000B075E7BF00000000B9D15BC0000000C0FF3F8FC00000000030BEF2BF00000000EEF95BC00C00000013000000A20000003C0000000600000002000000000000C0FF3F8FC000000000B075E7BF00000000B9D15BC0000000E0FF3F8F4000000000C875E7BF000000E0B8D15BC00C000000
310
13000000AA0000003C0000000600000002000000000000E0FF3F8F4000000000C875E7BF000000E0B8D15BC0000000E0FF3F8F40000000003CBEF2BF00000000EEF95BC00C00000013000000B20000003C0000000600000002000000000000C0FF3F8FC000000000B075E7BF00000000B9D15BC0000000C0FF3F8FC0000000
310
0000859C3F000000C03EA45BC00C00000013000000BA0000003C0000000600000002000000000000C0FF3F8FC00000000000859C3F000000C03EA45BC0000000E0FF3F8F400000000000819C3F000000C03EA45BC00C00000013000000C20000003C0000000600000002000000000000E0FF3F8F400000000000819C3F0000
310
00C03EA45BC0000000E0FF3F8F4000000000C875E7BF000000E0B8D15BC00C00000013000000CA0000003C0000000600000002000000000000C0FF3F8FC00000000000859C3F000000C03EA45BC0000000C0FF3F8FC0000000008056AB3F000000407CF958C00C00000013000000D20000003C000000060000000200000000
310
0000C0FF3F8FC0000000008056AB3F000000407CF958C0000000E0FF3F8F40000000000055AB3F000000407CF958C00C00000013000000DA0000003C0000000600000002000000000000E0FF3F8F40000000000055AB3F000000407CF958C0000000E0FF3F8F400000000000819C3F000000C03EA45BC00C00000013000000
310
E20000003C0000000600000002000000000000C0FF3F8FC0000000008056AB3F000000407CF958C0000000C0FF3F8FC000000000B2980EC000000040E4F858C00C00000013000000EA0000003C0000000600000002000000000000C0FF3F8FC000000000B2980EC000000040E4F858C0000000E0FF3F8F4000000000B8980E
310
C000000040E4F858C00C00000013000000F20000003C0000000600000002000000000000E0FF3F8F4000000000B8980EC000000040E4F858C0000000E0FF3F8F40000000000055AB3F000000407CF958C00C00000013000000FA0000003C0000000600000002000000000000C0FF3F8FC000000000B2980EC000000040E4F8
310
58C0000000C0FF3F8FC0000000008EB212C00000000032F158C00C00000013000000020100003C0000000600000002000000000000C0FF3F8FC0000000008EB212C00000000032F158C0000000E0FF3F8F400000000092B212C00000000032F158C00C000000130000000A0100003C0000000600000002000000000000E0FF
310
3F8F400000000092B212C00000000032F158C0000000E0FF3F8F4000000000B8980EC000000040E4F858C00C00000013000000120100003C0000000600000002000000000000C0FF3F8FC000000000BBD415C000000000F7DA58C0000000C0FF3F8FC0000000008EB212C00000000032F158C00C000000130000001A010000
310
3C0000000600000002000000000000C0FF3F8FC000000000BBD415C000000000F7DA58C0000000E0FF3F8F4000000000BED415C000000000F7DA58C00C00000013000000220100003C0000000600000002000000000000E0FF3F8F4000000000BED415C000000000F7DA58C0000000E0FF3F8F400000000092B212C0000000
310
0032F158C00C000000130000002A0100003C0000000600000002000000000000C0FF3F8FC000000000AF7418C000000040ECB758C0000000C0FF3F8FC000000000BBD415C000000000F7DA58C00C00000013000000320100003C0000000600000002000000000000C0FF3F8FC000000000AF7418C000000040ECB758C00000
310
00E0FF3F8F4000000000B17418C000000040ECB758C00C000000130000003A0100003C0000000600000002000000000000E0FF3F8F4000000000B17418C000000040ECB758C0000000E0FF3F8F4000000000BED415C000000000F7DA58C00C00000013000000420100003C0000000600000002000000000000C0FF3F8FC000
310
000000AF7418C000000040ECB758C0000000C0FF3F8FC0000000C0FF5130C0000000C084E655C00C000000130000004A0100003C0000000600000002000000000000C0FF3F8FC0000000C0FF5130C0000000C084E655C0000000E0FF3F8F4000000080005230C0000000C084E655C00C00000013000000520100003C000000
310
0600000002000000000000E0FF3F8F4000000080005230C0000000C084E655C0000000E0FF3F8F4000000000B17418C000000040ECB758C00C000000130000005A0100003C0000000600000002000000000000C0FF3F8FC0000000C0FF5130C0000000C084E655C0000000C0FF3F8FC0000000007DC430C0000000004EBD55
310
C00C00000013000000620100003C0000000600000002000000000000C0FF3F8FC0000000007DC430C0000000004EBD55C0000000E0FF3F8F40000000C07DC430C0000000004EBD55C00C000000130000006A0100003C0000000600000002000000000000E0FF3F8F40000000C07DC430C0000000004EBD55C0000000E0FF3F
310
8F4000000080005230C0000000C084E655C00C00000013000000720100003C0000000600000002000000000000C0FF3F8FC000000080E90831C0000000C0408E55C0000000C0FF3F8FC0000000007DC430C0000000004EBD55C00C000000130000007A0100003C0000000600000002000000000000C0FF3F8FC000000080E9
310
0831C0000000C0408E55C0000000E0FF3F8F4000000040EA0831C0000000C0408E55C00C00000013000000820100003C0000000600000002000000000000E0FF3F8F4000000040EA0831C0000000C0408E55C0000000E0FF3F8F40000000C07DC430C0000000004EBD55C00C000000130000008A0100003C00000006000000
310
02000000000000C0FF3F8FC000000080E90831C0000000C0408E55C0000000C0FF3F8FC000000080F35732C000000020175F54C00C00000013000000920100003C0000000600000002000000000000C0FF3F8FC000000080F35732C000000020175F54C0000000E0FF3F8F4000000040F45732C000000000175F54C00C0000
310
00130000009A0100003C0000000600000002000000000000E0FF3F8F4000000040F45732C000000000175F54C0000000E0FF3F8F4000000040EA0831C0000000C0408E55C00C00000013000000A20100003C0000000600000002000000000000C0FF3F8FC000000080A91234C000000080013C53C0000000C0FF3F8FC00000
310
0080F35732C000000020175F54C00C00000013000000AA0100003C0000000600000002000000000000C0FF3F8FC000000080A91234C000000080013C53C0000000E0FF3F8F4000000040AA1234C000000080013C53C00C00000013000000B20100003C0000000600000002000000000000E0FF3F8F4000000040AA1234C000
310
000080013C53C0000000E0FF3F8F4000000040F45732C000000000175F54C00C00000013000000BA0100003C0000000600000002000000000000C0FF3F8FC000000040EA3936C000000000A52452C0000000C0FF3F8FC000000080A91234C000000080013C53C00C00000013000000C20100003C0000000600000002000000
310
000000C0FF3F8FC000000040EA3936C000000000A52452C0000000E0FF3F8F4000000000EB3936C000000000A52452C00C00000013000000CA0100003C0000000600000002000000000000E0FF3F8F4000000000EB3936C000000000A52452C0000000E0FF3F8F4000000040AA1234C000000080013C53C00C000000130000
310
00D20100003C0000000600000002000000000000C0FF3F8FC000000080D3C338C000000040CD1C51C0000000C0FF3F8FC000000040EA3936C000000000A52452C00C00000013000000DA0100003C0000000600000002000000000000C0FF3F8FC000000080D3C338C000000040CD1C51C0000000E0FF3F8F4000000040D4C3
310
38C000000040CD1C51C00C00000013000000E20100003C0000000600000002000000000000E0FF3F8F4000000040D4C338C000000040CD1C51C0000000E0FF3F8F4000000000EB3936C000000000A52452C00C00000013000000EA0100003C0000000600000002000000000000C0FF3F8FC0000000C050B03BC0000000E0FC
310
2450C0000000C0FF3F8FC000000080D3C338C000000040CD1C51C00C00000013000000F20100003C0000000600000002000000000000C0FF3F8FC0000000C050B03BC0000000E0FC2450C0000000E0FF3F8F400000008051B03BC0000000E0FC2450C00C00000013000000FA0100003C0000000600000002000000000000E0
310
FF3F8F400000008051B03BC0000000E0FC2450C0000000E0FF3F8F4000000040D4C338C000000040CD1C51C00C00000013000000020200003C0000000600000002000000000000C0FF3F8FC0000000C097003FC0000000C0467D4EC0000000C0FF3F8FC0000000C050B03BC0000000E0FC2450C00C000000130000000A0200
310
003C0000000600000002000000000000C0FF3F8FC0000000C097003FC0000000C0467D4EC0000000E0FF3F8F400000008098003FC0000000C0467D4EC00C00000013000000120200003C0000000600000002000000000000E0FF3F8F400000008098003FC0000000C0467D4EC0000000E0FF3F8F400000008051B03BC00000
310
00E0FC2450C00C000000130000001A0200003C0000000600000002000000000000C0FF3F8FC000000040005B41C0000000C065D44CC0000000C0FF3F8FC0000000C097003FC0000000C0467D4EC00C00000013000000220200003C0000000600000002000000000000C0FF3F8FC000000040005B41C0000000C065D44CC000
310
0000E0FF3F8F40000000A0005B41C0000000C065D44CC00C000000130000002A0200003C0000000600000002000000000000E0FF3F8F40000000A0005B41C0000000C065D44CC0000000E0FF3F8F400000008098003FC0000000C0467D4EC00C00000013000000320200003C0000000600000002000000000000C0FF3F8FC0
310
000000E00F6843C0000000C0D4514BC0000000C0FF3F8FC000000040005B41C0000000C065D44CC00C000000130000003A0200003C0000000600000002000000000000C0FF3F8FC0000000E00F6843C0000000C0D4514BC0000000E0FF3F8F4000000040106843C0000000C0D4514BC00C00000013000000420200003C0000
310
000600000002000000000000E0FF3F8F4000000040106843C0000000C0D4514BC0000000E0FF3F8F40000000A0005B41C0000000C065D44CC00C000000130000004A0200003C0000000600000002000000000000C0FF3F8FC000000040CAAC45C0000000C01EF249C0000000C0FF3F8FC0000000E00F6843C0000000C0D451
310
4BC00C00000013000000520200003C0000000600000002000000000000C0FF3F8FC000000040CAAC45C0000000C01EF249C0000000E0FF3F8F40000000A0CAAC45C0000000C01EF249C00C000000130000005A0200003C0000000600000002000000000000E0FF3F8F40000000A0CAAC45C0000000C01EF249C0000000E0FF
310
3F8F4000000040106843C0000000C0D4514BC00C00000013000000620200003C0000000600000002000000000000C0FF3F8FC0000000408D2A48C0000000C08EB248C0000000C0FF3F8FC000000040CAAC45C0000000C01EF249C00C000000130000006A0200003C0000000600000002000000000000C0FF3F8FC000000040
310
8D2A48C0000000C08EB248C0000000E0FF3F8F40000000A08D2A48C0000000C08EB248C00C00000013000000720200003C0000000600000002000000000000E0FF3F8F40000000A08D2A48C0000000C08EB248C0000000E0FF3F8F40000000A0CAAC45C0000000C01EF249C00C000000130000007A0200003C000000060000
310
0002000000000000C0FF3F8FC00000004001E64AC0000000E0D46347C0000000C0FF3F8FC0000000408D2A48C0000000C08EB248C00C00000013000000820200003C0000000600000002000000000000C0FF3F8FC00000004001E64AC0000000E0D46347C0000000E0FF3F8F40000000A001E64AC0000000E0D46347C00C00
310
0000130000008A0200003C0000000600000002000000000000E0FF3F8F40000000A001E64AC0000000E0D46347C0000000E0FF3F8F40000000A08D2A48C0000000C08EB248C00C00000013000000920200003C0000000600000002000000000000C0FF3F8FC000000080AEDE4DC000000060380A46C0000000C0FF3F8FC000
310
00004001E64AC0000000E0D46347C00C000000130000009A0200003C0000000600000002000000000000C0FF3F8FC000000080AEDE4DC000000060380A46C0000000E0FF3F8F40000000E0AEDE4DC000000060380A46C00C00000013000000A20200003C0000000600000002000000000000E0FF3F8F40000000E0AEDE4DC0
310
00000060380A46C0000000E0FF3F8F40000000A001E64AC0000000E0D46347C00C00000013000000AA0200003C0000000600000002000000000000C0FF3F8FC000000080AEDE4DC000000060380A46C0000000C0FF3F8FC0000000C0824353C000000000FBF438C00C00000013000000B20200003C00000006000000020000
310
00000000C0FF3F8FC0000000C0824353C000000000FBF438C0000000E0FF3F8F40000000E0824353C000000020FBF438C00C00000013000000BA0200003C0000000600000002000000000000E0FF3F8F40000000E0824353C000000020FBF438C0000000E0FF3F8F40000000E0AEDE4DC000000060380A46C00C0000001300
310
0000C20200003C0000000600000002000000000000C0FF3F8FC0000000C0824353C000000000FBF438C0000000C0FF3F8FC000000080477753C0000000805A8936C00C00000013000000CA0200003C0000000600000002000000000000C0FF3F8FC000000080477753C0000000805A8936C0000000E0FF3F8F40000000A047
310
7753C0000000805A8936C00C00000013000000D20200003C0000000600000002000000000000E0FF3F8F40000000A0477753C0000000805A8936C0000000E0FF3F8F40000000E0824353C000000020FBF438C00C00000013000000DA0200003C0000000600000002000000000000C0FF3F8FC0000000C0AEA653C000000000
310
A0BF33C0000000C0FF3F8FC000000080477753C0000000805A8936C00C00000013000000E20200003C0000000600000002000000000000C0FF3F8FC0000000C0AEA653C000000000A0BF33C0000000E0FF3F8F40000000E0AEA653C000000000A0BF33C00C00000013000000EA0200003C0000000600000002000000000000
310
E0FF3F8F40000000E0AEA653C000000000A0BF33C0000000E0FF3F8F40000000A0477753C0000000805A8936C00C00000013000000F20200003C0000000600000002000000000000C0FF3F8FC0000000C0AEA653C000000000A0BF33C0000000C0FF3F8FC0000000809BB653C0000000408BDE31C00C00000013000000FA02
310
00003C0000000600000002000000000000C0FF3F8FC0000000809BB653C0000000408BDE31C0000000E0FF3F8F40000000C09BB653C0000000408BDE31C00C00000013000000020300003C0000000600000002000000000000E0FF3F8F40000000C09BB653C0000000408BDE31C0000000E0FF3F8F40000000E0AEA653C000
310
000000A0BF33C00C000000130000000A0300003C0000000600000002000000000000C0FF3F8FC0000000C027CC53C000000000835530C0000000C0FF3F8FC0000000809BB653C0000000408BDE31C00C00000013000000120300003C0000000600000002000000000000C0FF3F8FC0000000C027CC53C000000000835530C0
310
000000E0FF3F8F400000000028CC53C000000000835530C00C000000130000001A0300003C0000000600000002000000000000E0FF3F8F400000000028CC53C000000000835530C0000000E0FF3F8F40000000C09BB653C0000000408BDE31C00C00000013000000220300003C0000000600000002000000000000C0FF3F8F
310
C000000000AEE953C000000000C3D42DC0000000C0FF3F8FC0000000C027CC53C000000000835530C00C000000130000002A0300003C0000000600000002000000000000C0FF3F8FC000000000AEE953C000000000C3D42DC0000000E0FF3F8F4000000040AEE953C000000000C3D42DC00C00000013000000320300003C00
310
00000600000002000000000000E0FF3F8F4000000040AEE953C000000000C3D42DC0000000E0FF3F8F400000000028CC53C000000000835530C00C000000130000003A0300003C0000000600000002000000000000C0FF3F8FC0000000C0B20E54C00000008066422BC0000000C0FF3F8FC000000000AEE953C000000000C3
310
D42DC00C00000013000000420300003C0000000600000002000000000000C0FF3F8FC0000000C0B20E54C00000008066422BC0000000E0FF3F8F4000000000B30E54C00000000066422BC00C000000130000004A0300003C0000000600000002000000000000E0FF3F8F4000000000B30E54C00000000066422BC0000000E0
310
FF3F8F4000000040AEE953C000000000C3D42DC00C00000013000000520300003C0000000600000002000000000000C0FF3F8FC000000040EE6D54C000000080FCFE26C0000000C0FF3F8FC0000000C0B20E54C00000008066422BC00C000000130000005A0300003C0000000600000002000000000000C0FF3F8FC0000000
310
40EE6D54C000000080FCFE26C0000000E0FF3F8F4000000080EE6D54C000000000FCFE26C00C00000013000000620300003C0000000600000002000000000000E0FF3F8F4000000080EE6D54C000000000FCFE26C0000000E0FF3F8F4000000000B30E54C00000000066422BC00C000000130000006A0300003C0000000600
310
000002000000000000C0FF3F8FC000000000F6E954C0000000807BC123C0000000C0FF3F8FC000000040EE6D54C000000080FCFE26C00C00000013000000720300003C0000000600000002000000000000C0FF3F8FC000000000F6E954C0000000807BC123C0000000E0FF3F8F4000000040F6E954C0000000807BC123C00C
310
000000130000007A0300003C0000000600000002000000000000E0FF3F8F4000000040F6E954C0000000807BC123C0000000E0FF3F8F4000000080EE6D54C000000000FCFE26C00C00000013000000820300003C0000000600000002000000000000C0FF3F8FC000000020A77E55C000000000E09521C0000000C0FF3F8FC0
310
00000000F6E954C0000000807BC123C00C000000130000008A0300003C0000000600000002000000000000C0FF3F8FC000000020A77E55C000000000E09521C0000000E0FF3F8F4000000040A77E55C000000000E09521C00C00000013000000920300003C0000000600000002000000000000E0FF3F8F4000000040A77E55
310
C000000000E09521C0000000E0FF3F8F4000000040F6E954C0000000807BC123C00C000000130000009A0300003C0000000600000002000000000000C0FF3F8FC000000020A77E55C000000000E09521C0000000C0FF3F8FC0000000A0C6B555C000000080CEB720C00C00000013000000A20300003C000000060000000200
310
0000000000C0FF3F8FC0000000A0C6B555C000000080CEB720C0000000E0FF3F8F40000000C0C6B555C000000080CEB720C00C00000013000000AA0300003C0000000600000002000000000000E0FF3F8F40000000C0C6B555C000000080CEB720C0000000E0FF3F8F4000000040A77E55C000000000E09521C00C00000013
310
000000B20300003C0000000600000002000000000000C0FF3F8FC0000000007BE155C000000000B7BA1EC0000000C0FF3F8FC0000000A0C6B555C000000080CEB720C00C00000013000000BA0300003C0000000600000002000000000000C0FF3F8FC0000000007BE155C000000000B7BA1EC0000000E0FF3F8F4000000040
310
7BE155C000000000B7BA1EC00C00000013000000C20300003C0000000600000002000000000000E0FF3F8F40000000407BE155C000000000B7BA1EC0000000E0FF3F8F40000000C0C6B555C000000080CEB720C00C00000013000000CA0300003C0000000600000002000000000000C0FF3F8FC0000000207CFD55C0000000
310
00B5511BC0000000C0FF3F8FC0000000007BE155C000000000B7BA1EC00C00000013000000D20300003C0000000600000002000000000000C0FF3F8FC0000000207CFD55C000000000B5511BC0000000E0FF3F8F40000000407CFD55C000000000B6511BC00C00000013000000DA0300003C00000006000000020000000000
310
00E0FF3F8F40000000407CFD55C000000000B6511BC0000000E0FF3F8F40000000407BE155C000000000B7BA1EC00C00000013000000E20300003C0000000600000002000000000000C0FF3F8FC000000040090756C000000000668A17C0000000C0FF3F8FC0000000207CFD55C000000000B5511BC00C00000013000000EA
310
0300003C0000000600000002000000000000C0FF3F8FC000000040090756C000000000668A17C0000000E0FF3F8F4000000060090756C000000000668A17C00C00000013000000F20300003C0000000600000002000000000000E0FF3F8F4000000060090756C000000000668A17C0000000E0FF3F8F40000000407CFD55C0
310
00000000B6511BC00C00000013000000FA0300003C0000000600000002000000000000C0FF3F8FC000000040090756C000000000668A17C0000000C0FF3F8FC000000060240656C00000000080B8ABBF0C00000013000000020400003C0000000600000002000000000000C0FF3F8FC000000060240656C00000000080B8AB
310
BF000000E0FF3F8F4000000080240656C00000000080B8ABBF0C000000130000000A0400003C0000000600000002000000000000E0FF3F8F4000000080240656C00000000080B8ABBF000000E0FF3F8F4000000060090756C000000000668A17C00C00000013000000120400003C0000000600000002000000000000C0FF3F
310
8FC0000000C0B9E758C000000000002E9BBF000000C0FF3F8FC000000060240656C00000000080B8ABBF0C000000130000001A0400003C0000000600000002000000000000C0FF3F8FC0000000C0B9E758C000000000002E9BBF000000E0FF3F8F40000000E0B9E758C000000000002E9BBF0C00000013000000220400003C
310
0000000600000002000000000000E0FF3F8F40000000E0B9E758C000000000002E9BBF000000E0FF3F8F4000000080240656C00000000080B8ABBF0C000000130000002A0400003C0000000600000002000000000000C0FF3F8FC000000000D12A59C000000000400AEDBF000000C0FF3F8FC0000000C0B9E758C000000000
310
002E9BBF0C00000013000000320400003C0000000600000002000000000000C0FF3F8FC000000000D12A59C000000000400AEDBF000000E0FF3F8F4000000040D12A59C000000000400AEDBF0C000000130000003A0400003C0000000600000002000000000000E0FF3F8F4000000040D12A59C000000000400AEDBF000000
310
E0FF3F8F40000000E0B9E758C000000000002E9BBF0C00000013000000420400003C0000000600000002000000000000C0FF3F8FC000000000D12A59C000000000400AEDBF000000C0FF3F8FC000000000EA5359C0000000002C22F4BF0C000000130000004A0400003C0000000600000002000000000000C0FF3F8FC00000
310
0000EA5359C0000000002C22F4BF000000E0FF3F8F4000000040EA5359C0000000002C22F4BF0C00000013000000520400003C0000000600000002000000000000E0FF3F8F4000000040EA5359C0000000002C22F4BF000000E0FF3F8F4000000040D12A59C000000000400AEDBF0C000000130000005A0400003C00000006
310
00000002000000000000C0FF3F8FC0000000809A8259C000000000F85AF5BF000000C0FF3F8FC000000000EA5359C0000000002C22F4BF0C00000013000000620400003C0000000600000002000000000000C0FF3F8FC0000000809A8259C000000000F85AF5BF000000E0FF3F8F40000000C09A8259C000000000F85AF5BF
310
0C000000130000006A0400003C0000000600000002000000000000E0FF3F8F40000000C09A8259C000000000F85AF5BF000000E0FF3F8F4000000040EA5359C0000000002C22F4BF0C00000013000000720400003C0000000600000002000000000000C0FF3F8FC0000000408BAF59C00000000050FEF1BF000000C0FF3F8F
310
C0000000809A8259C000000000F85AF5BF0C000000130000007A0400003C0000000600000002000000000000C0FF3F8FC0000000408BAF59C00000000050FEF1BF000000E0FF3F8F40000000808BAF59C0000000004CFEF1BF0C00000013000000820400003C0000000600000002000000000000E0FF3F8F40000000808BAF
310
59C0000000004CFEF1BF000000E0FF3F8F40000000C09A8259C000000000F85AF5BF0C000000130000008A0400003C0000000600000002000000000000C0FF3F8FC0000000C0AAD359C0000000001827E5BF000000C0FF3F8FC0000000408BAF59C00000000050FEF1BF0C00000013000000920400003C0000000600000002
310
000000000000C0FF3F8FC0000000C0AAD359C0000000001827E5BF000000E0FF3F8F4000000000ABD359C0000000001827E5BF0C000000130000009A0400003C0000000600000002000000000000E0FF3F8F4000000000ABD359C0000000001827E5BF000000E0FF3F8F40000000808BAF59C0000000004CFEF1BF0C000000
310
13000000A20400003C0000000600000002000000000000C0FF3F8FC0000000404BE959C000000000004F91BF000000C0FF3F8FC0000000C0AAD359C0000000001827E5BF0C00000013000000AA0400003C0000000600000002000000000000C0FF3F8FC0000000404BE959C000000000004F91BF000000E0FF3F8F40000000
310
804BE959C000000000004F91BF0C00000013000000B20400003C0000000600000002000000000000E0FF3F8F4000000000ABD359C0000000001827E5BF000000E0FF3F8F40000000804BE959C000000000004F91BF0C00000013000000BA0400003C0000000600000002000000000000C0FF3F8FC0000000404BE959C00000
310
0000004F91BF000000C0FF3F8FC0000000003DAD5BC0000000000000E03E0C00000013000000C20400003C0000000600000002000000000000C0FF3F8FC0000000003DAD5BC0000000000000E03E000000E0FF3F8F40000000203DAD5BC0000000000000E03E0C00000013000000CA0400003C000000060000000200000000
310
0000E0FF3F8F40000000203DAD5BC0000000000000E03E000000E0FF3F8F40000000804BE959C000000000004F91BF0C00000013000000D20400003C0000000600000002000000000000C0FF3F8FC000000000A4AE5BC000000080BF4C22C0000000C0FF3F8FC0000000003DAD5BC0000000000000E03E0C00000013000000
310
DA0400003C0000000600000002000000000000C0FF3F8FC000000000A4AE5BC000000080BF4C22C0000000E0FF3F8F4000000020A4AE5BC000000000C04C22C00C00000013000000E20400003C0000000600000002000000000000E0FF3F8F4000000020A4AE5BC000000000C04C22C0000000E0FF3F8F40000000203DAD5B
310
C0000000000000E03E0C00000013000000EA0400003C0000000600000002000000000000C0FF3F8FC000000000A4AE5BC000000080BF4C22C0000000C0FF3F8FC000000040C1655AC0000000800D5322C00C00000013000000F20400003C0000000600000002000000000000C0FF3F8FC000000040C1655AC0000000800D53
310
22C0000000E0FF3F8F4000000080C1655AC0000000800D5322C00C00000013000000FA0400003C0000000600000002000000000000E0FF3F8F4000000020A4AE5BC000000000C04C22C0000000E0FF3F8F4000000080C1655AC0000000800D5322C00C00000013000000020500003C0000000600000002000000000000C0FF
310
3F8FC000000040C1655AC0000000800D5322C0000000C0FF3F8FC000000020EA355AC0000000804C5E22C00C000000130000000A0500003C0000000600000002000000000000C0FF3F8FC000000020EA355AC0000000804C5E22C0000000E0FF3F8F4000000040EA355AC0000000004D5E22C00C0000001300000012050000
310
3C0000000600000002000000000000E0FF3F8F4000000080C1655AC0000000800D5322C0000000E0FF3F8F4000000040EA355AC0000000004D5E22C00C000000130000001A0500003C0000000600000002000000000000C0FF3F8FC0000000E04AED59C000000080A38D22C0000000C0FF3F8FC000000020EA355AC0000000
310
804C5E22C00C00000013000000220500003C0000000600000002000000000000C0FF3F8FC0000000E04AED59C000000080A38D22C0000000E0FF3F8F40000000004BED59C000000080A38D22C00C000000130000002A0500003C0000000600000002000000000000E0FF3F8F40000000004BED59C000000080A38D22C00000
310
00E0FF3F8F4000000040EA355AC0000000004D5E22C00C00000013000000320500003C0000000600000002000000000000C0FF3F8FC000000000E9A959C00000000017E422C0000000C0FF3F8FC0000000E04AED59C000000080A38D22C00C000000130000003A0500003C0000000600000002000000000000C0FF3F8FC000
310
000000E9A959C00000000017E422C0000000E0FF3F8F4000000020E9A959C00000008016E422C00C00000013000000420500003C0000000600000002000000000000E0FF3F8F40000000004BED59C000000080A38D22C0000000E0FF3F8F4000000020E9A959C00000008016E422C00C000000130000004A0500003C000000
310
0600000002000000000000C0FF3F8FC000000080E96B59C000000080866123C0000000C0FF3F8FC000000000E9A959C00000000017E422C00C00000013000000520500003C0000000600000002000000000000C0FF3F8FC000000080E96B59C000000080866123C0000000E0FF3F8F40000000C0E96B59C000000080866123
310
C00C000000130000005A0500003C0000000600000002000000000000E0FF3F8F4000000020E9A959C00000008016E422C0000000E0FF3F8F40000000C0E96B59C000000080866123C00C00000013000000620500003C0000000600000002000000000000C0FF3F8FC0000000E00C3359C0000000802C0624C0000000C0FF3F
310
8FC000000080E96B59C000000080866123C00C000000130000006A0500003C0000000600000002000000000000C0FF3F8FC0000000E00C3359C0000000802C0624C0000000E0FF3F8F40000000000D3359C0000000002C0624C00C00000013000000720500003C0000000600000002000000000000E0FF3F8F40000000000D
310
3359C0000000002C0624C0000000E0FF3F8F40000000C0E96B59C000000080866123C00C000000130000007A0500003C0000000600000002000000000000C0FF3F8FC000000000CBFE58C000000080EBD124C0000000C0FF3F8FC0000000E00C3359C0000000802C0624C00C00000013000000820500003C00000006000000
310
02000000000000C0FF3F8FC000000000CBFE58C000000080EBD124C0000000E0FF3F8F4000000020CBFE58C000000000EBD124C00C000000130000008A0500003C0000000600000002000000000000E0FF3F8F4000000020CBFE58C000000000EBD124C0000000E0FF3F8F40000000000D3359C0000000002C0624C00C0000
310
0013000000920500003C0000000600000002000000000000C0FF3F8FC00000008033CF58C00000008070C325C0000000C0FF3F8FC000000000CBFE58C000000080EBD124C00C000000130000009A0500003C0000000600000002000000000000C0FF3F8FC00000008033CF58C00000008070C325C0000000E0FF3F8F400000
310
00A033CF58C00000000070C325C00C00000013000000A20500003C0000000600000002000000000000E0FF3F8F4000000020CBFE58C000000000EBD124C0000000E0FF3F8F40000000A033CF58C00000000070C325C00C00000013000000AA0500003C0000000600000002000000000000C0FF3F8FC0000000C00CA458C000
310
000080D1E026C0000000C0FF3F8FC00000008033CF58C00000008070C325C00C00000013000000B20500003C0000000600000002000000000000C0FF3F8FC0000000C00CA458C000000080D1E026C0000000E0FF3F8F40000000000DA458C000000080D1E026C00C00000013000000BA0500003C0000000600000002000000
310
000000E0FF3F8F40000000A033CF58C00000000070C325C0000000E0FF3F8F40000000000DA458C000000080D1E026C00C00000013000000C20500003C0000000600000002000000000000C0FF3F8FC000000020E97C58C000000000C92E28C0000000C0FF3F8FC0000000C00CA458C000000080D1E026C00C000000130000
310
00CA0500003C0000000600000002000000000000C0FF3F8FC000000020E97C58C000000000C92E28C0000000E0FF3F8F4000000040E97C58C000000000C92E28C00C00000013000000D20500003C0000000600000002000000000000E0FF3F8F4000000040E97C58C000000000C92E28C0000000E0FF3F8F40000000000DA4
310
58C000000080D1E026C00C00000013000000DA0500003C0000000600000002000000000000C0FF3F8FC000000060FB5958C0000000000BAC29C0000000C0FF3F8FC000000020E97C58C000000000C92E28C00C00000013000000E20500003C0000000600000002000000000000C0FF3F8FC000000060FB5958C0000000000B
310
AC29C0000000E0FF3F8F4000000080FB5958C0000000000BAC29C00C00000013000000EA0500003C0000000600000002000000000000E0FF3F8F4000000080FB5958C0000000000BAC29C0000000E0FF3F8F4000000040E97C58C000000000C92E28C00C00000013000000F20500003C0000000600000002000000000000C0
310
FF3F8FC0000000E00F3C58C000000000955B2BC0000000C0FF3F8FC000000060FB5958C0000000000BAC29C00C00000013000000FA0500003C0000000600000002000000000000C0FF3F8FC0000000E00F3C58C000000000955B2BC0000000E0FF3F8F4000000000103C58C000000000955B2BC00C00000013000000020600
310
003C0000000600000002000000000000E0FF3F8F4000000080FB5958C0000000000BAC29C0000000E0FF3F8F4000000000103C58C000000000955B2BC00C000000130000000A0600003C0000000600000002000000000000C0FF3F8FC0000000800D2458C000000000132E2DC0000000C0FF3F8FC0000000E00F3C58C00000
310
0000955B2BC00C00000013000000120600003C0000000600000002000000000000C0FF3F8FC0000000800D2458C000000000132E2DC0000000E0FF3F8F40000000C00D2458C000000000132E2DC00C000000130000001A0600003C0000000600000002000000000000E0FF3F8F40000000C00D2458C000000000132E2DC000
310
0000E0FF3F8F4000000000103C58C000000000955B2BC00C00000013000000220600003C0000000600000002000000000000C0FF3F8FC0000000C0F91158C000000000180A2FC0000000C0FF3F8FC0000000800D2458C000000000132E2DC00C000000130000002A0600003C0000000600000002000000000000C0FF3F8FC0
310
000000C0F91158C000000000180A2FC0000000E0FF3F8F4000000000FA1158C000000000180A2FC00C00000013000000320600003C0000000600000002000000000000E0FF3F8F4000000000FA1158C000000000180A2FC0000000E0FF3F8F40000000C00D2458C000000000132E2DC00C000000130000003A0600003C0000
310
000600000002000000000000C0FF3F8FC000000080660458C000000040E18230C0000000C0FF3F8FC0000000C0F91158C000000000180A2FC00C00000013000000420600003C0000000600000002000000000000C0FF3F8FC000000080660458C000000040E18230C0000000E0FF3F8F40000000A0660458C000000080E182
310
30C00C000000130000004A0600003C0000000600000002000000000000E0FF3F8F4000000000FA1158C000000000180A2FC0000000E0FF3F8F40000000A0660458C000000080E18230C00C00000013000000520600003C0000000600000002000000000000C0FF3F8FC0000000C0F1FA57C000000080AFA531C0000000C0FF
310
3F8FC000000080660458C000000040E18230C00C000000130000005A0600003C0000000600000002000000000000C0FF3F8FC0000000C0F1FA57C000000080AFA531C0000000E0FF3F8F40000000E0F1FA57C000000040AFA531C00C00000013000000620600003C0000000600000002000000000000E0FF3F8F40000000E0
310
F1FA57C000000040AFA531C0000000E0FF3F8F40000000A0660458C000000080E18230C00C000000130000006A0600003C0000000600000002000000000000C0FF3F8FC000000040C7F657C000000000ABCB32C0000000C0FF3F8FC0000000C0F1FA57C000000080AFA531C00C00000013000000720600003C000000060000
310
0002000000000000C0FF3F8FC000000040C7F657C000000000ABCB32C0000000E0FF3F8F4000000080C7F657C000000000ABCB32C00C000000130000007A0600003C0000000600000002000000000000E0FF3F8F4000000080C7F657C000000000ABCB32C0000000E0FF3F8F40000000E0F1FA57C000000040AFA531C00C00
310
000013000000820600003C0000000600000002000000000000C0FF3F8FC0000000606EF657C000000040275A33C0000000C0FF3F8FC000000040C7F657C000000000ABCB32C00C000000130000008A0600003C0000000600000002000000000000C0FF3F8FC0000000606EF657C000000040275A33C0000000E0FF3F8F4000
310
0000806EF657C000000080275A33C00C00000013000000920600003C0000000600000002000000000000E0FF3F8F4000000080C7F657C000000000ABCB32C0000000E0FF3F8F40000000806EF657C000000080275A33C00C000000130000009A0600003C0000000600000002000000000000C0FF3F8FC0000000606EF657C0
310
00000040275A33C0000000C0FF3F8FC000000000D2F657C000000080D0E435C00C00000013000000A20600003C0000000600000002000000000000C0FF3F8FC000000000D2F657C000000080D0E435C0000000E0FF3F8F4000000040D2F657C0000000C0D0E435C00C00000013000000AA0600003C00000006000000020000
310
00000000E0FF3F8F4000000040D2F657C0000000C0D0E435C0000000E0FF3F8F40000000806EF657C000000080275A33C00C00000013000000B20600003C0000000600000002000000000000C0FF3F8FC000000000D2F657C000000080D0E435C0000000C0FF3F8FC000000080612A56C0000000C039E935C00C0000001300
310
0000BA0600003C0000000600000002000000000000C0FF3F8FC000000080612A56C0000000C039E935C0000000E0FF3F8F40000000C0612A56C0000000C039E935C00C00000013000000C20600003C0000000600000002000000000000E0FF3F8F40000000C0612A56C0000000C039E935C0000000E0FF3F8F4000000040D2
310
F657C0000000C0D0E435C00C00000013000000CA0600003C0000000600000002000000000000C0FF3F8FC000000080612A56C0000000C039E935C0000000C0FF3F8FC00000006058DE55C0000000C000213AC00C00000013000000D20600003C0000000600000002000000000000C0FF3F8FC00000006058DE55C0000000C0
310
00213AC0000000E0FF3F8F400000008058DE55C0000000C000213AC00C00000013000000DA0600003C0000000600000002000000000000E0FF3F8F40000000C0612A56C0000000C039E935C0000000E0FF3F8F400000008058DE55C0000000C000213AC00C00000013000000E20600003C0000000600000002000000000000
310
C0FF3F8FC000000080918455C0000000205F0E3EC0000000C0FF3F8FC00000006058DE55C0000000C000213AC00C00000013000000EA0600003C0000000600000002000000000000C0FF3F8FC000000080918455C0000000205F0E3EC0000000E0FF3F8F40000000A0918455C0000000205F0E3EC00C00000013000000F206
310
00003C0000000600000002000000000000E0FF3F8F400000008058DE55C0000000C000213AC0000000E0FF3F8F40000000A0918455C0000000205F0E3EC00C00000013000000FA0600003C0000000600000002000000000000C0FF3F8FC0000000A0D01D55C0000000A095D640C0000000C0FF3F8FC000000080918455C000
310
0000205F0E3EC00C00000013000000020700003C0000000600000002000000000000C0FF3F8FC0000000A0D01D55C0000000A095D640C0000000E0FF3F8F40000000C0D01D55C0000000A095D640C00C000000130000000A0700003C0000000600000002000000000000E0FF3F8F40000000A0918455C0000000205F0E3EC0
310
000000E0FF3F8F40000000C0D01D55C0000000A095D640C00C00000013000000120700003C0000000600000002000000000000C0FF3F8FC000000080EBA954C000000080257F42C0000000C0FF3F8FC0000000A0D01D55C0000000A095D640C00C000000130000001A0700003C0000000600000002000000000000C0FF3F8F
310
C000000080EBA954C000000080257F42C0000000E0FF3F8F40000000C0EBA954C000000080257F42C00C00000013000000220700003C0000000600000002000000000000E0FF3F8F40000000C0D01D55C0000000A095D640C0000000E0FF3F8F40000000C0EBA954C000000080257F42C00C000000130000002A0700003C00
310
00000600000002000000000000C0FF3F8FC0000000A0112354C0000000A04D1144C0000000C0FF3F8FC000000080EBA954C000000080257F42C00C00000013000000320700003C0000000600000002000000000000C0FF3F8FC0000000A0112354C0000000A04D1144C0000000E0FF3F8F40000000C0112354C0000000A04D
310
1144C00C000000130000003A0700003C0000000600000002000000000000E0FF3F8F40000000C0EBA954C000000080257F42C0000000E0FF3F8F40000000C0112354C0000000A04D1144C00C00000013000000420700003C0000000600000002000000000000C0FF3F8FC000000040B78953C0000000E0149145C0000000C0
310
FF3F8FC0000000A0112354C0000000A04D1144C00C000000130000004A0700003C0000000600000002000000000000C0FF3F8FC000000040B78953C0000000E0149145C0000000E0FF3F8F4000000080B78953C0000000E0149145C00C00000013000000520700003C0000000600000002000000000000E0FF3F8F40000000
310
C0112354C0000000A04D1144C0000000E0FF3F8F4000000080B78953C0000000E0149145C00C000000130000005A0700003C0000000600000002000000000000C0FF3F8FC0000000A0B7DA52C0000000005DF546C0000000C0FF3F8FC000000040B78953C0000000E0149145C00C00000013000000620700003C0000000600
310
000002000000000000C0FF3F8FC0000000A0B7DA52C0000000005DF546C0000000E0FF3F8F40000000E0B7DA52C0000000005DF546C00C000000130000006A0700003C0000000600000002000000000000E0FF3F8F4000000080B78953C0000000E0149145C0000000E0FF3F8F40000000E0B7DA52C0000000005DF546C00C
310
00000013000000720700003C0000000600000002000000000000C0FF3F8FC0000000201B1052C0000000A0D73748C0000000C0FF3F8FC0000000A0B7DA52C0000000005DF546C00C000000130000007A0700003C0000000600000002000000000000C0FF3F8FC0000000201B1052C0000000A0D73748C0000000E0FF3F8F40
310
000000401B1052C0000000A0D73748C00C00000013000000820700003C0000000600000002000000000000E0FF3F8F40000000E0B7DA52C0000000005DF546C0000000E0FF3F8F40000000401B1052C0000000A0D73748C00C000000130000008A0700003C0000000600000002000000000000C0FF3F8FC0000000C0EA2F51
310
C000000040EC5C49C0000000C0FF3F8FC0000000201B1052C0000000A0D73748C00C00000013000000920700003C0000000600000002000000000000C0FF3F8FC0000000C0EA2F51C000000040EC5C49C0000000E0FF3F8F4000000000EB2F51C000000040EC5C49C00C000000130000009A0700003C000000060000000200
310
0000000000E0FF3F8F40000000401B1052C0000000A0D73748C0000000E0FF3F8F4000000000EB2F51C000000040EC5C49C00C00000013000000A20700003C0000000600000002000000000000C0FF3F8FC000000060E54450C00000006018684AC0000000C0FF3F8FC0000000C0EA2F51C000000040EC5C49C00C00000013
310
000000AA0700003C0000000600000002000000000000C0FF3F8FC000000060E54450C00000006018684AC0000000E0FF3F8F4000000080E54450C00000004018684AC00C00000013000000B20700003C0000000600000002000000000000E0FF3F8F4000000000EB2F51C000000040EC5C49C0000000E0FF3F8F4000000080
310
E54450C00000004018684AC00C00000013000000BA0700003C0000000600000002000000000000C0FF3F8FC0000000E0AE984EC00000008013574BC0000000C0FF3F8FC000000060E54450C00000006018684AC00C00000013000000C20700003C0000000600000002000000000000C0FF3F8FC0000000E0AE984EC0000000
310
8013574BC0000000E0FF3F8F4000000040AF984EC00000008013574BC00C00000013000000CA0700003C0000000600000002000000000000E0FF3F8F4000000080E54450C00000004018684AC0000000E0FF3F8F4000000040AF984EC00000008013574BC00C00000013000000D20700003C00000006000000020000000000
310
00C0FF3F8FC00000004047A84CC0000000E032404CC0000000C0FF3F8FC0000000E0AE984EC00000008013574BC00C00000013000000DA0700003C0000000600000002000000000000C0FF3F8FC00000004047A84CC0000000E032404CC0000000E0FF3F8F40000000C047A84CC0000000E032404CC00C00000013000000E2
310
0700003C0000000600000002000000000000E0FF3F8F4000000040AF984EC00000008013574BC0000000E0FF3F8F40000000C047A84CC0000000E032404CC00C00000013000000EA0700003C0000000600000002000000000000C0FF3F8FC000000040A2BA4AC0000000609E204DC0000000C0FF3F8FC00000004047A84CC0
310
000000E032404CC00C00000013000000F20700003C0000000600000002000000000000C0FF3F8FC000000040A2BA4AC0000000609E204DC0000000E0FF3F8F40000000C0A2BA4AC0000000609E204DC00C00000013000000FA0700003C0000000600000002000000000000E0FF3F8F40000000C047A84CC0000000E032404C
310
C0000000E0FF3F8F40000000C0A2BA4AC0000000609E204DC00C00000013000000020800003C0000000600000002000000000000C0FF3F8FC0000000E015D848C0000000C0C70A4EC0000000C0FF3F8FC000000040A2BA4AC0000000609E204DC00C000000130000000A0800003C0000000600000002000000000000C0FF3F
310
8FC0000000E015D848C0000000C0C70A4EC0000000E0FF3F8F400000004016D848C0000000C0C70A4EC00C00000013000000120800003C0000000600000002000000000000E0FF3F8F40000000C0A2BA4AC0000000609E204DC0000000E0FF3F8F400000004016D848C0000000C0C70A4EC00C000000130000001A0800003C
310
0000000600000002000000000000C0FF3F8FC000000060B30B47C00000000028124FC0000000C0FF3F8FC0000000E015D848C0000000C0C70A4EC00C00000013000000220800003C0000000600000002000000000000C0FF3F8FC000000060B30B47C00000000028124FC0000000E0FF3F8F40000000C0B30B47C000000000
310
28124FC00C000000130000002A0800003C0000000600000002000000000000E0FF3F8F400000004016D848C0000000C0C70A4EC0000000E0FF3F8F40000000C0B30B47C00000000028124FC00C00000013000000320800003C0000000600000002000000000000C0FF3F8FC0000000C0195445C0000000404E1950C0000000
310
C0FF3F8FC000000060B30B47C00000000028124FC00C000000130000003A0800003C0000000600000002000000000000C0FF3F8FC0000000C0195445C0000000404E1950C0000000E0FF3F8F40000000401A5445C0000000404E1950C00C00000013000000420800003C0000000600000002000000000000E0FF3F8F400000
310
00C0B30B47C00000000028124FC0000000E0FF3F8F40000000401A5445C0000000404E1950C00C000000130000004A0800003C0000000600000002000000000000C0FF3F8FC000000000FBBF43C0000000E07DBF50C0000000C0FF3F8FC0000000C0195445C0000000404E1950C00C00000013000000520800003C00000006
310
00000002000000000000C0FF3F8FC000000000FBBF43C0000000E07DBF50C0000000E0FF3F8F4000000060FBBF43C0000000E07DBF50C00C000000130000005A0800003C0000000600000002000000000000E0FF3F8F40000000401A5445C0000000404E1950C0000000E0FF3F8F4000000060FBBF43C0000000E07DBF50C0
310
0C00000013000000620800003C0000000600000002000000000000C0FF3F8FC000000000B44C42C000000080577C51C0000000C0FF3F8FC000000000FBBF43C0000000E07DBF50C00C000000130000006A0800003C0000000600000002000000000000C0FF3F8FC000000000B44C42C000000080577C51C0000000E0FF3F8F
310
4000000060B44C42C000000080577C51C00C00000013000000720800003C0000000600000002000000000000E0FF3F8F4000000060FBBF43C0000000E07DBF50C0000000E0FF3F8F4000000060B44C42C000000080577C51C00C000000130000007A0800003C0000000600000002000000000000C0FF3F8FC0000000401204
310
41C0000000403F4652C0000000C0FF3F8FC000000000B44C42C000000080577C51C00C00000013000000820800003C0000000600000002000000000000C0FF3F8FC000000040120441C0000000403F4652C0000000E0FF3F8F40000000A0120441C0000000403F4652C00C000000130000008A0800003C0000000600000002
310
000000000000E0FF3F8F4000000060B44C42C000000080577C51C0000000E0FF3F8F40000000A0120441C0000000403F4652C00C00000013000000920800003C0000000600000002000000000000C0FF3F8FC0000000C052D43FC000000040331B53C0000000C0FF3F8FC000000040120441C0000000403F4652C00C000000
310
130000009A0800003C0000000600000002000000000000C0FF3F8FC0000000C052D43FC000000040331B53C0000000E0FF3F8F400000008053D43FC000000040331B53C00C00000013000000A20800003C0000000600000002000000000000E0FF3F8F40000000A0120441C0000000403F4652C0000000E0FF3F8F40000000
310
8053D43FC000000040331B53C00C00000013000000AA0800003C0000000600000002000000000000C0FF3F8FC000000080D2F93DC00000002047FA53C0000000C0FF3F8FC0000000C052D43FC000000040331B53C00C00000013000000B20800003C0000000600000002000000000000C0FF3F8FC000000080D2F93DC00000
310
002047FA53C0000000E0FF3F8F4000000040D3F93DC00000000047FA53C00C00000013000000BA0800003C0000000600000002000000000000E0FF3F8F400000008053D43FC000000040331B53C0000000E0FF3F8F4000000040D3F93DC00000000047FA53C00C00000013000000C20800003C000000060000000200000000
310
0000C0FF3F8FC00000000020793CC0000000A0B0DC54C0000000C0FF3F8FC000000080D2F93DC00000002047FA53C00C00000013000000CA0800003C0000000600000002000000000000C0FF3F8FC00000000020793CC0000000A0B0DC54C0000000E0FF3F8F40000000A020793CC0000000A0B0DC54C00C00000013000000
310
D20800003C0000000600000002000000000000E0FF3F8F4000000040D3F93DC00000000047FA53C0000000E0FF3F8F40000000A020793CC0000000A0B0DC54C00C00000013000000DA0800003C0000000600000002000000000000C0FF3F8FC000000080AC523BC0000000E0E8C555C0000000C0FF3F8FC00000000020793C
310
C0000000A0B0DC54C00C00000013000000E20800003C0000000600000002000000000000C0FF3F8FC000000080AC523BC0000000E0E8C555C0000000E0FF3F8F4000000040AD523BC0000000E0E8C555C00C00000013000000EA0800003C0000000600000002000000000000E0FF3F8F40000000A020793CC0000000A0B0DC
310
54C0000000E0FF3F8F4000000040AD523BC0000000E0E8C555C00C00000013000000F20800003C0000000600000002000000000000C0FF3F8FC000000040B58D3AC00000000001C856C0000000C0FF3F8FC000000080AC523BC0000000E0E8C555C00C00000013000000FA0800003C0000000600000002000000000000C0FF
310
3F8FC000000040B58D3AC00000000001C856C0000000E0FF3F8F4000000000B68D3AC00000000001C856C00C00000013000000020900003C0000000600000002000000000000E0FF3F8F4000000040AD523BC0000000E0E8C555C0000000E0FF3F8F4000000000B68D3AC00000000001C856C00C000000130000000A090000
310
3C0000000600000002000000000000C0FF3F8FC0000000406E2A3AC00000000078E357C0000000C0FF3F8FC000000040B58D3AC00000000001C856C00C00000013000000120900003C0000000600000002000000000000C0FF3F8FC0000000406E2A3AC00000000078E357C0000000E0FF3F8F40000000006F2A3AC0000000
310
0078E357C00C000000130000001A0900003C0000000600000002000000000000E0FF3F8F4000000000B68D3AC00000000001C856C0000000E0FF3F8F40000000006F2A3AC00000000078E357C00C00000013000000220900003C0000000600000002000000000000C0FF3F8FC000000000E8273AC000000080001659C00000
310
00C0FF3F8FC0000000406E2A3AC00000000078E357C00C000000130000002A0900003C0000000600000002000000000000C0FF3F8FC000000000E8273AC000000080001659C0000000E0FF3F8F40000000C0E8273AC000000080001659C00C00000013000000320900003C0000000600000002000000000000E0FF3F8F4000
310
0000006F2A3AC00000000078E357C0000000E0FF3F8F40000000C0E8273AC000000080001659C00C000000130000003A0900003C0000000600000002000000000000C0FF3F8FC000000000E8273AC000000080001659C0000000C0FF3F8FC000000000987232C0000000E02E1759C00C00000013000000420900003C000000
310
0600000002000000000000C0FF3F8FC000000000987232C0000000E02E1759C0000000E0FF3F8F40000000C0987232C0000000E02E1759C00C000000130000004A0900003C0000000600000002000000000000E0FF3F8F40000000C0E8273AC000000080001659C0000000E0FF3F8F40000000C0987232C0000000E02E1759
310
C00C00000013000000520900003C0000000600000002000000000000C0FF3F8FC000000000987232C0000000E02E1759C0000000C0FF3F8FC0000000006F7132C0000000C0D93B59C00C000000130000005A0900003C0000000600000002000000000000C0FF3F8FC0000000006F7132C0000000C0D93B59C0000000E0FF3F
310
8F40000000C06F7132C0000000C0D93B59C00C00000013000000620900003C0000000600000002000000000000E0FF3F8F40000000C0987232C0000000E02E1759C0000000E0FF3F8F40000000C06F7132C0000000C0D93B59C00C000000130000006A0900003C0000000600000002000000000000C0FF3F8FC000000000EE
310
6432C000000080AF8259C0000000C0FF3F8FC0000000006F7132C0000000C0D93B59C00C00000013000000720900003C0000000600000002000000000000C0FF3F8FC000000000EE6432C000000080AF8259C0000000E0FF3F8F40000000C0EE6432C000000080AF8259C00C000000130000007A0900003C00000006000000
310
02000000000000E0FF3F8F40000000C0EE6432C000000080AF8259C0000000E0FF3F8F40000000C06F7132C0000000C0D93B59C00C00000013000000820900003C0000000600000002000000000000C0FF3F8FC000000080DA4032C0000000005FDC59C0000000C0FF3F8FC000000000EE6432C000000080AF8259C00C0000
310
00130000008A0900003C0000000600000002000000000000C0FF3F8FC000000080DA4032C0000000005FDC59C0000000E0FF3F8F4000000040DB4032C0000000005FDC59C00C00000013000000920900003C0000000600000002000000000000E0FF3F8F40000000C0EE6432C000000080AF8259C0000000E0FF3F8F400000
310
0040DB4032C0000000005FDC59C00C000000130000009A0900003C0000000600000002000000000000C0FF3F8FC0000000C0860532C00000002065305AC0000000C0FF3F8FC000000080DA4032C0000000005FDC59C00C00000013000000A20900003C0000000600000002000000000000C0FF3F8FC0000000C0860532C000
310
00002065305AC0000000E0FF3F8F40000000C0870532C00000000065305AC00C00000013000000AA0900003C0000000600000002000000000000E0FF3F8F4000000040DB4032C0000000005FDC59C0000000E0FF3F8F40000000C0870532C00000000065305AC00C00000013000000B20900003C0000000600000002000000
310
000000C0FF3F8FC000000040FAB231C000000000CD7E5AC0000000C0FF3F8FC0000000C0860532C00000002065305AC00C00000013000000BA0900003C0000000600000002000000000000C0FF3F8FC000000040FAB231C000000000CD7E5AC0000000E0FF3F8F4000000000FBB231C000000000CD7E5AC00C000000130000
310
00C20900003C0000000600000002000000000000E0FF3F8F40000000C0870532C00000000065305AC0000000E0FF3F8F4000000000FBB231C000000000CD7E5AC00C00000013000000CA0900003C0000000600000002000000000000C0FF3F8FC0000000C0F34831C0000000402FC75AC0000000C0FF3F8FC000000040FAB2
310
31C000000000CD7E5AC00C00000013000000D20900003C0000000600000002000000000000C0FF3F8FC0000000C0F34831C0000000402FC75AC0000000E0FF3F8F4000000080F44831C0000000402FC75AC00C00000013000000DA0900003C0000000600000002000000000000E0FF3F8F4000000000FBB231C000000000CD
310
7E5AC0000000E0FF3F8F4000000080F44831C0000000402FC75AC00C00000013000000E20900003C0000000600000002000000000000C0FF3F8FC000000080C0C730C00000008040095BC0000000C0FF3F8FC0000000C0F34831C0000000402FC75AC00C00000013000000EA0900003C0000000600000002000000000000C0
310
FF3F8FC000000080C0C730C00000008040095BC0000000E0FF3F8F4000000000C1C730C00000008040095BC00C00000013000000F20900003C0000000600000002000000000000E0FF3F8F4000000000C1C730C00000008040095BC0000000E0FF3F8F4000000080F44831C0000000402FC75AC00C00000013000000FA0900
310
003C0000000600000002000000000000C0FF3F8FC000000040DF2E30C0000000E029455BC0000000C0FF3F8FC000000080C0C730C00000008040095BC00C00000013000000020A00003C0000000600000002000000000000C0FF3F8FC000000040DF2E30C0000000E029455BC0000000E0FF3F8F4000000000E02E30C00000
310
00E029455BC00C000000130000000A0A00003C0000000600000002000000000000E0FF3F8F4000000000C1C730C00000008040095BC0000000E0FF3F8F4000000000E02E30C0000000E029455BC00C00000013000000120A00003C0000000600000002000000000000C0FF3F8FC000000000EFF82EC0000000C01F7B5BC000
310
0000C0FF3F8FC000000040DF2E30C0000000E029455BC00C000000130000001A0A00003C0000000600000002000000000000C0FF3F8FC000000000EFF82EC0000000C01F7B5BC0000000E0FF3F8F4000000080F0F82EC0000000C01F7B5BC00C00000013000000220A00003C0000000600000002000000000000E0FF3F8F40
310
00000000E02E30C0000000E029455BC0000000E0FF3F8F4000000080F0F82EC0000000C01F7B5BC00C000000130000002A0A00003C0000000600000002000000000000C0FF3F8FC000000000F1612DC0000000003DAB5BC0000000C0FF3F8FC000000000EFF82EC0000000C01F7B5BC00C00000013000000320A00003C0000
310
000600000002000000000000C0FF3F8FC000000000F1612DC0000000003DAB5BC0000000E0FF3F8F4000000000F2612DC0000000003DAB5BC00C000000130000003A0A00003C0000000600000002000000000000E0FF3F8F4000000080F0F82EC0000000C01F7B5BC0000000E0FF3F8F4000000000F2612DC0000000003DAB
310
5BC00C00000013000000420A00003C0000000600000002000000000000C0FF3F8FC00000008018952BC00000004039D55BC0000000C0FF3F8FC000000000F1612DC0000000003DAB5BC00C000000130000004A0A00003C0000000600000002000000000000C0FF3F8FC00000008018952BC00000004039D55BC0000000E0FF
310
3F8F40000000001A952BC00000004039D55BC00C00000013000000520A00003C0000000600000002000000000000E0FF3F8F4000000000F2612DC0000000003DAB5BC0000000E0FF3F8F40000000001A952BC00000004039D55BC00C000000130000005A0A00003C0000000600000002000000000000C0FF3F8FC000000000
310
C38C29C000000000E8F85BC0000000C0FF3F8FC00000008018952BC00000004039D55BC00C00000013000000620A00003C0000000600000002000000000000C0FF3F8FC000000000C38C29C000000000E8F85BC0000000E0FF3F8F4000000000C48C29C000000000E8F85BC00C000000130000006A0A00003C000000060000
310
0002000000000000E0FF3F8F40000000001A952BC00000004039D55BC0000000E0FF3F8F4000000000C48C29C000000000E8F85BC00C00000013000000720A00003C0000000600000002000000000000C0FF3F8FC000000080164A27C00000004057165CC0000000C0FF3F8FC000000000C38C29C000000000E8F85BC00C00
310
0000130000007A0A00003C0000000600000002000000000000C0FF3F8FC000000080164A27C00000004057165CC0000000E0FF3F8F4000000080174A27C00000004057165CC00C00000013000000820A00003C0000000600000002000000000000E0FF3F8F4000000000C48C29C000000000E8F85BC0000000E0FF3F8F4000
310
000080174A27C00000004057165CC00C000000130000008A0A00003C0000000600000002000000000000C0FF3F8FC0000000005CD024C000000080DD2C5CC0000000C0FF3F8FC000000080164A27C00000004057165CC00C00000013000000920A00003C0000000600000002000000000000C0FF3F8FC0000000005CD024C0
310
00000080DD2C5CC0000000E0FF3F8F40000000805DD024C000000080DD2C5CC00C000000130000009A0A00003C0000000600000002000000000000E0FF3F8F4000000080174A27C00000004057165CC0000000E0FF3F8F40000000805DD024C000000080DD2C5CC00C00000013000000A20A00003C00000006000000020000
310
00000000C0FF3F8FC000000080CB2022C0000000802C3C5CC0000000C0FF3F8FC0000000005CD024C000000080DD2C5CC00C00000013000000AA0A00003C0000000600000002000000000000C0FF3F8FC000000080CB2022C0000000802C3C5CC0000000E0FF3F8F4000000080CC2022C0000000802C3C5CC00C0000001300
310
0000B20A00003C0000000600000002000000000000E0FF3F8F40000000805DD024C000000080DD2C5CC0000000E0FF3F8F4000000080CC2022C0000000802C3C5CC00C00000013000000BA0A00003C0000000600000002000000000000C0FF3F8FC00000000060751EC0000000C071445CC0000000C0FF3F8FC000000080CB
310
2022C0000000802C3C5CC00C00000013000000C20A00003C0000000600000002000000000000C0FF3F8FC00000000060751EC0000000C071445CC0000000E0FF3F8F400000000062751EC0000000C071445CC00C00000013000000CA0A00003C0000000600000002000000000000E0FF3F8F4000000080CC2022C000000080
310
2C3C5CC0000000E0FF3F8F400000000062751EC0000000C071445CC00C00000013000000D20A00003C0000000600000002000000000000C0FF3F8FC0000000008CA21AC00000000052465CC0000000C0FF3F8FC00000000060751EC0000000C071445CC00C00000013000000DA0A00003C0000000600000002000000000000
310
C0FF3F8FC0000000008CA21AC00000000052465CC0000000E0FF3F8F40000000008FA21AC00000000052465CC00C00000013000000E20A00003C0000000600000002000000000000E0FF3F8F400000000062751EC0000000C071445CC0000000E0FF3F8F40000000008FA21AC00000000052465CC00C00000013000000EA0A
310
00003C0000000600000002000000000000C0FF3F8FC0000000008CA21AC00000000052465CC0000000C0FF3F8FC00000000000B91AC000000000EA8F5EC00C00000013000000F20A00003C0000000600000002000000000000E0FF3F8F40000000008FA21AC00000000052465CC0000000E0FF3F8F400000000003B91AC000
310
000000EA8F5EC00C00000013000000FA0A00003C0000000600000002000000000000C0FF3F8FC000000000A4AE5BC000000080BF4C22C0000000C0FF3F8FC0000000C0AAD359C0000000001827E5BF0C00000013000000020B00003C0000000600000002000000000000C0FF3F8FC000000040C1655AC0000000800D5322C0
310
000000C0FF3F8FC0000000408BAF59C00000000050FEF1BF0C000000130000000A0B00003C0000000600000002000000000000C0FF3F8FC0000000E04AED59C000000080A38D22C0000000C0FF3F8FC0000000408BAF59C00000000050FEF1BF0C00000013000000120B00003C0000000600000002000000000000C0FF3F8F
310
C000000020EA355AC0000000804C5E22C0000000C0FF3F8FC0000000408BAF59C00000000050FEF1BF0C000000130000001A0B00003C0000000600000002000000000000C0FF3F8FC000000000E9A959C00000000017E422C0000000C0FF3F8FC0000000809A8259C000000000F85AF5BF0C00000013000000220B00003C00
310
00000600000002000000000000C0FF3F8FC000000000CBFE58C000000080EBD124C0000000C0FF3F8FC000000000EA5359C0000000002C22F4BF0C000000130000002A0B00003C0000000600000002000000000000C0FF3F8FC0000000E00C3359C0000000802C0624C0000000C0FF3F8FC0000000809A8259C000000000F8
310
5AF5BF0C00000013000000320B00003C0000000600000002000000000000C0FF3F8FC000000080E96B59C000000080866123C0000000C0FF3F8FC0000000809A8259C000000000F85AF5BF0C000000130000003A0B00003C0000000600000002000000000000C0FF3F8FC000000000CBFE58C000000080EBD124C0000000C0
310
FF3F8FC000000000D12A59C000000000400AEDBF0C00000013000000420B00003C0000000600000002000000000000C0FF3F8FC000000000D12A59C000000000400AEDBF000000C0FF3F8FC000000040090756C000000000668A17C00C000000130000004A0B00003C0000000600000002000000000000C0FF3F8FC0000000
310
00CBFE58C000000080EBD124C0000000C0FF3F8FC000000040090756C000000000668A17C00C00000013000000520B00003C0000000600000002000000000000C0FF3F8FC00000008033CF58C00000008070C325C0000000C0FF3F8FC0000000207CFD55C000000000B5511BC00C000000130000005A0B00003C0000000600
310
000002000000000000C0FF3F8FC000000060FB5958C0000000000BAC29C0000000C0FF3F8FC0000000007BE155C000000000B7BA1EC00C00000013000000620B00003C0000000600000002000000000000C0FF3F8FC000000020E97C58C000000000C92E28C0000000C0FF3F8FC0000000207CFD55C000000000B5511BC00C
310
000000130000006A0B00003C0000000600000002000000000000C0FF3F8FC0000000C00CA458C000000080D1E026C0000000C0FF3F8FC0000000207CFD55C000000000B5511BC00C00000013000000720B00003C0000000600000002000000000000C0FF3F8FC0000000C0F91158C000000000180A2FC0000000C0FF3F8FC0
310
000000A0C6B555C000000080CEB720C00C000000130000007A0B00003C0000000600000002000000000000C0FF3F8FC0000000800D2458C000000000132E2DC0000000C0FF3F8FC0000000007BE155C000000000B7BA1EC00C00000013000000820B00003C0000000600000002000000000000C0FF3F8FC0000000E00F3C58
310
C000000000955B2BC0000000C0FF3F8FC0000000007BE155C000000000B7BA1EC00C000000130000008A0B00003C0000000600000002000000000000C0FF3F8FC000000040C7F657C000000000ABCB32C0000000C0FF3F8FC000000020A77E55C000000000E09521C00C00000013000000920B00003C000000060000000200
310
0000000000C0FF3F8FC0000000C0F1FA57C000000080AFA531C0000000C0FF3F8FC0000000A0C6B555C000000080CEB720C00C000000130000009A0B00003C0000000600000002000000000000C0FF3F8FC000000080660458C000000040E18230C0000000C0FF3F8FC0000000A0C6B555C000000080CEB720C00C00000013
310
000000A20B00003C0000000600000002000000000000C0FF3F8FC000000080612A56C0000000C039E935C0000000C0FF3F8FC000000000F6E954C0000000807BC123C00C00000013000000AA0B00003C0000000600000002000000000000C0FF3F8FC000000000D2F657C000000080D0E435C0000000C0FF3F8FC000000020
310
A77E55C000000000E09521C00C00000013000000B20B00003C0000000600000002000000000000C0FF3F8FC0000000606EF657C000000040275A33C0000000C0FF3F8FC000000020A77E55C000000000E09521C00C00000013000000BA0B00003C0000000600000002000000000000C0FF3F8FC000000080612A56C0000000
310
C039E935C0000000C0FF3F8FC000000040EE6D54C000000080FCFE26C00C00000013000000C20B00003C0000000600000002000000000000C0FF3F8FC000000080612A56C0000000C039E935C0000000C0FF3F8FC0000000C0B20E54C00000008066422BC00C00000013000000CA0B00003C00000006000000020000000000
310
00C0FF3F8FC000000080612A56C0000000C039E935C0000000C0FF3F8FC000000000AEE953C000000000C3D42DC00C00000013000000D20B00003C0000000600000002000000000000C0FF3F8FC000000080612A56C0000000C039E935C0000000C0FF3F8FC0000000C027CC53C000000000835530C00C00000013000000DA
310
0B00003C0000000600000002000000000000C0FF3F8FC000000080612A56C0000000C039E935C0000000C0FF3F8FC0000000809BB653C0000000408BDE31C00C00000013000000E20B00003C0000000600000002000000000000C0FF3F8FC000000080612A56C0000000C039E935C0000000C0FF3F8FC0000000C0AEA653C0
310
00000000A0BF33C00C00000013000000EA0B00003C0000000600000002000000000000C0FF3F8FC00000006058DE55C0000000C000213AC0000000C0FF3F8FC000000080477753C0000000805A8936C00C00000013000000F20B00003C0000000600000002000000000000C0FF3F8FC000000080918455C0000000205F0E3E
310
C0000000C0FF3F8FC000000080477753C0000000805A8936C00C00000013000000FA0B00003C0000000600000002000000000000C0FF3F8FC0000000A0D01D55C0000000A095D640C0000000C0FF3F8FC0000000C0824353C000000000FBF438C00C00000013000000020C00003C0000000600000002000000000000C0FF3F
310
8FC000000080EBA954C000000080257F42C0000000C0FF3F8FC0000000C0824353C000000000FBF438C00C000000130000000A0C00003C0000000600000002000000000000C0FF3F8FC0000000A0112354C0000000A04D1144C0000000C0FF3F8FC0000000C0824353C000000000FBF438C00C00000013000000120C00003C
310
0000000600000002000000000000C0FF3F8FC000000040B78953C0000000E0149145C0000000C0FF3F8FC0000000C0824353C000000000FBF438C00C000000130000001A0C00003C0000000600000002000000000000C0FF3F8FC0000000A0B7DA52C0000000005DF546C0000000C0FF3F8FC000000080AEDE4DC000000060
310
380A46C00C00000013000000220C00003C0000000600000002000000000000C0FF3F8FC0000000201B1052C0000000A0D73748C0000000C0FF3F8FC000000080AEDE4DC000000060380A46C00C000000130000002A0C00003C0000000600000002000000000000C0FF3F8FC0000000C0EA2F51C000000040EC5C49C0000000
310
C0FF3F8FC000000080AEDE4DC000000060380A46C00C00000013000000320C00003C0000000600000002000000000000C0FF3F8FC000000060E54450C00000006018684AC0000000C0FF3F8FC000000080AEDE4DC000000060380A46C00C000000130000003A0C00003C0000000600000002000000000000C0FF3F8FC00000
310
00E0AE984EC00000008013574BC0000000C0FF3F8FC000000080AEDE4DC000000060380A46C00C00000013000000420C00003C0000000600000002000000000000C0FF3F8FC00000004047A84CC0000000E032404CC0000000C0FF3F8FC00000004001E64AC0000000E0D46347C00C000000130000004A0C00003C00000006
310
00000002000000000000C0FF3F8FC000000040A2BA4AC0000000609E204DC0000000C0FF3F8FC0000000408D2A48C0000000C08EB248C00C00000013000000520C00003C0000000600000002000000000000C0FF3F8FC0000000E015D848C0000000C0C70A4EC0000000C0FF3F8FC000000040CAAC45C0000000C01EF249C0
310
0C000000130000005A0C00003C0000000600000002000000000000C0FF3F8FC000000060B30B47C00000000028124FC0000000C0FF3F8FC0000000E00F6843C0000000C0D4514BC00C00000013000000620C00003C0000000600000002000000000000C0FF3F8FC0000000C0195445C0000000404E1950C0000000C0FF3F8F
310
C000000040005B41C0000000C065D44CC00C000000130000006A0C00003C0000000600000002000000000000C0FF3F8FC000000000FBBF43C0000000E07DBF50C0000000C0FF3F8FC0000000C097003FC0000000C0467D4EC00C00000013000000720C00003C0000000600000002000000000000C0FF3F8FC000000000B44C
310
42C000000080577C51C0000000C0FF3F8FC0000000C050B03BC0000000E0FC2450C00C000000130000007A0C00003C0000000600000002000000000000C0FF3F8FC000000040120441C0000000403F4652C0000000C0FF3F8FC000000080D3C338C000000040CD1C51C00C00000013000000820C00003C0000000600000002
310
000000000000C0FF3F8FC0000000C052D43FC000000040331B53C0000000C0FF3F8FC000000040EA3936C000000000A52452C00C000000130000008A0C00003C0000000600000002000000000000C0FF3F8FC000000080D2F93DC00000002047FA53C0000000C0FF3F8FC000000080A91234C000000080013C53C00C000000
310
13000000920C00003C0000000600000002000000000000C0FF3F8FC00000000020793CC0000000A0B0DC54C0000000C0FF3F8FC000000080F35732C000000020175F54C00C000000130000009A0C00003C0000000600000002000000000000C0FF3F8FC000000080AC523BC0000000E0E8C555C0000000C0FF3F8FC0000000
310
80E90831C0000000C0408E55C00C00000013000000A20C00003C0000000600000002000000000000C0FF3F8FC000000040B58D3AC00000000001C856C0000000C0FF3F8FC0000000007DC430C0000000004EBD55C00C00000013000000AA0C00003C0000000600000002000000000000C0FF3F8FC0000000406E2A3AC00000
310
000078E357C0000000C0FF3F8FC0000000C0FF5130C0000000C084E655C00C00000013000000B20C00003C0000000600000002000000000000C0FF3F8FC000000000E8273AC000000080001659C0000000C0FF3F8FC0000000C0FF5130C0000000C084E655C00C00000013000000BA0C00003C000000060000000200000000
310
0000C0FF3F8FC000000000987232C0000000E02E1759C0000000C0FF3F8FC000000000AF7418C000000040ECB758C00C00000013000000C20C00003C0000000600000002000000000000C0FF3F8FC000000000EE6432C000000080AF8259C0000000C0FF3F8FC000000000AF7418C000000040ECB758C00C00000013000000
310
CA0C00003C0000000600000002000000000000C0FF3F8FC0000000006F7132C0000000C0D93B59C0000000C0FF3F8FC000000000AF7418C000000040ECB758C00C00000013000000D20C00003C0000000600000002000000000000C0FF3F8FC000000080DA4032C0000000005FDC59C0000000C0FF3F8FC000000000AF7418
310
C000000040ECB758C00C00000013000000DA0C00003C0000000600000002000000000000C0FF3F8FC0000000C0860532C00000002065305AC0000000C0FF3F8FC000000000AF7418C000000040ECB758C00C00000013000000E20C00003C0000000600000002000000000000C0FF3F8FC000000040FAB231C000000000CD7E
310
5AC0000000C0FF3F8FC000000000AF7418C000000040ECB758C00C00000013000000EA0C00003C0000000600000002000000000000C0FF3F8FC000000080C0C730C00000008040095BC0000000C0FF3F8FC000000000BBD415C000000000F7DA58C00C00000013000000F20C00003C0000000600000002000000000000C0FF
310
3F8FC0000000C0F34831C0000000402FC75AC0000000C0FF3F8FC000000000BBD415C000000000F7DA58C00C00000013000000FA0C00003C0000000600000002000000000000C0FF3F8FC000000040DF2E30C0000000E029455BC0000000C0FF3F8FC000000000BBD415C000000000F7DA58C00C00000013000000020D0000
310
3C0000000600000002000000000000C0FF3F8FC000000000EFF82EC0000000C01F7B5BC0000000C0FF3F8FC000000000BBD415C000000000F7DA58C00C000000130000000A0D00003C0000000600000002000000000000C0FF3F8FC000000000F1612DC0000000003DAB5BC0000000C0FF3F8FC000000000BBD415C0000000
310
00F7DA58C00C00000013000000120D00003C0000000600000002000000000000C0FF3F8FC00000008018952BC00000004039D55BC0000000C0FF3F8FC0000000008EB212C00000000032F158C00C000000130000001A0D00003C0000000600000002000000000000C0FF3F8FC000000000C38C29C000000000E8F85BC00000
310
00C0FF3F8FC0000000008EB212C00000000032F158C00C00000013000000220D00003C0000000600000002000000000000C0FF3F8FC000000080164A27C00000004057165CC0000000C0FF3F8FC0000000008EB212C00000000032F158C00C000000130000002A0D00003C0000000600000002000000000000C0FF3F8FC000
310
0000005CD024C000000080DD2C5CC0000000C0FF3F8FC0000000008EB212C00000000032F158C00C00000013000000320D00003C0000000600000002000000000000C0FF3F8FC000000080CB2022C0000000802C3C5CC0000000C0FF3F8FC0000000008EB212C00000000032F158C00C000000130000003A0D00003C000000
310
0600000002000000000000C0FF3F8FC00000000060751EC0000000C071445CC0000000C0FF3F8FC000000000B2980EC000000040E4F858C00C00000013000000420D00003C0000000600000002000000000000C0FF3F8FC000000000B075E7BF00000000B9D15BC0000000C0FF3F8FC000000000B2980EC000000040E4F858
310
C00C000000130000004A0D00003C0000000600000002000000000000C0FF3F8FC0000000008CA21AC00000000052465CC0000000C0FF3F8FC0000000000000F5BF00000040F6295CC00C00000013000000520D00003C0000000600000002000000000000C0FF3F8FC0000000008CA21AC00000000052465CC0000000C0FF3F
310
8FC00000000030BEF2BF00000000EEF95BC00C000000130000005A0D00003C0000000600000002000000000000C0FF3F8FC0000000008CA21AC00000000052465CC0000000C0FF3F8FC000000000B2980EC000000040E4F858C00C00000013000000620D00003C0000000600000002000000000000C0FF3F8FC0000000008C
310
A21AC00000000052465CC0000000C0FF3F8FC000000000C41BF2BF0000004075595CC00C000000130000006A0D00003C0000000600000002000000000000C0FF3F8FC00000000000B91AC000000000EA8F5EC0000000C0FF3F8FC0000000007824E5BF000000C027805CC00C00000013000000720D00003C00000006000000
310
02000000000000E0FF3F8F40000000808BAF59C0000000004CFEF1BF000000E0FF3F8F4000000080C1655AC0000000800D5322C00C000000130000007A0D00003C0000000600000002000000000000E0FF3F8F4000000020A4AE5BC000000000C04C22C0000000E0FF3F8F4000000000ABD359C0000000001827E5BF0C0000
310
0013000000820D00003C0000000600000002000000000000E0FF3F8F40000000808BAF59C0000000004CFEF1BF000000E0FF3F8F4000000040EA355AC0000000004D5E22C00C000000130000008A0D00003C0000000600000002000000000000E0FF3F8F40000000808BAF59C0000000004CFEF1BF000000E0FF3F8F400000
310
00004BED59C000000080A38D22C00C00000013000000920D00003C0000000600000002000000000000E0FF3F8F40000000C09A8259C000000000F85AF5BF000000E0FF3F8F4000000020E9A959C00000008016E422C00C000000130000009A0D00003C0000000600000002000000000000E0FF3F8F40000000C09A8259C000
310
000000F85AF5BF000000E0FF3F8F40000000000D3359C0000000002C0624C00C00000013000000A20D00003C0000000600000002000000000000E0FF3F8F4000000040EA5359C0000000002C22F4BF000000E0FF3F8F4000000020CBFE58C000000000EBD124C00C00000013000000AA0D00003C0000000600000002000000
310
000000E0FF3F8F40000000C09A8259C000000000F85AF5BF000000E0FF3F8F40000000C0E96B59C000000080866123C00C00000013000000B20D00003C0000000600000002000000000000E0FF3F8F4000000020CBFE58C000000000EBD124C0000000E0FF3F8F4000000040D12A59C000000000400AEDBF0C000000130000
310
00BA0D00003C0000000600000002000000000000E0FF3F8F4000000040D12A59C000000000400AEDBF000000E0FF3F8F4000000060090756C000000000668A17C00C00000013000000C20D00003C0000000600000002000000000000E0FF3F8F4000000020CBFE58C000000000EBD124C0000000E0FF3F8F40000000600907
310
56C000000000668A17C00C00000013000000CA0D00003C0000000600000002000000000000E0FF3F8F40000000407CFD55C000000000B6511BC0000000E0FF3F8F40000000A033CF58C00000000070C325C00C00000013000000D20D00003C0000000600000002000000000000E0FF3F8F40000000407CFD55C000000000B6
310
511BC0000000E0FF3F8F4000000040E97C58C000000000C92E28C00C00000013000000DA0D00003C0000000600000002000000000000E0FF3F8F40000000407BE155C000000000B7BA1EC0000000E0FF3F8F4000000080FB5958C0000000000BAC29C00C00000013000000E20D00003C0000000600000002000000000000E0
310
FF3F8F40000000407CFD55C000000000B6511BC0000000E0FF3F8F40000000000DA458C000000080D1E026C00C00000013000000EA0D00003C0000000600000002000000000000E0FF3F8F40000000407BE155C000000000B7BA1EC0000000E0FF3F8F40000000C00D2458C000000000132E2DC00C00000013000000F20D00
310
003C0000000600000002000000000000E0FF3F8F40000000C0C6B555C000000080CEB720C0000000E0FF3F8F4000000000FA1158C000000000180A2FC00C00000013000000FA0D00003C0000000600000002000000000000E0FF3F8F40000000407BE155C000000000B7BA1EC0000000E0FF3F8F4000000000103C58C00000
310
0000955B2BC00C00000013000000020E00003C0000000600000002000000000000E0FF3F8F40000000C0C6B555C000000080CEB720C0000000E0FF3F8F40000000E0F1FA57C000000040AFA531C00C000000130000000A0E00003C0000000600000002000000000000E0FF3F8F4000000040A77E55C000000000E09521C000
310
0000E0FF3F8F4000000080C7F657C000000000ABCB32C00C00000013000000120E00003C0000000600000002000000000000E0FF3F8F40000000C0C6B555C000000080CEB720C0000000E0FF3F8F40000000A0660458C000000080E18230C00C000000130000001A0E00003C0000000600000002000000000000E0FF3F8F40
310
00000040A77E55C000000000E09521C0000000E0FF3F8F4000000040D2F657C0000000C0D0E435C00C00000013000000220E00003C0000000600000002000000000000E0FF3F8F4000000040F6E954C0000000807BC123C0000000E0FF3F8F40000000C0612A56C0000000C039E935C00C000000130000002A0E00003C0000
310
000600000002000000000000E0FF3F8F4000000040A77E55C000000000E09521C0000000E0FF3F8F40000000806EF657C000000080275A33C00C00000013000000320E00003C0000000600000002000000000000E0FF3F8F40000000C0612A56C0000000C039E935C0000000E0FF3F8F4000000080EE6D54C000000000FCFE
310
26C00C000000130000003A0E00003C0000000600000002000000000000E0FF3F8F40000000C0612A56C0000000C039E935C0000000E0FF3F8F4000000000B30E54C00000000066422BC00C00000013000000420E00003C0000000600000002000000000000E0FF3F8F40000000C0612A56C0000000C039E935C0000000E0FF
310
3F8F4000000040AEE953C000000000C3D42DC00C000000130000004A0E00003C0000000600000002000000000000E0FF3F8F40000000C0612A56C0000000C039E935C0000000E0FF3F8F400000000028CC53C000000000835530C00C00000013000000520E00003C0000000600000002000000000000E0FF3F8F40000000C0
310
612A56C0000000C039E935C0000000E0FF3F8F40000000C09BB653C0000000408BDE31C00C000000130000005A0E00003C0000000600000002000000000000E0FF3F8F40000000C0612A56C0000000C039E935C0000000E0FF3F8F40000000E0AEA653C000000000A0BF33C00C00000013000000620E00003C000000060000
310
0002000000000000E0FF3F8F40000000A0477753C0000000805A8936C0000000E0FF3F8F400000008058DE55C0000000C000213AC00C000000130000006A0E00003C0000000600000002000000000000E0FF3F8F40000000A0477753C0000000805A8936C0000000E0FF3F8F40000000A0918455C0000000205F0E3EC00C00
310
000013000000720E00003C0000000600000002000000000000E0FF3F8F40000000E0824353C000000020FBF438C0000000E0FF3F8F40000000C0D01D55C0000000A095D640C00C000000130000007A0E00003C0000000600000002000000000000E0FF3F8F40000000E0824353C000000020FBF438C0000000E0FF3F8F4000
310
0000C0EBA954C000000080257F42C00C00000013000000820E00003C0000000600000002000000000000E0FF3F8F40000000E0824353C000000020FBF438C0000000E0FF3F8F40000000C0112354C0000000A04D1144C00C000000130000008A0E00003C0000000600000002000000000000E0FF3F8F40000000E0824353C0
310
00000020FBF438C0000000E0FF3F8F4000000080B78953C0000000E0149145C00C00000013000000920E00003C0000000600000002000000000000E0FF3F8F40000000E0AEDE4DC000000060380A46C0000000E0FF3F8F40000000E0B7DA52C0000000005DF546C00C000000130000009A0E00003C00000006000000020000
310
00000000E0FF3F8F40000000E0AEDE4DC000000060380A46C0000000E0FF3F8F40000000401B1052C0000000A0D73748C00C00000013000000A20E00003C0000000600000002000000000000E0FF3F8F40000000E0AEDE4DC000000060380A46C0000000E0FF3F8F4000000000EB2F51C000000040EC5C49C00C0000001300
310
0000AA0E00003C0000000600000002000000000000E0FF3F8F40000000E0AEDE4DC000000060380A46C0000000E0FF3F8F4000000080E54450C00000004018684AC00C00000013000000B20E00003C0000000600000002000000000000E0FF3F8F40000000E0AEDE4DC000000060380A46C0000000E0FF3F8F4000000040AF
310
984EC00000008013574BC00C00000013000000BA0E00003C0000000600000002000000000000E0FF3F8F40000000A001E64AC0000000E0D46347C0000000E0FF3F8F40000000C047A84CC0000000E032404CC00C00000013000000C20E00003C0000000600000002000000000000E0FF3F8F40000000A08D2A48C0000000C0
310
8EB248C0000000E0FF3F8F40000000C0A2BA4AC0000000609E204DC00C00000013000000CA0E00003C0000000600000002000000000000E0FF3F8F40000000A0CAAC45C0000000C01EF249C0000000E0FF3F8F400000004016D848C0000000C0C70A4EC00C00000013000000D20E00003C0000000600000002000000000000
310
E0FF3F8F4000000040106843C0000000C0D4514BC0000000E0FF3F8F40000000C0B30B47C00000000028124FC00C00000013000000DA0E00003C0000000600000002000000000000E0FF3F8F40000000A0005B41C0000000C065D44CC0000000E0FF3F8F40000000401A5445C0000000404E1950C00C00000013000000E20E
310
00003C0000000600000002000000000000E0FF3F8F400000008098003FC0000000C0467D4EC0000000E0FF3F8F4000000060FBBF43C0000000E07DBF50C00C00000013000000EA0E00003C0000000600000002000000000000E0FF3F8F400000008051B03BC0000000E0FC2450C0000000E0FF3F8F4000000060B44C42C000
310
000080577C51C00C00000013000000F20E00003C0000000600000002000000000000E0FF3F8F4000000040D4C338C000000040CD1C51C0000000E0FF3F8F40000000A0120441C0000000403F4652C00C00000013000000FA0E00003C0000000600000002000000000000E0FF3F8F4000000000EB3936C000000000A52452C0
310
000000E0FF3F8F400000008053D43FC000000040331B53C00C00000013000000020F00003C0000000600000002000000000000E0FF3F8F4000000040AA1234C000000080013C53C0000000E0FF3F8F4000000040D3F93DC00000000047FA53C00C000000130000000A0F00003C0000000600000002000000000000E0FF3F8F
310
4000000040F45732C000000000175F54C0000000E0FF3F8F40000000A020793CC0000000A0B0DC54C00C00000013000000120F00003C0000000600000002000000000000E0FF3F8F4000000040EA0831C0000000C0408E55C0000000E0FF3F8F4000000040AD523BC0000000E0E8C555C00C000000130000001A0F00003C00
310
00000600000002000000000000E0FF3F8F40000000C07DC430C0000000004EBD55C0000000E0FF3F8F4000000000B68D3AC00000000001C856C00C00000013000000220F00003C0000000600000002000000000000E0FF3F8F4000000080005230C0000000C084E655C0000000E0FF3F8F40000000006F2A3AC00000000078
310
E357C00C000000130000002A0F00003C0000000600000002000000000000E0FF3F8F4000000080005230C0000000C084E655C0000000E0FF3F8F40000000C0E8273AC000000080001659C00C00000013000000320F00003C0000000600000002000000000000E0FF3F8F4000000000B17418C000000040ECB758C0000000E0
310
FF3F8F40000000C0987232C0000000E02E1759C00C000000130000003A0F00003C0000000600000002000000000000E0FF3F8F4000000000B17418C000000040ECB758C0000000E0FF3F8F40000000C06F7132C0000000C0D93B59C00C00000013000000420F00003C0000000600000002000000000000E0FF3F8F40000000
310
00B17418C000000040ECB758C0000000E0FF3F8F40000000C0EE6432C000000080AF8259C00C000000130000004A0F00003C0000000600000002000000000000E0FF3F8F4000000000B17418C000000040ECB758C0000000E0FF3F8F4000000040DB4032C0000000005FDC59C00C00000013000000520F00003C0000000600
310
000002000000000000E0FF3F8F4000000000B17418C000000040ECB758C0000000E0FF3F8F40000000C0870532C00000000065305AC00C000000130000005A0F00003C0000000600000002000000000000E0FF3F8F4000000000B17418C000000040ECB758C0000000E0FF3F8F4000000000FBB231C000000000CD7E5AC00C
310
00000013000000620F00003C0000000600000002000000000000E0FF3F8F4000000000BED415C000000000F7DA58C0000000E0FF3F8F4000000080F44831C0000000402FC75AC00C000000130000006A0F00003C0000000600000002000000000000E0FF3F8F4000000000BED415C000000000F7DA58C0000000E0FF3F8F40
310
00000000C1C730C00000008040095BC00C00000013000000720F00003C0000000600000002000000000000E0FF3F8F4000000000BED415C000000000F7DA58C0000000E0FF3F8F4000000000E02E30C0000000E029455BC00C000000130000007A0F00003C0000000600000002000000000000E0FF3F8F4000000000BED415
310
C000000000F7DA58C0000000E0FF3F8F4000000080F0F82EC0000000C01F7B5BC00C00000013000000820F00003C0000000600000002000000000000E0FF3F8F4000000000BED415C000000000F7DA58C0000000E0FF3F8F4000000000F2612DC0000000003DAB5BC00C000000130000008A0F00003C000000060000000200
310
0000000000E0FF3F8F400000000092B212C00000000032F158C0000000E0FF3F8F40000000001A952BC00000004039D55BC00C00000013000000920F00003C0000000600000002000000000000E0FF3F8F400000000092B212C00000000032F158C0000000E0FF3F8F4000000000C48C29C000000000E8F85BC00C00000013
310
0000009A0F00003C0000000600000002000000000000E0FF3F8F400000000092B212C00000000032F158C0000000E0FF3F8F4000000080174A27C00000004057165CC00C00000013000000A20F00003C0000000600000002000000000000E0FF3F8F400000000092B212C00000000032F158C0000000E0FF3F8F4000000080
310
5DD024C000000080DD2C5CC00C00000013000000AA0F00003C0000000600000002000000000000E0FF3F8F400000000092B212C00000000032F158C0000000E0FF3F8F4000000080CC2022C0000000802C3C5CC00C00000013000000B20F00003C0000000600000002000000000000E0FF3F8F4000000000B8980EC0000000
310
40E4F858C0000000E0FF3F8F400000000062751EC0000000C071445CC00C00000013000000BA0F00003C0000000600000002000000000000E0FF3F8F4000000000B8980EC000000040E4F858C0000000E0FF3F8F4000000000C875E7BF000000E0B8D15BC00C00000013000000C20F00003C00000006000000020000000000
310
00E0FF3F8F40000000003CBEF2BF00000000EEF95BC0000000E0FF3F8F40000000008FA21AC00000000052465CC00C00000013000000CA0F00003C0000000600000002000000000000E0FF3F8F40000000000C00F5BF00000020F6295CC0000000E0FF3F8F40000000008FA21AC00000000052465CC00C00000013000000D2
310
0F00003C0000000600000002000000000000E0FF3F8F4000000000B8980EC000000040E4F858C0000000E0FF3F8F40000000008FA21AC00000000052465CC00C00000013000000DA0F00003C0000000600000002000000000000E0FF3F8F40000000008FA21AC00000000052465CC0000000E0FF3F8F4000000000CC1BF2BF
310
0000004075595CC00C00000013000000E20F00003C0000000600000002000000000000E0FF3F8F40000000008824E5BF000000C027805CC0000000E0FF3F8F400000000003B91AC000000000EA8F5EC0
100
AcDbSubDMesh
 71
     2
 72
     0
 91
        0
 92
      234
 10
-999.9998779296875
 20
-110.728759765625
 30
-9.149898529052734
 10
-999.9998779296875
 20
-105.5899200439453
 30
-9.162212371826171
 10
-999.9998779296875
 20
-95.85048675537109
 30
-19.3521614074707
 10
-999.9998779296875
 20
-95.85591125488281
 30
-18.79557800292969
 10
-999.9998779296875
 20
-95.92100524902344
 30
-17.64720916748047
 10
-999.9998779296875
 20
-96.06875610351563
 30
-16.51124954223632
 10
-999.9998779296875
 20
-96.28086853027344
 30
-15.51971435546875
 10
-999.9998779296875
 20
-96.56332397460937
 30
-14.58998870849609
 10
-999.9998779296875
 20
-96.93846893310547
 30
-13.67887115478515
 10
-999.9998779296875
 20
-97.40596771240234
 30
-12.83602142333984
 10
-999.9998779296875
 20
-97.95172882080079
 30
-12.09137725830078
 10
-999.9998779296875
 20
-98.56327819824219
 30
-11.4390983581543
 10
-999.9998779296875
 20
-99.23751831054687
 30
-10.88171768188476
 10
-999.9998779296875
 20
-99.98114013671875
 30
-10.40999984741211
 10
-999.9998779296875
 20
-100.7976608276367
 30
-10.01205825805664
 10
-999.9998779296875
 20
-101.6861267089844
 30
-9.690479278564453
 10
-999.9998779296875
 20
-102.6548461914062
 30
-9.445487976074218
 10
-999.9998779296875
 20
-103.7076950073242
 30
-9.276638031005859
 10
-999.9998779296875
 20
-104.842414855957
 30
-9.18417739868164
 10
-999.9998779296875
 20
-95.85656738281249
 30
-21.89380645751953
 10
-999.9998779296875
 20
-88.66220092773437
 30
-21.91103744506836
 10
-999.9998779296875
 20
-26.1558837890625
 30
-100.3437805175781
 10
-999.9998779296875
 20
-26.16574478149414
 30
-95.55419921875
 10
-999.9998779296875
 20
-26.55354690551758
 30
-91.12506103515626
 10
-999.9998779296875
 20
-27.32294464111328
 30
-87.09233856201171
 10
-999.9998779296875
 20
-28.47314453125
 30
-83.44828033447265
 10
-999.9998779296875
 20
-29.97586822509766
 30
-79.91059112548828
 10
-999.9998779296875
 20
-31.82938766479492
 30
-76.42500305175781
 10
-999.9998779296875
 20
-34.03180694580078
 30
-73.09761047363281
 10
-999.9998779296875
 20
-36.5992431640625
 30
-69.94284057617187
 10
-999.9998779296875
 20
-39.49984741210938
 30
-66.99205780029297
 10
-999.9998779296875
 20
-42.65703582763672
 30
-64.39540100097656
 10
-999.9998779296875
 20
-46.09141159057617
 30
-62.141845703125
 10
-999.9998779296875
 20
-49.68816757202148
 30
-60.08422088623047
 10
-999.9998779296875
 20
-53.45807647705078
 30
-58.25483322143554
 10
-999.9998779296875
 20
-57.3146743774414
 30
-56.50155258178711
 10
-999.9998779296875
 20
-61.1928367614746
 30
-54.68028259277343
 10
-999.9998779296875
 20
-65.07649993896484
 30
-52.81324386596679
 10
-999.9998779296875
 20
-68.74870300292968
 30
-50.72595977783203
 10
-999.9998779296875
 20
-72.25165557861328
 30
-48.43626785278321
 10
-999.9998779296875
 20
-75.41745758056641
 30
-45.91690063476562
 10
-999.9998779296875
 20
-78.15180969238281
 30
-43.13344955444335
 10
-999.9998779296875
 20
-80.54795074462891
 30
-40.13518142700195
 10
-999.9998779296875
 20
-82.65499877929688
 30
-36.99333190917969
 10
-999.9998779296875
 20
-84.46585845947266
 30
-33.67644119262696
 10
-999.9998779296875
 20
-86.07138061523437
 30
-30.05613899230957
 10
-999.9998779296875
 20
-87.4741439819336
 30
-26.1289176940918
 10
-999.9998779296875
 20
-18.4476318359375
 30
-100.3622360229492
 10
-999.9998779296875
 20
-6.658737182617187
 30
-113.0987548828125
 10
-999.9998779296875
 20
-7.6146240234375
 30
-113.0694427490234
 10
-999.9998779296875
 20
-9.064052581787109
 30
-112.9402160644531
 10
-999.9998779296875
 20
-10.40695190429687
 30
-112.7010192871094
 10
-999.9998779296875
 20
-11.64470291137695
 30
-112.3490753173828
 10
-999.9998779296875
 20
-12.77492523193359
 30
-111.88916015625
 10
-999.9998779296875
 20
-13.79120254516601
 30
-111.3316192626953
 10
-999.9998779296875
 20
-14.69129180908203
 30
-110.6755981445312
 10
-999.9998779296875
 20
-15.48619842529297
 30
-109.9238128662109
 10
-999.9998779296875
 20
-16.1830940246582
 30
-109.0806808471679
 10
-999.9998779296875
 20
-16.78028106689453
 30
-108.1445617675781
 10
-999.9998779296875
 20
-17.28496932983398
 30
-107.1122589111328
 10
-999.9998779296875
 20
-17.69913101196289
 30
-105.9812622070312
 10
-999.9998779296875
 20
-18.02158737182617
 30
-104.7561721801758
 10
-999.9998779296875
 20
-18.25333404541015
 30
-103.4432983398437
 10
-999.9998779296875
 20
-18.39425659179687
 30
-102.0419616699218
 10
-999.9998779296875
 20
-18.44309997558594
 30
-100.9351654052734
 10
-999.9998779296875
 20
-6.6806640625
 30
-122.2486572265625
 10
-999.9998779296875
 20
-100.6690063476562
 30
-0.907501220703125
 10
-999.9998779296875
 20
-99.62071228027344
 30
-0.0265426635742188
 10
-999.9998779296875
 20
-103.6452178955078
 30
-0.0169029235839844
 10
-999.9998779296875
 20
-103.3072967529297
 30
-0.6610221862792969
 10
-999.9998779296875
 20
-102.7428741455078
 30
-1.124588012695312
 10
-999.9998779296875
 20
-102.0406799316406
 30
-1.334709167480468
 10
-999.9998779296875
 20
-101.3111572265625
 30
-1.258342742919921
 10
-999.9998779296875
 20
-0.7331161499023438
 30
-111.2769165039062
 10
-999.9998779296875
 20
-1.171432495117187
 30
-111.9051513671875
 10
-999.9998779296875
 20
-1.3125
 30
-112.6556549072265
 10
-999.9998779296875
 20
-1.131778717041015
 30
-113.3977813720703
 10
-999.9998779296875
 20
-0.6607017517089844
 30
-114.0024261474609
 10
-999.9998779296875
 20
0.0187530517578125
 30
-114.364387512207
 10
-999.9998779296875
 20
0.0278511047363281
 30
-110.5663299560547
 10
-999.9998779296875
 20
-88.10993957519531
 30
-5.885154724121093
 10
-999.9998779296875
 20
-88.09597015380859
 30
-0.0541419982910156
 10
-999.9998779296875
 20
0.0533943176269531
 30
-99.89820861816406
 10
-999.9998779296875
 20
-3.82455825805664
 30
-99.88893127441407
 10
-999.9998779296875
 20
-6.113948822021484
 30
-98.87379455566406
 10
-999.9998779296875
 20
-5.457744598388671
 30
-99.42132568359376
 10
-999.9998779296875
 20
-4.674369812011718
 30
-99.7686767578125
 10
-999.9998779296875
 20
-16.32030868530273
 30
-87.60185241699218
 10
-999.9998779296875
 20
-17.03481292724609
 30
-86.22270202636718
 10
-999.9998779296875
 20
-16.76753234863281
 30
-86.95788574218751
 10
-999.9998779296875
 20
-59.73970031738281
 30
-44.07984542846679
 10
-999.9998779296875
 20
-53.79691314697265
 30
-46.77993392944336
 10
-999.9998779296875
 20
-48.33243560791015
 30
-49.39498138427734
 10
-999.9998779296875
 20
-43.34992218017577
 30
-51.89156341552735
 10
-999.9998779296875
 20
-38.81298446655274
 30
-54.63930511474609
 10
-999.9998779296875
 20
-34.71094512939453
 30
-57.65935516357422
 10
-999.9998779296875
 20
-31.00231552124024
 30
-60.97872161865234
 10
-999.9998779296875
 20
-27.6887321472168
 30
-64.57793426513672
 10
-999.9998779296875
 20
-24.76494598388672
 30
-68.45002746582031
 10
-999.9998779296875
 20
-22.22623062133789
 30
-72.57257080078125
 10
-999.9998779296875
 20
-20.07289886474609
 30
-76.93759155273437
 10
-999.9998779296875
 20
-18.34355926513672
 30
-81.48578643798828
 10
-999.9998779296875
 20
-77.05485534667968
 30
-24.95695495605469
 10
-999.9998779296875
 20
-78.60441589355469
 30
-19.74853515625
 10
-999.9998779296875
 20
-77.86373901367188
 30
-22.53653717041016
 10
-999.9998779296875
 20
-85.97895050048828
 30
-8.792724609375
 10
-999.9998779296875
 20
-83.65563964843749
 30
-9.877895355224609
 10
-999.9998779296875
 20
-81.71766662597656
 30
-11.49802017211914
 10
-999.9998779296875
 20
-80.22966003417968
 30
-13.62968826293945
 10
-999.9998779296875
 20
-79.6512451171875
 30
-14.91555023193359
 10
-999.9998779296875
 20
-79.18992614746094
 30
-16.33403015136719
 10
-999.9998779296875
 20
-78.85324096679688
 30
-17.86931228637695
 10
-999.9998779296875
 20
-87.96070098876953
 30
-6.829792022705078
 10
-999.9998779296875
 20
-87.52313232421874
 30
-7.682338714599609
 10
-999.9998779296875
 20
-86.84024810791015
 30
-8.358997344970703
 10
-999.9998779296875
 20
-0.0001678466796875
 30
-122.264663696289
 10
-999.9998779296875
 20
-110.7068481445312
 30
0.0000076293945313
 10
999.9999389648436
 20
-110.7287673950195
 30
-9.14990234375
 10
999.9999389648436
 20
-103.3073120117187
 30
-0.6610221862792969
 10
999.9999389648436
 20
-102.7428894042968
 30
-1.124584197998046
 10
999.9999389648436
 20
-105.5899353027343
 30
-9.162212371826171
 10
999.9999389648436
 20
-110.7068557739258
 30
0.0000076293945313
 10
999.9999389648436
 20
-103.6452331542969
 30
-0.0169029235839844
 10
999.9999389648436
 20
-103.7077026367187
 30
-9.276638031005859
 10
999.9999389648436
 20
-104.8424224853515
 30
-9.184181213378906
 10
999.9999389648436
 20
-102.0406951904297
 30
-1.334709167480468
 10
999.9999389648436
 20
-102.6548538208007
 30
-9.445484161376953
 10
999.9999389648436
 20
-101.3111724853515
 30
-1.258342742919921
 10
999.9999389648436
 20
-99.98114776611329
 30
-10.40999603271484
 10
999.9999389648436
 20
-100.7976684570312
 30
-10.01205444335937
 10
999.9999389648436
 20
-101.6861419677734
 30
-9.690479278564453
 10
999.9999389648436
 20
-100.6690216064453
 30
-0.907501220703125
 10
999.9999389648436
 20
-99.62071990966798
 30
-0.0265426635742188
 10
999.9999389648436
 20
-88.09597778320313
 30
-0.0541419982910156
 10
999.9999389648436
 20
-88.10994720458984
 30
-5.885154724121093
 10
999.9999389648436
 20
-87.96070861816406
 30
-6.829795837402343
 10
999.9999389648436
 20
-99.23752593994141
 30
-10.8817138671875
 10
999.9999389648436
 20
-87.52314758300782
 30
-7.682338714599609
 10
999.9999389648436
 20
-97.40597534179688
 30
-12.83602142333984
 10
999.9999389648436
 20
-97.95173645019531
 30
-12.09137725830078
 10
999.9999389648436
 20
-98.56329345703125
 30
-11.4390983581543
 10
999.9999389648436
 20
-86.84025573730469
 30
-8.358997344970703
 10
999.9999389648436
 20
-96.2808837890625
 30
-15.51971435546875
 10
999.9999389648436
 20
-96.56333923339843
 30
-14.58998870849609
 10
999.9999389648436
 20
-96.9384765625
 30
-13.67887115478515
 10
999.9999389648436
 20
-85.97895812988282
 30
-8.792724609375
 10
999.9999389648436
 20
-95.85592651367187
 30
-18.79557800292969
 10
999.9999389648436
 20
-95.92101287841797
 30
-17.6472053527832
 10
999.9999389648436
 20
-96.06876373291015
 30
-16.51125335693359
 10
999.9999389648436
 20
-83.65565490722657
 30
-9.877895355224609
 10
999.9999389648436
 20
-88.66221618652344
 30
-21.91103744506836
 10
999.9999389648436
 20
-95.85658264160157
 30
-21.8938102722168
 10
999.9999389648436
 20
-95.85049438476563
 30
-19.35216522216797
 10
999.9999389648436
 20
-81.71768188476562
 30
-11.49801635742187
 10
999.9999389648436
 20
-80.22967529296876
 30
-13.62968444824218
 10
999.9999389648436
 20
-79.65126037597656
 30
-14.91555023193359
 10
999.9999389648436
 20
-79.18994140625
 30
-16.33403015136719
 10
999.9999389648436
 20
-78.85325622558593
 30
-17.86931228637695
 10
999.9999389648436
 20
-78.60442352294922
 30
-19.74853515625
 10
999.9999389648436
 20
-77.86374664306641
 30
-22.53653717041016
 10
999.9999389648436
 20
-87.47415161132812
 30
-26.1289176940918
 10
999.9999389648436
 20
-86.07138824462891
 30
-30.05613899230957
 10
999.9999389648436
 20
-77.05486297607421
 30
-24.95695686340332
 10
999.9999389648436
 20
-84.46586608886718
 30
-33.67644119262696
 10
999.9999389648436
 20
-82.65501403808594
 30
-36.99333190917969
 10
999.9999389648436
 20
-80.54795837402343
 30
-40.13518142700195
 10
999.9999389648436
 20
-78.15182495117188
 30
-43.13344955444335
 10
999.9999389648436
 20
-59.73971176147461
 30
-44.07984542846679
 10
999.9999389648436
 20
-75.41747283935547
 30
-45.91690063476562
 10
999.9999389648436
 20
-72.25166320800781
 30
-48.43626785278321
 10
999.9999389648436
 20
-68.74871826171875
 30
-50.72595977783203
 10
999.9999389648436
 20
-65.07650756835937
 30
-52.81324005126953
 10
999.9999389648436
 20
-61.1928482055664
 30
-54.68028259277343
 10
999.9999389648436
 20
-53.79692459106445
 30
-46.77993392944336
 10
999.9999389648436
 20
-57.31468963623047
 30
-56.50155258178711
 10
999.9999389648436
 20
-48.33244705200195
 30
-49.39498138427734
 10
999.9999389648436
 20
-53.45809173583984
 30
-58.25483322143554
 10
999.9999389648436
 20
-43.34993362426757
 30
-51.89156341552735
 10
999.9999389648436
 20
-49.68817901611328
 30
-60.08422088623047
 10
999.9999389648436
 20
-38.81299591064453
 30
-54.63930511474609
 10
999.9999389648436
 20
-46.09142303466796
 30
-62.141845703125
 10
999.9999389648436
 20
-34.71095657348633
 30
-57.65935516357422
 10
999.9999389648436
 20
-42.65705108642578
 30
-64.39540100097656
 10
999.9999389648436
 20
-31.00232696533203
 30
-60.97872161865234
 10
999.9999389648436
 20
-39.49985885620117
 30
-66.99205780029297
 10
999.9999389648436
 20
-27.68874359130859
 30
-64.57793426513672
 10
999.9999389648436
 20
-36.5992546081543
 30
-69.94284057617187
 10
999.9999389648436
 20
-24.76495742797852
 30
-68.45002746582031
 10
999.9999389648436
 20
-34.03181838989258
 30
-73.09761047363281
 10
999.9999389648436
 20
-22.22624206542969
 30
-72.57257080078125
 10
999.9999389648436
 20
-31.82939910888672
 30
-76.42500305175781
 10
999.9999389648436
 20
-20.07291030883789
 30
-76.93759155273437
 10
999.9999389648436
 20
-29.97587966918946
 30
-79.91058349609375
 10
999.9999389648436
 20
-18.34357070922851
 30
-81.48577880859376
 10
999.9999389648436
 20
-28.47315406799316
 30
-83.44828033447265
 10
999.9999389648436
 20
-17.03482437133789
 30
-86.22270202636718
 10
999.9999389648436
 20
-27.32295608520508
 30
-87.09233856201171
 10
999.9999389648436
 20
-16.76754379272461
 30
-86.95788574218751
 10
999.9999389648436
 20
-26.55355834960938
 30
-91.12506103515626
 10
999.9999389648436
 20
-16.32032012939453
 30
-87.60185241699218
 10
999.9999389648436
 20
-26.16575622558594
 30
-95.55419921875
 10
999.9999389648436
 20
-26.1558952331543
 30
-100.3437805175781
 10
999.9999389648436
 20
-6.113956451416015
 30
-98.87379455566406
 10
999.9999389648436
 20
-18.4476432800293
 30
-100.3622360229492
 10
999.9999389648436
 20
-18.39426803588867
 30
-102.0419616699218
 10
999.9999389648436
 20
-18.44311141967773
 30
-100.9351654052734
 10
999.9999389648436
 20
-18.25334548950195
 30
-103.4432983398437
 10
999.9999389648436
 20
-18.02160263061523
 30
-104.7561645507812
 10
999.9999389648436
 20
-17.69914245605469
 30
-105.9812622070312
 10
999.9999389648436
 20
-5.457756042480468
 30
-99.42132568359376
 10
999.9999389648436
 20
-16.78028869628906
 30
-108.1445617675781
 10
999.9999389648436
 20
-17.28498077392578
 30
-107.1122589111328
 10
999.9999389648436
 20
-16.18310546875
 30
-109.0806808471679
 10
999.9999389648436
 20
-15.48620986938476
 30
-109.9238128662109
 10
999.9999389648436
 20
-14.69129943847656
 30
-110.6755981445312
 10
999.9999389648436
 20
-4.674385070800781
 30
-99.7686767578125
 10
999.9999389648436
 20
-13.79121398925781
 30
-111.3316192626953
 10
999.9999389648436
 20
-12.77493286132812
 30
-111.88916015625
 10
999.9999389648436
 20
-11.64471054077148
 30
-112.3490753173828
 10
999.9999389648436
 20
-10.40696334838867
 30
-112.7010192871094
 10
999.9999389648436
 20
-9.06406021118164
 30
-112.9402160644531
 10
999.9999389648436
 20
-3.824569702148437
 30
-99.88893127441407
 10
999.9999389648436
 20
-7.614631652832031
 30
-113.0694427490234
 10
999.9999389648436
 20
0.0533828735351563
 30
-99.89820861816406
 10
999.9999389648436
 20
0.0278358459472656
 30
-110.5663299560547
 10
999.9999389648436
 20
-0.7331275939941407
 30
-111.2769088745117
 10
999.9999389648436
 20
-1.171443939208984
 30
-111.9051513671875
 10
999.9999389648436
 20
-1.312511444091796
 30
-112.655647277832
 10
999.9999389648436
 20
-6.658748626708984
 30
-113.0987548828125
 10
999.9999389648436
 20
-1.131786346435546
 30
-113.3977813720703
 10
999.9999389648436
 20
-0.6607093811035157
 30
-114.0024261474609
 10
999.9999389648436
 20
-6.680675506591796
 30
-122.2486572265625
 10
999.9999389648436
 20
0.0187416076660156
 30
-114.3643798828125
 10
999.9999389648436
 20
-0.0001792907714844
 30
-122.2646713256836
 93
     1295
 90
        4
 90
       65
 90
      115
 90
      233
 90
      231
 90
        4
 90
      115
 90
       78
 90
      232
 90
      233
 90
        4
 90
       78
 90
       77
 90
      230
 90
      232
 90
        4
 90
       77
 90
       76
 90
      229
 90
      230
 90
        4
 90
       76
 90
       75
 90
      227
 90
      229
 90
        4
 90
       75
 90
       74
 90
      226
 90
      227
 90
        4
 90
       74
 90
       73
 90
      225
 90
      226
 90
        4
 90
       73
 90
       79
 90
      224
 90
      225
 90
        4
 90
       79
 90
       82
 90
      223
 90
      224
 90
        4
 90
       82
 90
       83
 90
      221
 90
      223
 90
        4
 90
       83
 90
       86
 90
      215
 90
      221
 90
        4
 90
       86
 90
       85
 90
      209
 90
      215
 90
        4
 90
       85
 90
       84
 90
      202
 90
      209
 90
        4
 90
       84
 90
       87
 90
      199
 90
      202
 90
        4
 90
       87
 90
       89
 90
      197
 90
      199
 90
        4
 90
       89
 90
       88
 90
      195
 90
      197
 90
        4
 90
       88
 90
      101
 90
      193
 90
      195
 90
        4
 90
      101
 90
      100
 90
      191
 90
      193
 90
        4
 90
      100
 90
       99
 90
      189
 90
      191
 90
        4
 90
       99
 90
       98
 90
      187
 90
      189
 90
        4
 90
       98
 90
       97
 90
      185
 90
      187
 90
        4
 90
       97
 90
       96
 90
      183
 90
      185
 90
        4
 90
       96
 90
       95
 90
      181
 90
      183
 90
        4
 90
       95
 90
       94
 90
      179
 90
      181
 90
        4
 90
       94
 90
       93
 90
      177
 90
      179
 90
        4
 90
       93
 90
       92
 90
      175
 90
      177
 90
        4
 90
       92
 90
       91
 90
      173
 90
      175
 90
        4
 90
       91
 90
       90
 90
      167
 90
      173
 90
        4
 90
       90
 90
      102
 90
      162
 90
      167
 90
        4
 90
      102
 90
      104
 90
      159
 90
      162
 90
        4
 90
      104
 90
      103
 90
      158
 90
      159
 90
        4
 90
      103
 90
      111
 90
      157
 90
      158
 90
        4
 90
      111
 90
      110
 90
      156
 90
      157
 90
        4
 90
      110
 90
      109
 90
      155
 90
      156
 90
        4
 90
      109
 90
      108
 90
      154
 90
      155
 90
        4
 90
      108
 90
      107
 90
      153
 90
      154
 90
        4
 90
      107
 90
      106
 90
      149
 90
      153
 90
        4
 90
      106
 90
      105
 90
      145
 90
      149
 90
        4
 90
      105
 90
      114
 90
      141
 90
      145
 90
        4
 90
      114
 90
      113
 90
      137
 90
      141
 90
        4
 90
      113
 90
      112
 90
      135
 90
      137
 90
        4
 90
      112
 90
       80
 90
      134
 90
      135
 90
        4
 90
       80
 90
       81
 90
      133
 90
      134
 90
        4
 90
       81
 90
       67
 90
      132
 90
      133
 90
        4
 90
       67
 90
       66
 90
      131
 90
      132
 90
        4
 90
       66
 90
       72
 90
      127
 90
      131
 90
        4
 90
       72
 90
       71
 90
      125
 90
      127
 90
        4
 90
       71
 90
       70
 90
      119
 90
      125
 90
        4
 90
       70
 90
       69
 90
      118
 90
      119
 90
        4
 90
       69
 90
       68
 90
      122
 90
      118
 90
        4
 90
       68
 90
      116
 90
      121
 90
      122
 90
        4
 90
      116
 90
        0
 90
      117
 90
      121
 90
        4
 90
        0
 90
        1
 90
      120
 90
      117
 90
        4
 90
        1
 90
       18
 90
      124
 90
      120
 90
        4
 90
       18
 90
       17
 90
      123
 90
      124
 90
        4
 90
       17
 90
       16
 90
      126
 90
      123
 90
        4
 90
       16
 90
       15
 90
      130
 90
      126
 90
        4
 90
       15
 90
       14
 90
      129
 90
      130
 90
        4
 90
       14
 90
       13
 90
      128
 90
      129
 90
        4
 90
       13
 90
       12
 90
      136
 90
      128
 90
        4
 90
       12
 90
       11
 90
      140
 90
      136
 90
        4
 90
       11
 90
       10
 90
      139
 90
      140
 90
        4
 90
       10
 90
        9
 90
      138
 90
      139
 90
        4
 90
        9
 90
        8
 90
      144
 90
      138
 90
        4
 90
        8
 90
        7
 90
      143
 90
      144
 90
        4
 90
        7
 90
        6
 90
      142
 90
      143
 90
        4
 90
        6
 90
        5
 90
      148
 90
      142
 90
        4
 90
        5
 90
        4
 90
      147
 90
      148
 90
        4
 90
        4
 90
        3
 90
      146
 90
      147
 90
        4
 90
        3
 90
        2
 90
      152
 90
      146
 90
        4
 90
        2
 90
       19
 90
      151
 90
      152
 90
        4
 90
       19
 90
       20
 90
      150
 90
      151
 90
        4
 90
       20
 90
       46
 90
      160
 90
      150
 90
        4
 90
       46
 90
       45
 90
      161
 90
      160
 90
        4
 90
       45
 90
       44
 90
      163
 90
      161
 90
        4
 90
       44
 90
       43
 90
      164
 90
      163
 90
        4
 90
       43
 90
       42
 90
      165
 90
      164
 90
        4
 90
       42
 90
       41
 90
      166
 90
      165
 90
        4
 90
       41
 90
       40
 90
      168
 90
      166
 90
        4
 90
       40
 90
       39
 90
      169
 90
      168
 90
        4
 90
       39
 90
       38
 90
      170
 90
      169
 90
        4
 90
       38
 90
       37
 90
      171
 90
      170
 90
        4
 90
       37
 90
       36
 90
      172
 90
      171
 90
        4
 90
       36
 90
       35
 90
      174
 90
      172
 90
        4
 90
       35
 90
       34
 90
      176
 90
      174
 90
        4
 90
       34
 90
       33
 90
      178
 90
      176
 90
        4
 90
       33
 90
       32
 90
      180
 90
      178
 90
        4
 90
       32
 90
       31
 90
      182
 90
      180
 90
        4
 90
       31
 90
       30
 90
      184
 90
      182
 90
        4
 90
       30
 90
       29
 90
      186
 90
      184
 90
        4
 90
       29
 90
       28
 90
      188
 90
      186
 90
        4
 90
       28
 90
       27
 90
      190
 90
      188
 90
        4
 90
       27
 90
       26
 90
      192
 90
      190
 90
        4
 90
       26
 90
       25
 90
      194
 90
      192
 90
        4
 90
       25
 90
       24
 90
      196
 90
      194
 90
        4
 90
       24
 90
       23
 90
      198
 90
      196
 90
        4
 90
       23
 90
       22
 90
      200
 90
      198
 90
        4
 90
       22
 90
       21
 90
      201
 90
      200
 90
        4
 90
       21
 90
       47
 90
      203
 90
      201
 90
        4
 90
       47
 90
       64
 90
      205
 90
      203
 90
        4
 90
       64
 90
       63
 90
      204
 90
      205
 90
        4
 90
       63
 90
       62
 90
      206
 90
      204
 90
        4
 90
       62
 90
       61
 90
      207
 90
      206
 90
        4
 90
       61
 90
       60
 90
      208
 90
      207
 90
        4
 90
       60
 90
       59
 90
      211
 90
      208
 90
        4
 90
       59
 90
       58
 90
      210
 90
      211
 90
        4
 90
       58
 90
       57
 90
      212
 90
      210
 90
        4
 90
       57
 90
       56
 90
      213
 90
      212
 90
        4
 90
       56
 90
       55
 90
      214
 90
      213
 90
        4
 90
       55
 90
       54
 90
      216
 90
      214
 90
        4
 90
       54
 90
       53
 90
      217
 90
      216
 90
        4
 90
       53
 90
       52
 90
      218
 90
      217
 90
        4
 90
       52
 90
       51
 90
      219
 90
      218
 90
        4
 90
       51
 90
       50
 90
      220
 90
      219
 90
        4
 90
       50
 90
       49
 90
      222
 90
      220
 90
        4
 90
       49
 90
       48
 90
      228
 90
      222
 90
        4
 90
       48
 90
       65
 90
      231
 90
      228
 90
        4
 90
        0
 90
       69
 90
       70
 90
        1
 90
        4
 90
        0
 90
      116
 90
       68
 90
       69
 90
        3
 90
       70
 90
       17
 90
       18
 90
        3
 90
       70
 90
       18
 90
        1
 90
        4
 90
       70
 90
       71
 90
       16
 90
       17
 90
        4
 90
       71
 90
       72
 90
       13
 90
       14
 90
        3
 90
       71
 90
       14
 90
       15
 90
        3
 90
       71
 90
       15
 90
       16
 90
        3
 90
       72
 90
       66
 90
       13
 90
        4
 90
       66
 90
       67
 90
       81
 90
       80
 90
        3
 90
       66
 90
       80
 90
       13
 90
        4
 90
       80
 90
      112
 90
       12
 90
       13
 90
        4
 90
      112
 90
      113
 90
        9
 90
       10
 90
        3
 90
      112
 90
       10
 90
       11
 90
        3
 90
      112
 90
       11
 90
       12
 90
        4
 90
      113
 90
      114
 90
        6
 90
        7
 90
        3
 90
      113
 90
        7
 90
        8
 90
        3
 90
      113
 90
        8
 90
        9
 90
        4
 90
      114
 90
      105
 90
        3
 90
        4
 90
        3
 90
      114
 90
        4
 90
        5
 90
        3
 90
      114
 90
        5
 90
        6
 90
        4
 90
      105
 90
      106
 90
       20
 90
       19
 90
        3
 90
      105
 90
       19
 90
        2
 90
        3
 90
      105
 90
        2
 90
        3
 90
        3
 90
      106
 90
      107
 90
       20
 90
        3
 90
      107
 90
      108
 90
       20
 90
        3
 90
      108
 90
      109
 90
       20
 90
        3
 90
      109
 90
      110
 90
       20
 90
        3
 90
      110
 90
      111
 90
       20
 90
        3
 90
      111
 90
      103
 90
       20
 90
        4
 90
      103
 90
      104
 90
       46
 90
       20
 90
        3
 90
      104
 90
       45
 90
       46
 90
        4
 90
      104
 90
      102
 90
       44
 90
       45
 90
        3
 90
      102
 90
       43
 90
       44
 90
        3
 90
      102
 90
       42
 90
       43
 90
        3
 90
      102
 90
       41
 90
       42
 90
        4
 90
      102
 90
       90
 90
       40
 90
       41
 90
        3
 90
       90
 90
       39
 90
       40
 90
        3
 90
       90
 90
       38
 90
       39
 90
        3
 90
       90
 90
       37
 90
       38
 90
        3
 90
       90
 90
       36
 90
       37
 90
        4
 90
       90
 90
       91
 90
       35
 90
       36
 90
        4
 90
       91
 90
       92
 90
       34
 90
       35
 90
        4
 90
       92
 90
       93
 90
       33
 90
       34
 90
        4
 90
       93
 90
       94
 90
       32
 90
       33
 90
        4
 90
       94
 90
       95
 90
       31
 90
       32
 90
        4
 90
       95
 90
       96
 90
       30
 90
       31
 90
        4
 90
       96
 90
       97
 90
       29
 90
       30
 90
        4
 90
       97
 90
       98
 90
       28
 90
       29
 90
        4
 90
       98
 90
       99
 90
       27
 90
       28
 90
        4
 90
       99
 90
      100
 90
       26
 90
       27
 90
        4
 90
      100
 90
      101
 90
       25
 90
       26
 90
        4
 90
      101
 90
       88
 90
       24
 90
       25
 90
        4
 90
       88
 90
       89
 90
       23
 90
       24
 90
        4
 90
       89
 90
       87
 90
       22
 90
       23
 90
        3
 90
       87
 90
       21
 90
       22
 90
        4
 90
       87
 90
       84
 90
       47
 90
       21
 90
        3
 90
       84
 90
       63
 90
       64
 90
        3
 90
       84
 90
       64
 90
       47
 90
        3
 90
       84
 90
       62
 90
       63
 90
        3
 90
       84
 90
       61
 90
       62
 90
        3
 90
       84
 90
       60
 90
       61
 90
        3
 90
       85
 90
       58
 90
       59
 90
        3
 90
       85
 90
       57
 90
       58
 90
        3
 90
       85
 90
       56
 90
       57
 90
        4
 90
       84
 90
       85
 90
       59
 90
       60
 90
        3
 90
       85
 90
       55
 90
       56
 90
        4
 90
       85
 90
       86
 90
       54
 90
       55
 90
        3
 90
       86
 90
       53
 90
       54
 90
        3
 90
       86
 90
       52
 90
       53
 90
        3
 90
       86
 90
       51
 90
       52
 90
        3
 90
       86
 90
       50
 90
       51
 90
        4
 90
       86
 90
       83
 90
       49
 90
       50
 90
        4
 90
       83
 90
       82
 90
       79
 90
       73
 90
        3
 90
       74
 90
       75
 90
       48
 90
        4
 90
       83
 90
       73
 90
       74
 90
       48
 90
        3
 90
       83
 90
       48
 90
       49
 90
        3
 90
       75
 90
       76
 90
       48
 90
        4
 90
       76
 90
       77
 90
       65
 90
       48
 90
        4
 90
       77
 90
       78
 90
      115
 90
       65
 90
        4
 90
      117
 90
      120
 90
      119
 90
      118
 90
        4
 90
      117
 90
      118
 90
      122
 90
      121
 90
        3
 90
      119
 90
      124
 90
      123
 90
        3
 90
      119
 90
      120
 90
      124
 90
        4
 90
      119
 90
      123
 90
      126
 90
      125
 90
        4
 90
      125
 90
      129
 90
      128
 90
      127
 90
        3
 90
      125
 90
      130
 90
      129
 90
        3
 90
      125
 90
      126
 90
      130
 90
        3
 90
      127
 90
      128
 90
      131
 90
        4
 90
      131
 90
      134
 90
      133
 90
      132
 90
        3
 90
      131
 90
      128
 90
      134
 90
        4
 90
      134
 90
      128
 90
      136
 90
      135
 90
        4
 90
      135
 90
      139
 90
      138
 90
      137
 90
        3
 90
      135
 90
      140
 90
      139
 90
        3
 90
      135
 90
      136
 90
      140
 90
        4
 90
      137
 90
      143
 90
      142
 90
      141
 90
        3
 90
      137
 90
      144
 90
      143
 90
        3
 90
      137
 90
      138
 90
      144
 90
        4
 90
      141
 90
      147
 90
      146
 90
      145
 90
        3
 90
      141
 90
      148
 90
      147
 90
        3
 90
      141
 90
      142
 90
      148
 90
        4
 90
      145
 90
      151
 90
      150
 90
      149
 90
        3
 90
      145
 90
      152
 90
      151
 90
        3
 90
      145
 90
      146
 90
      152
 90
        3
 90
      149
 90
      150
 90
      153
 90
        3
 90
      153
 90
      150
 90
      154
 90
        3
 90
      154
 90
      150
 90
      155
 90
        3
 90
      155
 90
      150
 90
      156
 90
        3
 90
      156
 90
      150
 90
      157
 90
        3
 90
      157
 90
      150
 90
      158
 90
        4
 90
      158
 90
      150
 90
      160
 90
      159
 90
        3
 90
      159
 90
      160
 90
      161
 90
        4
 90
      159
 90
      161
 90
      163
 90
      162
 90
        3
 90
      162
 90
      163
 90
      164
 90
        3
 90
      162
 90
      164
 90
      165
 90
        3
 90
      162
 90
      165
 90
      166
 90
        4
 90
      162
 90
      166
 90
      168
 90
      167
 90
        3
 90
      167
 90
      168
 90
      169
 90
        3
 90
      167
 90
      169
 90
      170
 90
        3
 90
      167
 90
      170
 90
      171
 90
        3
 90
      167
 90
      171
 90
      172
 90
        4
 90
      167
 90
      172
 90
      174
 90
      173
 90
        4
 90
      173
 90
      174
 90
      176
 90
      175
 90
        4
 90
      175
 90
      176
 90
      178
 90
      177
 90
        4
 90
      177
 90
      178
 90
      180
 90
      179
 90
        4
 90
      179
 90
      180
 90
      182
 90
      181
 90
        4
 90
      181
 90
      182
 90
      184
 90
      183
 90
        4
 90
      183
 90
      184
 90
      186
 90
      185
 90
        4
 90
      185
 90
      186
 90
      188
 90
      187
 90
        4
 90
      187
 90
      188
 90
      190
 90
      189
 90
        4
 90
      189
 90
      190
 90
      192
 90
      191
 90
        4
 90
      191
 90
      192
 90
      194
 90
      193
 90
        4
 90
      193
 90
      194
 90
      196
 90
      195
 90
        4
 90
      195
 90
      196
 90
      198
 90
      197
 90
        4
 90
      197
 90
      198
 90
      200
 90
      199
 90
        3
 90
      199
 90
      200
 90
      201
 90
        4
 90
      199
 90
      201
 90
      203
 90
      202
 90
        3
 90
      202
 90
      205
 90
      204
 90
        3
 90
      202
 90
      203
 90
      205
 90
        3
 90
      202
 90
      204
 90
      206
 90
        3
 90
      202
 90
      206
 90
      207
 90
        3
 90
      202
 90
      207
 90
      208
 90
        3
 90
      209
 90
      211
 90
      210
 90
        3
 90
      209
 90
      210
 90
      212
 90
        3
 90
      209
 90
      212
 90
      213
 90
        4
 90
      202
 90
      208
 90
      211
 90
      209
 90
        3
 90
      209
 90
      213
 90
      214
 90
        4
 90
      209
 90
      214
 90
      216
 90
      215
 90
        3
 90
      215
 90
      216
 90
      217
 90
        3
 90
      215
 90
      217
 90
      218
 90
        3
 90
      215
 90
      218
 90
      219
 90
        3
 90
      215
 90
      219
 90
      220
 90
        4
 90
      215
 90
      220
 90
      222
 90
      221
 90
        4
 90
      221
 90
      225
 90
      224
 90
      223
 90
        3
 90
      226
 90
      228
 90
      227
 90
        4
 90
      221
 90
      228
 90
      226
 90
      225
 90
        3
 90
      221
 90
      222
 90
      228
 90
        3
 90
      227
 90
      228
 90
      229
 90
        4
 90
      229
 90
      228
 90
      231
 90
      230
 90
        4
 90
      230
 90
      231
 90
      233
 90
      232
 94
      509
 90
       65
 90
      115
 90
      115
 90
      233
 90
      231
 90
      233
 90
       65
 90
      231
 90
       78
 90
      115
 90
       78
 90
      232
 90
      232
 90
      233
 90
       77
 90
       78
 90
       77
 90
      230
 90
      230
 90
      232
 90
       76
 90
       77
 90
       76
 90
      229
 90
      229
 90
      230
 90
       75
 90
       76
 90
       75
 90
      227
 90
      227
 90
      229
 90
       74
 90
       75
 90
       74
 90
      226
 90
      226
 90
      227
 90
       73
 90
       74
 90
       73
 90
      225
 90
      225
 90
      226
 90
       73
 90
       79
 90
       79
 90
      224
 90
      224
 90
      225
 90
       79
 90
       82
 90
       82
 90
      223
 90
      223
 90
      224
 90
       82
 90
       83
 90
       83
 90
      221
 90
      221
 90
      223
 90
       83
 90
       86
 90
       86
 90
      215
 90
      215
 90
      221
 90
       85
 90
       86
 90
       85
 90
      209
 90
      209
 90
      215
 90
       84
 90
       85
 90
       84
 90
      202
 90
      202
 90
      209
 90
       84
 90
       87
 90
       87
 90
      199
 90
      199
 90
      202
 90
       87
 90
       89
 90
       89
 90
      197
 90
      197
 90
      199
 90
       88
 90
       89
 90
       88
 90
      195
 90
      195
 90
      197
 90
       88
 90
      101
 90
      101
 90
      193
 90
      193
 90
      195
 90
      100
 90
      101
 90
      100
 90
      191
 90
      191
 90
      193
 90
       99
 90
      100
 90
       99
 90
      189
 90
      189
 90
      191
 90
       98
 90
       99
 90
       98
 90
      187
 90
      187
 90
      189
 90
       97
 90
       98
 90
       97
 90
      185
 90
      185
 90
      187
 90
       96
 90
       97
 90
       96
 90
      183
 90
      183
 90
      185
 90
       95
 90
       96
 90
       95
 90
      181
 90
      181
 90
      183
 90
       94
 90
       95
 90
       94
 90
      179
 90
      179
 90
      181
 90
       93
 90
       94
 90
       93
 90
      177
 90
      177
 90
      179
 90
       92
 90
       93
 90
       92
 90
      175
 90
      175
 90
      177
 90
       91
 90
       92
 90
       91
 90
      173
 90
      173
 90
      175
 90
       90
 90
       91
 90
       90
 90
      167
 90
      167
 90
      173
 90
       90
 90
      102
 90
      102
 90
      162
 90
      162
 90
      167
 90
      102
 90
      104
 90
      104
 90
      159
 90
      159
 90
      162
 90
      103
 90
      104
 90
      103
 90
      158
 90
      158
 90
      159
 90
      103
 90
      111
 90
      111
 90
      157
 90
      157
 90
      158
 90
      110
 90
      111
 90
      110
 90
      156
 90
      156
 90
      157
 90
      109
 90
      110
 90
      109
 90
      155
 90
      155
 90
      156
 90
      108
 90
      109
 90
      108
 90
      154
 90
      154
 90
      155
 90
      107
 90
      108
 90
      107
 90
      153
 90
      153
 90
      154
 90
      106
 90
      107
 90
      106
 90
      149
 90
      149
 90
      153
 90
      105
 90
      106
 90
      105
 90
      145
 90
      145
 90
      149
 90
      105
 90
      114
 90
      114
 90
      141
 90
      141
 90
      145
 90
      113
 90
      114
 90
      113
 90
      137
 90
      137
 90
      141
 90
      112
 90
      113
 90
      112
 90
      135
 90
      135
 90
      137
 90
       80
 90
      112
 90
       80
 90
      134
 90
      134
 90
      135
 90
       80
 90
       81
 90
       81
 90
      133
 90
      133
 90
      134
 90
       67
 90
       81
 90
       67
 90
      132
 90
      132
 90
      133
 90
       66
 90
       67
 90
       66
 90
      131
 90
      131
 90
      132
 90
       66
 90
       72
 90
       72
 90
      127
 90
      127
 90
      131
 90
       71
 90
       72
 90
       71
 90
      125
 90
      125
 90
      127
 90
       70
 90
       71
 90
       70
 90
      119
 90
      119
 90
      125
 90
       69
 90
       70
 90
       69
 90
      118
 90
      118
 90
      119
 90
       68
 90
       69
 90
       68
 90
      122
 90
      118
 90
      122
 90
       68
 90
      116
 90
      116
 90
      121
 90
      121
 90
      122
 90
        0
 90
      116
 90
        0
 90
      117
 90
      117
 90
      121
 90
        0
 90
        1
 90
        1
 90
      120
 90
      117
 90
      120
 90
        1
 90
       18
 90
       18
 90
      124
 90
      120
 90
      124
 90
       17
 90
       18
 90
       17
 90
      123
 90
      123
 90
      124
 90
       16
 90
       17
 90
       16
 90
      126
 90
      123
 90
      126
 90
       15
 90
       16
 90
       15
 90
      130
 90
      126
 90
      130
 90
       14
 90
       15
 90
       14
 90
      129
 90
      129
 90
      130
 90
       13
 90
       14
 90
       13
 90
      128
 90
      128
 90
      129
 90
       12
 90
       13
 90
       12
 90
      136
 90
      128
 90
      136
 90
       11
 90
       12
 90
       11
 90
      140
 90
      136
 90
      140
 90
       10
 90
       11
 90
       10
 90
      139
 90
      139
 90
      140
 90
        9
 90
       10
 90
        9
 90
      138
 90
      138
 90
      139
 90
        8
 90
        9
 90
        8
 90
      144
 90
      138
 90
      144
 90
        7
 90
        8
 90
        7
 90
      143
 90
      143
 90
      144
 90
        6
 90
        7
 90
        6
 90
      142
 90
      142
 90
      143
 90
        5
 90
        6
 90
        5
 90
      148
 90
      142
 90
      148
 90
        4
 90
        5
 90
        4
 90
      147
 90
      147
 90
      148
 90
        3
 90
        4
 90
        3
 90
      146
 90
      146
 90
      147
 90
        2
 90
        3
 90
        2
 90
      152
 90
      146
 90
      152
 90
        2
 90
       19
 90
       19
 90
      151
 90
      151
 90
      152
 90
       19
 90
       20
 90
       20
 90
      150
 90
      150
 90
      151
 90
       20
 90
       46
 90
       46
 90
      160
 90
      150
 90
      160
 90
       45
 90
       46
 90
       45
 90
      161
 90
      160
 90
      161
 90
       44
 90
       45
 90
       44
 90
      163
 90
      161
 90
      163
 90
       43
 90
       44
 90
       43
 90
      164
 90
      163
 90
      164
 90
       42
 90
       43
 90
       42
 90
      165
 90
      164
 90
      165
 90
       41
 90
       42
 90
       41
 90
      166
 90
      165
 90
      166
 90
       40
 90
       41
 90
       40
 90
      168
 90
      166
 90
      168
 90
       39
 90
       40
 90
       39
 90
      169
 90
      168
 90
      169
 90
       38
 90
       39
 90
       38
 90
      170
 90
      169
 90
      170
 90
       37
 90
       38
 90
       37
 90
      171
 90
      170
 90
      171
 90
       36
 90
       37
 90
       36
 90
      172
 90
      171
 90
      172
 90
       35
 90
       36
 90
       35
 90
      174
 90
      172
 90
      174
 90
       34
 90
       35
 90
       34
 90
      176
 90
      174
 90
      176
 90
       33
 90
       34
 90
       33
 90
      178
 90
      176
 90
      178
 90
       32
 90
       33
 90
       32
 90
      180
 90
      178
 90
      180
 90
       31
 90
       32
 90
       31
 90
      182
 90
      180
 90
      182
 90
       30
 90
       31
 90
       30
 90
      184
 90
      182
 90
      184
 90
       29
 90
       30
 90
       29
 90
      186
 90
      184
 90
      186
 90
       28
 90
       29
 90
       28
 90
      188
 90
      186
 90
      188
 90
       27
 90
       28
 90
       27
 90
      190
 90
      188
 90
      190
 90
       26
 90
       27
 90
       26
 90
      192
 90
      190
 90
      192
 90
       25
 90
       26
 90
       25
 90
      194
 90
      192
 90
      194
 90
       24
 90
       25
 90
       24
 90
      196
 90
      194
 90
      196
 90
       23
 90
       24
 90
       23
 90
      198
 90
      196
 90
      198
 90
       22
 90
       23
 90
       22
 90
      200
 90
      198
 90
      200
 90
       21
 90
       22
 90
       21
 90
      201
 90
      200
 90
      201
 90
       21
 90
       47
 90
       47
 90
      203
 90
      201
 90
      203
 90
       47
 90
       64
 90
       64
 90
      205
 90
      203
 90
      205
 90
       63
 90
       64
 90
       63
 90
      204
 90
      204
 90
      205
 90
       62
 90
       63
 90
       62
 90
      206
 90
      204
 90
      206
 90
       61
 90
       62
 90
       61
 90
      207
 90
      206
 90
      207
 90
       60
 90
       61
 90
       60
 90
      208
 90
      207
 90
      208
 90
       59
 90
       60
 90
       59
 90
      211
 90
      208
 90
      211
 90
       58
 90
       59
 90
       58
 90
      210
 90
      210
 90
      211
 90
       57
 90
       58
 90
       57
 90
      212
 90
      210
 90
      212
 90
       56
 90
       57
 90
       56
 90
      213
 90
      212
 90
      213
 90
       55
 90
       56
 90
       55
 90
      214
 90
      213
 90
      214
 90
       54
 90
       55
 90
       54
 90
      216
 90
      214
 90
      216
 90
       53
 90
       54
 90
       53
 90
      217
 90
      216
 90
      217
 90
       52
 90
       53
 90
       52
 90
      218
 90
      217
 90
      218
 90
       51
 90
       52
 90
       51
 90
      219
 90
      218
 90
      219
 90
       50
 90
       51
 90
       50
 90
      220
 90
      219
 90
      220
 90
       49
 90
       50
 90
       49
 90
      222
 90
      220
 90
      222
 90
       48
 90
       49
 90
       48
 90
      228
 90
      222
 90
      228
 90
       48
 90
       65
 90
      228
 90
      231
 90
        0
 90
       69
 90
        1
 90
       70
 90
       17
 90
       70
 90
       18
 90
       70
 90
       16
 90
       71
 90
       13
 90
       72
 90
       14
 90
       71
 90
       15
 90
       71
 90
       13
 90
       66
 90
       66
 90
       80
 90
       13
 90
       80
 90
       12
 90
      112
 90
        9
 90
      113
 90
       10
 90
      112
 90
       11
 90
      112
 90
        6
 90
      114
 90
        7
 90
      113
 90
        8
 90
      113
 90
        3
 90
      105
 90
        4
 90
      114
 90
        5
 90
      114
 90
       20
 90
      106
 90
       19
 90
      105
 90
        2
 90
      105
 90
       20
 90
      107
 90
       20
 90
      108
 90
       20
 90
      109
 90
       20
 90
      110
 90
       20
 90
      111
 90
       20
 90
      103
 90
       46
 90
      104
 90
       45
 90
      104
 90
       44
 90
      102
 90
       43
 90
      102
 90
       42
 90
      102
 90
       41
 90
      102
 90
       40
 90
       90
 90
       39
 90
       90
 90
       38
 90
       90
 90
       37
 90
       90
 90
       36
 90
       90
 90
       35
 90
       91
 90
       34
 90
       92
 90
       33
 90
       93
 90
       32
 90
       94
 90
       31
 90
       95
 90
       30
 90
       96
 90
       29
 90
       97
 90
       28
 90
       98
 90
       27
 90
       99
 90
       26
 90
      100
 90
       25
 90
      101
 90
       24
 90
       88
 90
       23
 90
       89
 90
       22
 90
       87
 90
       21
 90
       87
 90
       47
 90
       84
 90
       63
 90
       84
 90
       64
 90
       84
 90
       62
 90
       84
 90
       61
 90
       84
 90
       60
 90
       84
 90
       58
 90
       85
 90
       59
 90
       85
 90
       57
 90
       85
 90
       56
 90
       85
 90
       55
 90
       85
 90
       54
 90
       86
 90
       53
 90
       86
 90
       52
 90
       86
 90
       51
 90
       86
 90
       50
 90
       86
 90
       49
 90
       83
 90
       73
 90
       83
 90
       48
 90
       75
 90
       48
 90
       74
 90
       48
 90
       83
 90
       48
 90
       76
 90
       65
 90
       77
 90
      119
 90
      120
 90
      117
 90
      118
 90
      119
 90
      124
 90
      119
 90
      123
 90
      125
 90
      126
 90
      125
 90
      129
 90
      127
 90
      128
 90
      125
 90
      130
 90
      128
 90
      131
 90
      131
 90
      134
 90
      128
 90
      134
 90
      135
 90
      136
 90
      135
 90
      139
 90
      137
 90
      138
 90
      135
 90
      140
 90
      137
 90
      143
 90
      141
 90
      142
 90
      137
 90
      144
 90
      141
 90
      147
 90
      145
 90
      146
 90
      141
 90
      148
 90
      145
 90
      151
 90
      149
 90
      150
 90
      145
 90
      152
 90
      150
 90
      153
 90
      150
 90
      154
 90
      150
 90
      155
 90
      150
 90
      156
 90
      150
 90
      157
 90
      150
 90
      158
 90
      159
 90
      160
 90
      159
 90
      161
 90
      162
 90
      163
 90
      162
 90
      164
 90
      162
 90
      165
 90
      162
 90
      166
 90
      167
 90
      168
 90
      167
 90
      169
 90
      167
 90
      170
 90
      167
 90
      171
 90
      167
 90
      172
 90
      173
 90
      174
 90
      175
 90
      176
 90
      177
 90
      178
 90
      179
 90
      180
 90
      181
 90
      182
 90
      183
 90
      184
 90
      185
 90
      186
 90
      187
 90
      188
 90
      189
 90
      190
 90
      191
 90
      192
 90
      193
 90
      194
 90
      195
 90
      196
 90
      197
 90
      198
 90
      199
 90
      200
 90
      199
 90
      201
 90
      202
 90
      203
 90
      202
 90
      205
 90
      202
 90
      204
 90
      202
 90
      206
 90
      202
 90
      207
 90
      202
 90
      208
 90
      209
 90
      211
 90
      209
 90
      210
 90
      209
 90
      212
 90
      209
 90
      213
 90
      209
 90
      214
 90
      215
 90
      216
 90
      215
 90
      217
 90
      215
 90
      218
 90
      215
 90
      219
 90
      215
 90
      220
 90
      221
 90
      222
 90
      221
 90
      225
 90
      226
 90
      228
 90
      227
 90
      228
 90
      221
 90
      228
 90
      228
 90
      229
 90
      230
 90
      231
 95
      509
140
0.0
140
0.0
140
0.0
140
0.0
140
0.0
140
0.0
140
0.0
140
0.0
140
0.0
140
0.0
140
0.0
140
0.0
140
0.0
140
0.0
140
0.0
140
0.0
140
0.0
140
0.0
140
0.0
140
0.0
140
0.0
140
0.0
140
0.0
140
0.0
140
0.0
140
0.0
140
0.0
140
0.0
140
0.0
140
0.0
140
0.0
140
0.0
140
0.0
140
0.0
140
0.0
140
0.0
140
0.0
140
0.0
140
0.0
140
0.0
140
0.0
140
0.0
140
0.0
140
0.0
140
0.0
140
0.0
140
0.0
140
0.0
140
0.0
140
0.0
140
0.0
140
0.0
140
0.0
140
0.0
140
0.0
140
0.0
140
0.0
140
0.0
140
0.0
140
0.0
140
0.0
140
0.0
140
0.0
140
0.0
140
0.0
140
0.0
140
0.0
140
0.0
140
0.0
140
0.0
140
0.0
140
0.0
140
0.0
140
0.0
140
0.0
140
0.0
140
0.0
140
0.0
140
0.0
140
0.0
140
0.0
140
0.0
140
0.0
140
0.0
140
0.0
140
0.0
140
0.0
140
0.0
140
0.0
140
0.0
140
0.0
140
0.0
140
0.0
140
0.0
140
0.0
140
0.0
140
0.0
140
0.0
140
0.0
140
0.0
140
0.0
140
0.0
140
0.0
140
0.0
140
0.0
140
0.0
140
0.0
140
0.0
140
0.0
140
0.0
140
0.0
140
0.0
140
0.0
140
0.0
140
0.0
140
0.0
140
0.0
140
0.0
140
0.0
140
0.0
140
0.0
140
0.0
140
0.0
140
0.0
140
0.0
140
0.0
140
0.0
140
0.0
140
0.0
140
0.0
140
0.0
140
0.0
140
0.0
140
0.0
140
0.0
140
0.0
140
0.0
140
0.0
140
0.0
140
0.0
140
0.0
140
0.0
140
0.0
140
0.0
140
0.0
140
0.0
140
0.0
140
0.0
140
0.0
140
0.0
140
0.0
140
0.0
140
0.0
140
0.0
140
0.0
140
0.0
140
0.0
140
0.0
140
0.0
140
0.0
140
0.0
140
0.0
140
0.0
140
0.0
140
0.0
140
0.0
140
0.0
140
0.0
140
0.0
140
0.0
140
0.0
140
0.0
140
0.0
140
0.0
140
0.0
140
0.0
140
0.0
140
0.0
140
0.0
140
0.0
140
0.0
140
0.0
140
0.0
140
0.0
140
0.0
140
0.0
140
0.0
140
0.0
140
0.0
140
0.0
140
0.0
140
0.0
140
0.0
140
0.0
140
0.0
140
0.0
140
0.0
140
0.0
140
0.0
140
0.0
140
0.0
140
0.0
140
0.0
140
0.0
140
0.0
140
0.0
140
0.0
140
0.0
140
0.0
140
0.0
140
0.0
140
0.0
140
0.0
140
0.0
140
0.0
140
0.0
140
0.0
140
0.0
140
0.0
140
0.0
140
0.0
140
0.0
140
0.0
140
0.0
140
0.0
140
0.0
140
0.0
140
0.0
140
0.0
140
0.0
140
0.0
140
0.0
140
0.0
140
0.0
140
0.0
140
0.0
140
0.0
140
0.0
140
0.0
140
0.0
140
0.0
140
0.0
140
0.0
140
0.0
140
0.0
140
0.0
140
0.0
140
0.0
140
0.0
140
0.0
140
0.0
140
0.0
140
0.0
140
0.0
140
0.0
140
0.0
140
0.0
140
0.0
140
0.0
140
0.0
140
0.0
140
0.0
140
0.0
140
0.0
140
0.0
140
0.0
140
0.0
140
0.0
140
0.0
140
0.0
140
0.0
140
0.0
140
0.0
140
0.0
140
0.0
140
0.0
140
0.0
140
0.0
140
0.0
140
0.0
140
0.0
140
0.0
140
0.0
140
0.0
140
0.0
140
0.0
140
0.0
140
0.0
140
0.0
140
0.0
140
0.0
140
0.0
140
0.0
140
0.0
140
0.0
140
0.0
140
0.0
140
0.0
140
0.0
140
0.0
140
0.0
140
0.0
140
0.0
140
0.0
140
0.0
140
0.0
140
0.0
140
0.0
140
0.0
140
0.0
140
0.0
140
0.0
140
0.0
140
0.0
140
0.0
140
0.0
140
0.0
140
0.0
140
0.0
140
0.0
140
0.0
140
0.0
140
0.0
140
0.0
140
0.0
140
0.0
140
0.0
140
0.0
140
0.0
140
0.0
140
0.0
140
0.0
140
0.0
140
0.0
140
0.0
140
0.0
140
0.0
140
0.0
140
0.0
140
0.0
140
0.0
140
0.0
140
0.0
140
0.0
140
0.0
140
0.0
140
0.0
140
0.0
140
0.0
140
0.0
140
0.0
140
0.0
140
0.0
140
0.0
140
0.0
140
0.0
140
0.0
140
0.0
140
0.0
140
0.0
140
0.0
140
0.0
140
0.0
140
0.0
140
0.0
140
0.0
140
0.0
140
0.0
140
0.0
140
0.0
140
0.0
140
0.0
140
0.0
140
0.0
140
0.0
140
0.0
140
0.0
140
0.0
140
0.0
140
0.0
140
0.0
140
0.0
140
0.0
140
0.0
140
0.0
140
0.0
140
0.0
140
0.0
140
0.0
140
0.0
140
0.0
140
0.0
140
0.0
140
0.0
140
0.0
140
0.0
140
0.0
140
0.0
140
0.0
140
0.0
140
0.0
140
0.0
140
0.0
140
0.0
140
0.0
140
0.0
140
0.0
140
0.0
140
0.0
140
0.0
140
0.0
140
0.0
140
0.0
140
0.0
140
0.0
140
0.0
140
0.0
140
0.0
140
0.0
140
0.0
140
0.0
140
0.0
140
0.0
140
0.0
140
0.0
140
0.0
140
0.0
140
0.0
140
0.0
140
0.0
140
0.0
140
0.0
140
0.0
140
0.0
140
0.0
140
0.0
140
0.0
140
0.0
140
0.0
140
0.0
140
0.0
140
0.0
140
0.0
140
0.0
140
0.0
140
0.0
140
0.0
140
0.0
140
0.0
140
0.0
140
0.0
140
0.0
140
0.0
140
0.0
140
0.0
140
0.0
140
0.0
140
0.0
140
0.0
140
0.0
140
0.0
140
0.0
140
0.0
140
0.0
140
0.0
140
0.0
140
0.0
140
0.0
140
0.0
140
0.0
140
0.0
140
0.0
140
0.0
140
0.0
140
0.0
140
0.0
140
0.0
140
0.0
140
0.0
140
0.0
140
0.0
140
0.0
140
0.0
140
0.0
140
0.0
140
0.0
140
0.0
140
0.0
140
0.0
140
0.0
140
0.0
140
0.0
140
0.0
140
0.0
140
0.0
140
0.0
140
0.0
140
0.0
140
0.0
140
0.0
140
0.0
140
0.0
140
0.0
140
0.0
140
0.0
140
0.0
140
0.0
140
0.0
140
0.0
 90
        0
  0
POLYLINE
  5
FA
330
1F
100
AcDbEntity
  8
OracDecor_cornice_mouldings
 62
   213
420
 14768327
100
AcDb3dPolyline
 66
     1
 10
0.0
 20
0.0
 30
0.0
 70
     9
  0
VERTEX
  5
FB
330
FA
100
AcDbEntity
  8
OracDecor_cornice_mouldings
 62
   213
420
 14768327
100
AcDbVertex
100
AcDb3dPolylineVertex
 10
0.0000023444899853
 20
105.5899429321289
 30
-9.162212371826171
 70
    32
  0
VERTEX
  5
FC
330
FA
100
AcDbEntity
  8
OracDecor_cornice_mouldings
 62
   213
420
 14768327
100
AcDbVertex
100
AcDb3dPolylineVertex
 10
0.0000031811741792
 20
110.728775024414
 30
-9.149906158447265
 70
    32
  0
VERTEX
  5
FD
330
FA
100
AcDbEntity
  8
OracDecor_cornice_mouldings
 62
   213
420
 14768327
100
AcDbVertex
100
AcDb3dPolylineVertex
 10
0.0000027776495699
 20
110.7068634033203
 30
0.0000076293945313
 70
    32
  0
VERTEX
  5
FE
330
FA
100
AcDbEntity
  8
OracDecor_cornice_mouldings
 62
   213
420
 14768327
100
AcDbVertex
100
AcDb3dPolylineVertex
 10
0.0000016279027477
 20
103.6452407836914
 30
-0.0169029235839844
 70
    32
  0
VERTEX
  5
FF
330
FA
100
AcDbEntity
  8
OracDecor_cornice_mouldings
 62
   213
420
 14768327
100
AcDbVertex
100
AcDb3dPolylineVertex
 10
0.0000016010053514
 20
103.3073272705078
 30
-0.6610221862792969
 70
    32
  0
VERTEX
  5
100
330
FA
100
AcDbEntity
  8
OracDecor_cornice_mouldings
 62
   213
420
 14768327
100
AcDbVertex
100
AcDb3dPolylineVertex
 10
0.0000015293098841
 20
102.7428970336914
 30
-1.124580383300781
 70
    32
  0
VERTEX
  5
101
330
FA
100
AcDbEntity
  8
OracDecor_cornice_mouldings
 62
   213
420
 14768327
100
AcDbVertex
100
AcDb3dPolylineVertex
 10
0.000001424095899
 20
102.0407104492187
 30
-1.334712982177734
 70
    32
  0
VERTEX
  5
102
330
FA
100
AcDbEntity
  8
OracDecor_cornice_mouldings
 62
   213
420
 14768327
100
AcDbVertex
100
AcDb3dPolylineVertex
 10
0.0000013019016478
 20
101.3111801147461
 30
-1.258342742919921
 70
    32
  0
VERTEX
  5
103
330
FA
100
AcDbEntity
  8
OracDecor_cornice_mouldings
 62
   213
420
 14768327
100
AcDbVertex
100
AcDb3dPolylineVertex
 10
0.0000011819465726
 20
100.6690292358398
 30
-0.907501220703125
 70
    32
  0
VERTEX
  5
104
330
FA
100
AcDbEntity
  8
OracDecor_cornice_mouldings
 62
   213
420
 14768327
100
AcDbVertex
100
AcDb3dPolylineVertex
 10
0.0000009726481949
 20
99.6207275390625
 30
-0.0265464782714844
 70
    32
  0
VERTEX
  5
105
330
FA
100
AcDbEntity
  8
OracDecor_cornice_mouldings
 62
   213
420
 14768327
100
AcDbVertex
100
AcDb3dPolylineVertex
 10
-0.0000009037630662
 20
88.09599304199219
 30
-0.0541419982910156
 70
    32
  0
VERTEX
  5
106
330
FA
100
AcDbEntity
  8
OracDecor_cornice_mouldings
 62
   213
420
 14768327
100
AcDbVertex
100
AcDb3dPolylineVertex
 10
-0.0000006466070772
 20
88.10995483398437
 30
-5.885150909423828
 70
    32
  0
VERTEX
  5
107
330
FA
100
AcDbEntity
  8
OracDecor_cornice_mouldings
 62
   213
420
 14768327
100
AcDbVertex
100
AcDb3dPolylineVertex
 10
-0.0000006296295396
 20
87.96071624755859
 30
-6.829799652099609
 70
    32
  0
VERTEX
  5
108
330
FA
100
AcDbEntity
  8
OracDecor_cornice_mouldings
 62
   213
420
 14768327
100
AcDbVertex
100
AcDb3dPolylineVertex
 10
-0.0000006636500984
 20
87.52316284179688
 30
-7.682338714599609
 70
    32
  0
VERTEX
  5
109
330
FA
100
AcDbEntity
  8
OracDecor_cornice_mouldings
 62
   213
420
 14768327
100
AcDbVertex
100
AcDb3dPolylineVertex
 10
-0.0000007453290891
 20
86.84027099609375
 30
-8.358997344970703
 70
    32
  0
VERTEX
  5
10A
330
FA
100
AcDbEntity
  8
OracDecor_cornice_mouldings
 62
   213
420
 14768327
100
AcDbVertex
100
AcDb3dPolylineVertex
 10
-0.0000008666929716
 20
85.97897338867188
 30
-8.792720794677734
 70
    32
  0
VERTEX
  5
10B
330
FA
100
AcDbEntity
  8
OracDecor_cornice_mouldings
 62
   213
420
 14768327
100
AcDbVertex
100
AcDb3dPolylineVertex
 10
-0.0000011977754184
 20
83.65566253662109
 30
-9.877895355224609
 70
    32
  0
VERTEX
  5
10C
330
FA
100
AcDbEntity
  8
OracDecor_cornice_mouldings
 62
   213
420
 14768327
100
AcDbVertex
100
AcDb3dPolylineVertex
 10
-0.0000014426932466
 20
81.71768951416016
 30
-11.49801635742187
 70
    32
  0
VERTEX
  5
10D
330
FA
100
AcDbEntity
  8
OracDecor_cornice_mouldings
 62
   213
420
 14768327
100
AcDbVertex
100
AcDb3dPolylineVertex
 10
-0.0000015919404177
 20
80.22969055175781
 30
-13.62968444824218
 70
    32
  0
VERTEX
  5
10E
330
FA
100
AcDbEntity
  8
OracDecor_cornice_mouldings
 62
   213
420
 14768327
100
AcDbVertex
100
AcDb3dPolylineVertex
 10
-0.0000016299691197
 20
79.65127563476563
 30
-14.91554641723633
 70
    32
  0
VERTEX
  5
10F
330
FA
100
AcDbEntity
  8
OracDecor_cornice_mouldings
 62
   213
420
 14768327
100
AcDbVertex
100
AcDb3dPolylineVertex
 10
-0.0000016431249605
 20
79.18994903564453
 30
-16.33402633666992
 70
    32
  0
VERTEX
  5
110
330
FA
100
AcDbEntity
  8
OracDecor_cornice_mouldings
 62
   213
420
 14768327
100
AcDbVertex
100
AcDb3dPolylineVertex
 10
-0.0000016308677004
 20
78.853271484375
 30
-17.86931228637695
 70
    32
  0
VERTEX
  5
111
330
FA
100
AcDbEntity
  8
OracDecor_cornice_mouldings
 62
   213
420
 14768327
100
AcDbVertex
100
AcDb3dPolylineVertex
 10
-0.0000015892655938
 20
78.60443115234375
 30
-19.74853515625
 70
    32
  0
VERTEX
  5
112
330
FA
100
AcDbEntity
  8
OracDecor_cornice_mouldings
 62
   213
420
 14768327
100
AcDbVertex
100
AcDb3dPolylineVertex
 10
-0.0000015880705178
 20
77.86375427246094
 30
-22.53653717041016
 70
    32
  0
VERTEX
  5
113
330
FA
100
AcDbEntity
  8
OracDecor_cornice_mouldings
 62
   213
420
 14768327
100
AcDbVertex
100
AcDb3dPolylineVertex
 10
-0.0000016140529624
 20
77.05487060546875
 30
-24.95695877075196
 70
    32
  0
VERTEX
  5
114
330
FA
100
AcDbEntity
  8
OracDecor_cornice_mouldings
 62
   213
420
 14768327
100
AcDbVertex
100
AcDb3dPolylineVertex
 10
0.000004030232958
 20
59.7397232055664
 30
-44.07984542846679
 70
    32
  0
VERTEX
  5
115
330
FA
100
AcDbEntity
  8
OracDecor_cornice_mouldings
 62
   213
420
 14768327
100
AcDbVertex
100
AcDb3dPolylineVertex
 10
0.0000031800555007
 20
53.79693603515625
 30
-46.77993392944336
 70
    32
  0
VERTEX
  5
116
330
FA
100
AcDbEntity
  8
OracDecor_cornice_mouldings
 62
   213
420
 14768327
100
AcDbVertex
100
AcDb3dPolylineVertex
 10
0.0000024040855351
 20
48.33245849609375
 30
-49.39498138427734
 70
    32
  0
VERTEX
  5
117
330
FA
100
AcDbEntity
  8
OracDecor_cornice_mouldings
 62
   213
420
 14768327
100
AcDbVertex
100
AcDb3dPolylineVertex
 10
0.0000017014608602
 20
43.34994506835937
 30
-51.89156341552735
 70
    32
  0
VERTEX
  5
118
330
FA
100
AcDbEntity
  8
OracDecor_cornice_mouldings
 62
   213
420
 14768327
100
AcDbVertex
100
AcDb3dPolylineVertex
 10
0.0000010824078345
 20
38.8130111694336
 30
-54.63930511474609
 70
    32
  0
VERTEX
  5
119
330
FA
100
AcDbEntity
  8
OracDecor_cornice_mouldings
 62
   213
420
 14768327
100
AcDbVertex
100
AcDb3dPolylineVertex
 10
0.0000005461106412
 20
34.71096801757813
 30
-57.65935516357422
 70
    32
  0
VERTEX
  5
11A
330
FA
100
AcDbEntity
  8
OracDecor_cornice_mouldings
 62
   213
420
 14768327
100
AcDbVertex
100
AcDb3dPolylineVertex
 10
0.0000000869922587
 20
31.00234031677246
 30
-60.97871780395507
 70
    32
  0
VERTEX
  5
11B
330
FA
100
AcDbEntity
  8
OracDecor_cornice_mouldings
 62
   213
420
 14768327
100
AcDbVertex
100
AcDb3dPolylineVertex
 10
-0.0000002955321179
 20
27.68875503540039
 30
-64.57793426513672
 70
    32
  0
VERTEX
  5
11C
330
FA
100
AcDbEntity
  8
OracDecor_cornice_mouldings
 62
   213
420
 14768327
100
AcDbVertex
100
AcDb3dPolylineVertex
 10
-0.0000006026230039
 20
24.76496887207031
 30
-68.45002746582031
 70
    32
  0
VERTEX
  5
11D
330
FA
100
AcDbEntity
  8
OracDecor_cornice_mouldings
 62
   213
420
 14768327
100
AcDbVertex
100
AcDb3dPolylineVertex
 10
0.000006793364264
 20
22.22625350952148
 30
-72.57257080078125
 70
    32
  0
VERTEX
  5
11E
330
FA
100
AcDbEntity
  8
OracDecor_cornice_mouldings
 62
   213
420
 14768327
100
AcDbVertex
100
AcDb3dPolylineVertex
 10
0.0000066333432187
 20
20.07292556762696
 30
-76.93758392333984
 70
    32
  0
VERTEX
  5
11F
330
FA
100
AcDbEntity
  8
OracDecor_cornice_mouldings
 62
   213
420
 14768327
100
AcDbVertex
100
AcDb3dPolylineVertex
 10
0.0000065504063969
 20
18.34358596801758
 30
-81.48577880859376
 70
    32
  0
VERTEX
  5
120
330
FA
100
AcDbEntity
  8
OracDecor_cornice_mouldings
 62
   213
420
 14768327
100
AcDbVertex
100
AcDb3dPolylineVertex
 10
0.0000065442404775
 20
17.03483200073242
 30
-86.22270202636718
 70
    32
  0
VERTEX
  5
121
330
FA
100
AcDbEntity
  8
OracDecor_cornice_mouldings
 62
   213
420
 14768327
100
AcDbVertex
100
AcDb3dPolylineVertex
 10
0.0000065328308665
 20
16.76755142211914
 30
-86.95788574218751
 70
    32
  0
VERTEX
  5
122
330
FA
100
AcDbEntity
  8
OracDecor_cornice_mouldings
 62
   213
420
 14768327
100
AcDbVertex
100
AcDb3dPolylineVertex
 10
-0.0000011412762433
 20
16.32033157348633
 30
-87.60186004638672
 70
    32
  0
VERTEX
  5
123
330
FA
100
AcDbEntity
  8
OracDecor_cornice_mouldings
 62
   213
420
 14768327
100
AcDbVertex
100
AcDb3dPolylineVertex
 10
-0.0000023113921088
 20
6.113967895507812
 30
-98.87378692626953
 70
    32
  0
VERTEX
  5
124
330
FA
100
AcDbEntity
  8
OracDecor_cornice_mouldings
 62
   213
420
 14768327
100
AcDbVertex
100
AcDb3dPolylineVertex
 10
-0.0000023943671295
 20
5.457767486572265
 30
-99.42132568359376
 70
    32
  0
VERTEX
  5
125
330
FA
100
AcDbEntity
  8
OracDecor_cornice_mouldings
 62
   213
420
 14768327
100
AcDbVertex
100
AcDb3dPolylineVertex
 10
-0.0000025068102332
 20
4.674400329589843
 30
-99.7686767578125
 70
    32
  0
VERTEX
  5
126
330
FA
100
AcDbEntity
  8
OracDecor_cornice_mouldings
 62
   213
420
 14768327
100
AcDbVertex
100
AcDb3dPolylineVertex
 10
-0.0000026400070965
 20
3.824581146240234
 30
-99.88893127441407
 70
    32
  0
VERTEX
  5
127
330
FA
100
AcDbEntity
  8
OracDecor_cornice_mouldings
 62
   213
420
 14768327
100
AcDbVertex
100
AcDb3dPolylineVertex
 10
-0.0000032714001463
 20
-0.0533714294433594
 30
-99.89820861816406
 70
    32
  0
VERTEX
  5
128
330
FA
100
AcDbEntity
  8
OracDecor_cornice_mouldings
 62
   213
420
 14768327
100
AcDbVertex
100
AcDb3dPolylineVertex
 10
-0.0000028009203561
 20
-0.0278244018554688
 30
-110.5663223266601
 70
    32
  0
VERTEX
  5
129
330
FA
100
AcDbEntity
  8
OracDecor_cornice_mouldings
 62
   213
420
 14768327
100
AcDbVertex
100
AcDb3dPolylineVertex
 10
-0.0000026458833418
 20
0.7331390380859375
 30
-111.2769012451172
 70
    32
  0
VERTEX
  5
12A
330
FA
100
AcDbEntity
  8
OracDecor_cornice_mouldings
 62
   213
420
 14768327
100
AcDbVertex
100
AcDb3dPolylineVertex
 10
-0.0000025470103537
 20
1.171459197998046
 30
-111.9051513671875
 70
    32
  0
VERTEX
  5
12B
330
FA
100
AcDbEntity
  8
OracDecor_cornice_mouldings
 62
   213
420
 14768327
100
AcDbVertex
100
AcDb3dPolylineVertex
 10
-0.0000024912224035
 20
1.312526702880859
 30
-112.6556396484375
 70
    32
  0
VERTEX
  5
12C
330
FA
100
AcDbEntity
  8
OracDecor_cornice_mouldings
 62
   213
420
 14768327
100
AcDbVertex
100
AcDb3dPolylineVertex
 10
-0.0000024882269827
 20
1.131797790527343
 30
-113.3977813720703
 70
    32
  0
VERTEX
  5
12D
330
FA
100
AcDbEntity
  8
OracDecor_cornice_mouldings
 62
   213
420
 14768327
100
AcDbVertex
100
AcDb3dPolylineVertex
 10
-0.0000025385447771
 20
0.6607208251953125
 30
-114.0024337768554
 70
    32
  0
VERTEX
  5
12E
330
FA
100
AcDbEntity
  8
OracDecor_cornice_mouldings
 62
   213
420
 14768327
100
AcDbVertex
100
AcDb3dPolylineVertex
 10
-0.0000026334200811
 20
-0.0187301635742188
 30
-114.3643798828125
 70
    32
  0
VERTEX
  5
12F
330
FA
100
AcDbEntity
  8
OracDecor_cornice_mouldings
 62
   213
420
 14768327
100
AcDbVertex
100
AcDb3dPolylineVertex
 10
-0.000002285004939
 20
0.0001907348632813
 30
-122.2646789550781
 70
    32
  0
VERTEX
  5
130
330
FA
100
AcDbEntity
  8
OracDecor_cornice_mouldings
 62
   213
420
 14768327
100
AcDbVertex
100
AcDb3dPolylineVertex
 10
-0.0000011973147593
 20
6.680683135986328
 30
-122.2486572265625
 70
    32
  0
VERTEX
  5
131
330
FA
100
AcDbEntity
  8
OracDecor_cornice_mouldings
 62
   213
420
 14768327
100
AcDbVertex
100
AcDb3dPolylineVertex
 10
-0.0000016008407329
 20
6.658763885498046
 30
-113.0987548828125
 70
    32
  0
VERTEX
  5
132
330
FA
100
AcDbEntity
  8
OracDecor_cornice_mouldings
 62
   213
420
 14768327
100
AcDbVertex
100
AcDb3dPolylineVertex
 10
-0.0000014463898879
 20
7.614639282226562
 30
-113.0694427490234
 70
    32
  0
VERTEX
  5
133
330
FA
100
AcDbEntity
  8
OracDecor_cornice_mouldings
 62
   213
420
 14768327
100
AcDbVertex
100
AcDb3dPolylineVertex
 10
-0.0000012158966456
 20
9.064071655273437
 30
-112.9402084350586
 70
    32
  0
VERTEX
  5
134
330
FA
100
AcDbEntity
  8
OracDecor_cornice_mouldings
 62
   213
420
 14768327
100
AcDbVertex
100
AcDb3dPolylineVertex
 10
-0.0000010075655155
 20
10.4069709777832
 30
-112.7010192871094
 70
    32
  0
VERTEX
  5
135
330
FA
100
AcDbEntity
  8
OracDecor_cornice_mouldings
 62
   213
420
 14768327
100
AcDbVertex
100
AcDb3dPolylineVertex
 10
-0.0000008212950888
 20
11.64472198486328
 30
-112.3490676879883
 70
    32
  0
VERTEX
  5
136
330
FA
100
AcDbEntity
  8
OracDecor_cornice_mouldings
 62
   213
420
 14768327
100
AcDbVertex
100
AcDb3dPolylineVertex
 10
-0.0000006572618076
 20
12.77494049072265
 30
-111.88916015625
 70
    32
  0
VERTEX
  5
137
330
FA
100
AcDbEntity
  8
OracDecor_cornice_mouldings
 62
   213
420
 14768327
100
AcDbVertex
100
AcDb3dPolylineVertex
 10
-0.0000005160591172
 20
13.79122543334961
 30
-111.3316192626953
 70
    32
  0
VERTEX
  5
138
330
FA
100
AcDbEntity
  8
OracDecor_cornice_mouldings
 62
   213
420
 14768327
100
AcDbVertex
100
AcDb3dPolylineVertex
 10
-0.0000003980921974
 20
14.69130706787109
 30
-110.6755981445312
 70
    32
  0
VERTEX
  5
139
330
FA
100
AcDbEntity
  8
OracDecor_cornice_mouldings
 62
   213
420
 14768327
100
AcDbVertex
100
AcDb3dPolylineVertex
 10
-0.0000003014465619
 20
15.48622131347656
 30
-109.9238128662109
 70
    32
  0
VERTEX
  5
13A
330
FA
100
AcDbEntity
  8
OracDecor_cornice_mouldings
 62
   213
420
 14768327
100
AcDbVertex
100
AcDb3dPolylineVertex
 10
-0.0000002247625162
 20
16.18311691284179
 30
-109.0806808471679
 70
    32
  0
VERTEX
  5
13B
330
FA
100
AcDbEntity
  8
OracDecor_cornice_mouldings
 62
   213
420
 14768327
100
AcDbVertex
100
AcDb3dPolylineVertex
 10
-0.0000001683883966
 20
16.78029632568359
 30
-108.1445617675781
 70
    32
  0
VERTEX
  5
13C
330
FA
100
AcDbEntity
  8
OracDecor_cornice_mouldings
 62
   213
420
 14768327
100
AcDbVertex
100
AcDb3dPolylineVertex
 10
-0.0000001312864697
 20
17.28499221801758
 30
-107.1122589111328
 70
    32
  0
VERTEX
  5
13D
330
FA
100
AcDbEntity
  8
OracDecor_cornice_mouldings
 62
   213
420
 14768327
100
AcDbVertex
100
AcDb3dPolylineVertex
 10
-0.0000001132484613
 20
17.69915390014648
 30
-105.9812622070312
 70
    32
  0
VERTEX
  5
13E
330
FA
100
AcDbEntity
  8
OracDecor_cornice_mouldings
 62
   213
420
 14768327
100
AcDbVertex
100
AcDb3dPolylineVertex
 10
-0.0000001142634574
 20
18.02161407470703
 30
-104.7561645507812
 70
    32
  0
VERTEX
  5
13F
330
FA
100
AcDbEntity
  8
OracDecor_cornice_mouldings
 62
   213
420
 14768327
100
AcDbVertex
100
AcDb3dPolylineVertex
 10
-0.0000001338949005
 20
18.25335693359375
 30
-103.4432983398437
 70
    32
  0
VERTEX
  5
140
330
FA
100
AcDbEntity
  8
OracDecor_cornice_mouldings
 62
   213
420
 14768327
100
AcDbVertex
100
AcDb3dPolylineVertex
 10
-0.0000001721900844
 20
18.39427947998047
 30
-102.0419616699218
 70
    32
  0
VERTEX
  5
141
330
FA
100
AcDbEntity
  8
OracDecor_cornice_mouldings
 62
   213
420
 14768327
100
AcDbVertex
100
AcDb3dPolylineVertex
 10
-0.0000002126116669
 20
18.44312667846679
 30
-100.9351654052734
 70
    32
  0
VERTEX
  5
142
330
FA
100
AcDbEntity
  8
OracDecor_cornice_mouldings
 62
   213
420
 14768327
100
AcDbVertex
100
AcDb3dPolylineVertex
 10
-0.0000002369179128
 20
18.44765090942383
 30
-100.3622360229492
 70
    32
  0
VERTEX
  5
143
330
FA
100
AcDbEntity
  8
OracDecor_cornice_mouldings
 62
   213
420
 14768327
100
AcDbVertex
100
AcDb3dPolylineVertex
 10
-0.0000066112852437
 20
26.15590667724609
 30
-100.3437728881836
 70
    32
  0
VERTEX
  5
144
330
FA
100
AcDbEntity
  8
OracDecor_cornice_mouldings
 62
   213
420
 14768327
100
AcDbVertex
100
AcDb3dPolylineVertex
 10
-0.0000068190374805
 20
26.16576766967773
 30
-95.55419921875
 70
    32
  0
VERTEX
  5
145
330
FA
100
AcDbEntity
  8
OracDecor_cornice_mouldings
 62
   213
420
 14768327
100
AcDbVertex
100
AcDb3dPolylineVertex
 10
-0.0000069494608397
 20
26.55356979370117
 30
-91.12505340576172
 70
    32
  0
VERTEX
  5
146
330
FA
100
AcDbEntity
  8
OracDecor_cornice_mouldings
 62
   213
420
 14768327
100
AcDbVertex
100
AcDb3dPolylineVertex
 10
0.0000006290092642
 20
27.32296752929688
 30
-87.09233856201171
 70
    32
  0
VERTEX
  5
147
330
FA
100
AcDbEntity
  8
OracDecor_cornice_mouldings
 62
   213
420
 14768327
100
AcDbVertex
100
AcDb3dPolylineVertex
 10
0.0000006571126505
 20
28.47316360473633
 30
-83.44828033447265
 70
    32
  0
VERTEX
  5
148
330
FA
100
AcDbEntity
  8
OracDecor_cornice_mouldings
 62
   213
420
 14768327
100
AcDbVertex
100
AcDb3dPolylineVertex
 10
0.0000007473008736
 20
29.97589111328125
 30
-79.91058349609375
 70
    32
  0
VERTEX
  5
149
330
FA
100
AcDbEntity
  8
OracDecor_cornice_mouldings
 62
   213
420
 14768327
100
AcDbVertex
100
AcDb3dPolylineVertex
 10
0.0000008969172995
 20
31.82940864562989
 30
-76.42500305175781
 70
    32
  0
VERTEX
  5
14A
330
FA
100
AcDbEntity
  8
OracDecor_cornice_mouldings
 62
   213
420
 14768327
100
AcDbVertex
100
AcDb3dPolylineVertex
 10
0.000001110292942
 20
34.03182983398437
 30
-73.09761047363281
 70
    32
  0
VERTEX
  5
14B
330
FA
100
AcDbEntity
  8
OracDecor_cornice_mouldings
 62
   213
420
 14768327
100
AcDbVertex
100
AcDb3dPolylineVertex
 10
0.0000013906810636
 20
36.59926605224609
 30
-69.94284057617187
 70
    32
  0
VERTEX
  5
14C
330
FA
100
AcDbEntity
  8
OracDecor_cornice_mouldings
 62
   213
420
 14768327
100
AcDbVertex
100
AcDb3dPolylineVertex
 10
0.0000017342672436
 20
39.49987030029297
 30
-66.99205780029297
 70
    32
  0
VERTEX
  5
14D
330
FA
100
AcDbEntity
  8
OracDecor_cornice_mouldings
 62
   213
420
 14768327
100
AcDbVertex
100
AcDb3dPolylineVertex
 10
0.0000021351352189
 20
42.65706253051757
 30
-64.39539337158203
 70
    32
  0
VERTEX
  5
14E
330
FA
100
AcDbEntity
  8
OracDecor_cornice_mouldings
 62
   213
420
 14768327
100
AcDbVertex
100
AcDb3dPolylineVertex
 10
0.0000025961599022
 20
46.09143447875976
 30
-62.141845703125
 70
    32
  0
VERTEX
  5
14F
330
FA
100
AcDbEntity
  8
OracDecor_cornice_mouldings
 62
   213
420
 14768327
100
AcDbVertex
100
AcDb3dPolylineVertex
 10
0.0000030922055885
 20
49.68819427490235
 30
-60.08422470092773
 70
    32
  0
VERTEX
  5
150
330
FA
100
AcDbEntity
  8
OracDecor_cornice_mouldings
 62
   213
420
 14768327
100
AcDbVertex
100
AcDb3dPolylineVertex
 10
0.0000036264355003
 20
53.45810317993164
 30
-58.25483322143554
 70
    32
  0
VERTEX
  5
151
330
FA
100
AcDbEntity
  8
OracDecor_cornice_mouldings
 62
   213
420
 14768327
100
AcDbVertex
100
AcDb3dPolylineVertex
 10
0.0000041781167965
 20
57.31470108032226
 30
-56.50155258178711
 70
    32
  0
VERTEX
  5
152
330
FA
100
AcDbEntity
  8
OracDecor_cornice_mouldings
 62
   213
420
 14768327
100
AcDbVertex
100
AcDb3dPolylineVertex
 10
0.0000047303401516
 20
61.19286346435547
 30
-54.68027877807617
 70
    32
  0
VERTEX
  5
153
330
FA
100
AcDbEntity
  8
OracDecor_cornice_mouldings
 62
   213
420
 14768327
100
AcDbVertex
100
AcDb3dPolylineVertex
 10
0.0000052814575611
 20
65.07652282714843
 30
-52.81324005126953
 70
    32
  0
VERTEX
  5
154
330
FA
100
AcDbEntity
  8
OracDecor_cornice_mouldings
 62
   213
420
 14768327
100
AcDbVertex
100
AcDb3dPolylineVertex
 10
0.0000057884972193
 20
68.74872589111328
 30
-50.72595977783203
 70
    32
  0
VERTEX
  5
155
330
FA
100
AcDbEntity
  8
OracDecor_cornice_mouldings
 62
   213
420
 14768327
100
AcDbVertex
100
AcDb3dPolylineVertex
 10
-0.000001370280188
 20
72.25167846679688
 30
-48.43626785278321
 70
    32
  0
VERTEX
  5
156
330
FA
100
AcDbEntity
  8
OracDecor_cornice_mouldings
 62
   213
420
 14768327
100
AcDbVertex
100
AcDb3dPolylineVertex
 10
-0.0000009646291801
 20
75.41748809814453
 30
-45.91689682006836
 70
    32
  0
VERTEX
  5
157
330
FA
100
AcDbEntity
  8
OracDecor_cornice_mouldings
 62
   213
420
 14768327
100
AcDbVertex
100
AcDb3dPolylineVertex
 10
-0.000000640815415
 20
78.15183258056641
 30
-43.13344955444335
 70
    32
  0
VERTEX
  5
158
330
FA
100
AcDbEntity
  8
OracDecor_cornice_mouldings
 62
   213
420
 14768327
100
AcDbVertex
100
AcDb3dPolylineVertex
 10
-0.0000003814939191
 20
80.54797363281251
 30
-40.13518142700195
 70
    32
  0
VERTEX
  5
159
330
FA
100
AcDbEntity
  8
OracDecor_cornice_mouldings
 62
   213
420
 14768327
100
AcDbVertex
100
AcDb3dPolylineVertex
 10
-0.0000001755452104
 20
82.655029296875
 30
-36.99332809448242
 70
    32
  0
VERTEX
  5
15A
330
FA
100
AcDbEntity
  8
OracDecor_cornice_mouldings
 62
   213
420
 14768327
100
AcDbVertex
100
AcDb3dPolylineVertex
 10
-0.0000000255076884
 20
84.46587371826172
 30
-33.67644119262696
 70
    32
  0
VERTEX
  5
15B
330
FA
100
AcDbEntity
  8
OracDecor_cornice_mouldings
 62
   213
420
 14768327
100
AcDbVertex
100
AcDb3dPolylineVertex
 10
0.0000000778163667
 20
86.07139587402343
 30
-30.05613899230957
 70
    32
  0
VERTEX
  5
15C
330
FA
100
AcDbEntity
  8
OracDecor_cornice_mouldings
 62
   213
420
 14768327
100
AcDbVertex
100
AcDb3dPolylineVertex
 10
0.0000001346925274
 20
87.47416687011719
 30
-26.12891578674317
 70
    32
  0
VERTEX
  5
15D
330
FA
100
AcDbEntity
  8
OracDecor_cornice_mouldings
 62
   213
420
 14768327
100
AcDbVertex
100
AcDb3dPolylineVertex
 10
0.0000001438838808
 20
88.66222381591796
 30
-21.91103553771973
 70
    32
  0
VERTEX
  5
15E
330
FA
100
AcDbEntity
  8
OracDecor_cornice_mouldings
 62
   213
420
 14768327
100
AcDbVertex
100
AcDb3dPolylineVertex
 10
0.0000013152421161
 20
95.85659790039063
 30
-21.89380836486817
 70
    32
  0
VERTEX
  5
15F
330
FA
100
AcDbEntity
  8
OracDecor_cornice_mouldings
 62
   213
420
 14768327
100
AcDbVertex
100
AcDb3dPolylineVertex
 10
0.0000012031523511
 20
95.85050964355469
 30
-19.35216522216797
 70
    32
  0
VERTEX
  5
160
330
FA
100
AcDbEntity
  8
OracDecor_cornice_mouldings
 62
   213
420
 14768327
100
AcDbVertex
100
AcDb3dPolylineVertex
 10
0.0000011797073967
 20
95.85593414306641
 30
-18.79557418823242
 70
    32
  0
VERTEX
  5
161
330
FA
100
AcDbEntity
  8
OracDecor_cornice_mouldings
 62
   213
420
 14768327
100
AcDbVertex
100
AcDb3dPolylineVertex
 10
0.0000011401134543
 20
95.9210205078125
 30
-17.64720153808594
 70
    32
  0
VERTEX
  5
162
330
FA
100
AcDbEntity
  8
OracDecor_cornice_mouldings
 62
   213
420
 14768327
100
AcDbVertex
100
AcDb3dPolylineVertex
 10
0.0000011145311873
 20
96.06877136230469
 30
-16.51125335693359
 70
    32
  0
VERTEX
  5
163
330
FA
100
AcDbEntity
  8
OracDecor_cornice_mouldings
 62
   213
420
 14768327
100
AcDbVertex
100
AcDb3dPolylineVertex
 10
0.0000011057472875
 20
96.28089141845704
 30
-15.51971817016601
 70
    32
  0
VERTEX
  5
164
330
FA
100
AcDbEntity
  8
OracDecor_cornice_mouldings
 62
   213
420
 14768327
100
AcDbVertex
100
AcDb3dPolylineVertex
 10
0.0000011111260392
 20
96.56334686279297
 30
-14.58998870849609
 70
    32
  0
VERTEX
  5
165
330
FA
100
AcDbEntity
  8
OracDecor_cornice_mouldings
 62
   213
420
 14768327
100
AcDbVertex
100
AcDb3dPolylineVertex
 10
0.0000011324191291
 20
96.93849182128907
 30
-13.67887115478515
 70
    32
  0
VERTEX
  5
166
330
FA
100
AcDbEntity
  8
OracDecor_cornice_mouldings
 62
   213
420
 14768327
100
AcDbVertex
100
AcDb3dPolylineVertex
 10
0.0000011717402231
 20
97.40598297119142
 30
-12.83602142333984
 70
    32
  0
VERTEX
  5
167
330
FA
100
AcDbEntity
  8
OracDecor_cornice_mouldings
 62
   213
420
 14768327
100
AcDbVertex
100
AcDb3dPolylineVertex
 10
0.0000012281088857
 20
97.95175170898438
 30
-12.09137725830078
 70
    32
  0
VERTEX
  5
168
330
FA
100
AcDbEntity
  8
OracDecor_cornice_mouldings
 62
   213
420
 14768327
100
AcDbVertex
100
AcDb3dPolylineVertex
 10
0.0000012992295524
 20
98.56330108642579
 30
-11.4390983581543
 70
    32
  0
VERTEX
  5
169
330
FA
100
AcDbEntity
  8
OracDecor_cornice_mouldings
 62
   213
420
 14768327
100
AcDbVertex
100
AcDb3dPolylineVertex
 10
0.0000013847129594
 20
99.23753356933595
 30
-10.8817138671875
 70
    32
  0
VERTEX
  5
16A
330
FA
100
AcDbEntity
  8
OracDecor_cornice_mouldings
 62
   213
420
 14768327
100
AcDbVertex
100
AcDb3dPolylineVertex
 10
0.0000014852448658
 20
99.98115539550781
 30
-10.40999603271484
 70
    32
  0
VERTEX
  5
16B
330
FA
100
AcDbEntity
  8
OracDecor_cornice_mouldings
 62
   213
420
 14768327
100
AcDbVertex
100
AcDb3dPolylineVertex
 10
0.0000016008780221
 20
100.7976837158203
 30
-10.01205062866211
 70
    32
  0
VERTEX
  5
16C
330
FA
100
AcDbEntity
  8
OracDecor_cornice_mouldings
 62
   213
420
 14768327
100
AcDbVertex
100
AcDb3dPolylineVertex
 10
0.0000017315724108
 20
101.6861495971679
 30
-9.690479278564453
 70
    32
  0
VERTEX
  5
16D
330
FA
100
AcDbEntity
  8
OracDecor_cornice_mouldings
 62
   213
420
 14768327
100
AcDbVertex
100
AcDb3dPolylineVertex
 10
0.0000018786849978
 20
102.6548614501953
 30
-9.445480346679687
 70
    32
  0
VERTEX
  5
16E
330
FA
100
AcDbEntity
  8
OracDecor_cornice_mouldings
 62
   213
420
 14768327
100
AcDbVertex
100
AcDb3dPolylineVertex
 10
0.0000020428360585
 20
103.7077102661132
 30
-9.276638031005859
 70
    32
  0
VERTEX
  5
16F
330
FA
100
AcDbEntity
  8
OracDecor_cornice_mouldings
 62
   213
420
 14768327
100
AcDbVertex
100
AcDb3dPolylineVertex
 10
0.0000022236654331
 20
104.8424377441406
 30
-9.184181213378906
 70
    32
  0
SEQEND
  5
170
330
FA
100
AcDbEntity
  8
OracDecor_cornice_mouldings
 62
   213
420
 14768327
  0
ENDSEC
  0
SECTION
  2
OBJECTS
  0
DICTIONARY
  5
C
330
0
100
AcDbDictionary
281
     1
  3
ACAD_COLOR
350
DC
  3
ACAD_DETAILVIEWSTYLE
350
F5
  3
ACAD_GROUP
350
D
  3
ACAD_LAYOUT
350
1A
  3
ACAD_MATERIAL
350
AA
  3
ACAD_MLEADERSTYLE
350
F1
  3
ACAD_MLINESTYLE
350
17
  3
ACAD_PLOTSETTINGS
350
19
  3
ACAD_PLOTSTYLENAME
350
E
  3
ACAD_SCALELIST
350
DF
  3
ACAD_SECTIONVIEWSTYLE
350
F3
  3
ACAD_TABLESTYLE
350
DD
  3
ACAD_VISUALSTYLE
350
C3
  3
ACDB_RECOMPOSE_DATA
350
17D
  3
AcDbVariableDictionary
350
171
  0
DICTIONARY
  5
DC
102
{ACAD_REACTORS
330
C
102
}
330
C
100
AcDbDictionary
281
     1
  0
DICTIONARY
  5
F5
102
{ACAD_REACTORS
330
C
102
}
330
C
100
AcDbDictionary
281
     1
  3
Imperial24
350
F6
  0
DICTIONARY
  5
D
102
{ACAD_REACTORS
330
C
102
}
330
C
100
AcDbDictionary
281
     1
  0
DICTIONARY
  5
1A
102
{ACAD_REACTORS
330
C
102
}
330
C
100
AcDbDictionary
281
     1
  3
Layout1
350
1E
  3
Layout2
350
26
  3
Model
350
22
  0
DICTIONARY
  5
AA
102
{ACAD_REACTORS
330
C
102
}
330
C
100
AcDbDictionary
281
     1
  3
ByBlock
350
B3
  3
ByLayer
350
AB
  3
Global
350
BB
  0
DICTIONARY
  5
F1
102
{ACAD_REACTORS
330
C
102
}
330
C
100
AcDbDictionary
281
     1
  3
Standard
350
F2
  0
DICTIONARY
  5
17
102
{ACAD_REACTORS
330
C
102
}
330
C
100
AcDbDictionary
281
     1
  3
Standard
350
18
  0
DICTIONARY
  5
19
102
{ACAD_REACTORS
330
C
102
}
330
C
100
AcDbDictionary
281
     1
  0
ACDBDICTIONARYWDFLT
  5
E
102
{ACAD_REACTORS
330
C
102
}
330
C
100
AcDbDictionary
281
     1
  3
ByLayer
350
2D
  3
Normal
350
F
100
AcDbDictionaryWithDefault
340
F
  0
DICTIONARY
  5
DF
102
{ACAD_REACTORS
330
C
102
}
330
C
100
AcDbDictionary
281
     1
  3
A0
350
E0
  3
A1
350
E1
  3
A2
350
E2
  3
A3
350
E3
  3
A4
350
E4
  3
A5
350
E5
  3
A6
350
E6
  3
A7
350
E7
  3
A8
350
E8
  3
A9
350
E9
  3
B0
350
EA
  3
B1
350
EB
  3
B2
350
EC
  3
B3
350
ED
  3
B4
350
EE
  3
B5
350
EF
  3
B6
350
F0
  0
DICTIONARY
  5
F3
102
{ACAD_REACTORS
330
C
102
}
330
C
100
AcDbDictionary
281
     1
  3
Imperial24
350
F4
  0
DICTIONARY
  5
DD
102
{ACAD_REACTORS
330
C
102
}
330
C
100
AcDbDictionary
281
     1
  3
Standard
350
DE
  0
DICTIONARY
  5
C3
102
{ACAD_REACTORS
330
C
102
}
330
C
100
AcDbDictionary
281
     1
  3
2dWireframe
350
C9
  3
Basic
350
C8
  3
Brighten
350
CF
  3
ColorChange
350
D3
  3
Conceptual
350
CC
  3
Dim
350
CE
  3
EdgeColorOff
350
DB
  3
Facepattern
350
D2
  3
Flat
350
C4
  3
FlatWithEdges
350
C5
  3
Gouraud
350
C6
  3
GouraudWithEdges
350
C7
  3
Hidden
350
CB
  3
JitterOff
350
D9
  3
Linepattern
350
D1
  3
OverhangOff
350
DA
  3
Realistic
350
CD
  3
Shaded
350
D8
  3
Shaded with edges
350
D7
  3
Shades of Gray
350
D4
  3
Sketchy
350
D5
  3
Thicken
350
D0
  3
Wireframe
350
CA
  3
X-Ray
350
D6
  0
XRECORD
  5
17D
102
{ACAD_REACTORS
330
C
102
}
330
C
100
AcDbXrecord
280
     1
 90
        1
330
DE
  0
DICTIONARY
  5
171
102
{ACAD_REACTORS
330
C
102
}
330
C
100
AcDbDictionary
281
     1
  3
CANNOSCALE
350
177
  3
CMLEADERSTYLE
350
173
  3
CTABLESTYLE
350
172
  3
CVIEWDETAILSTYLE
350
174
  3
CVIEWSECTIONSTYLE
350
175
  3
LAYEREVAL
350
179
  3
LAYERNOTIFY
350
17A
  3
LIGHTINGUNITS
350
178
  3
MSLTSCALE
350
176
  0
ACDBDETAILVIEWSTYLE
  5
F6
102
{ACAD_XDICTIONARY
360
1B2
102
}
102
{ACAD_REACTORS
330
F5
102
}
330
F5
100
AcDbModelDocViewStyle
 70
     0
  3
Imperial24
290
     0
100
AcDbDetailViewStyle
 70
     0
 71
     0
 90
        3
 71
     1
340
11
 62
   256
 40
0.24
340
0
 62
   256
 40
0.24
300

 40
0.36
280
     3
 71
     2
340
16
 90
       25
 62
   256
 71
     3
340
11
 62
   256
 40
0.24
 90
        1
 40
0.75
 90
        1
300
%<\AcVar ViewType \f "%tc1">% %<\AcVar ViewDetailId>%\PSCALE %<\AcVar ViewScale \f "%sn">%
 71
     4
340
16
 90
       25
 62
   256
340
16
 90
       25
 62
   256
280
     0
  0
LAYOUT
  5
1E
102
{ACAD_REACTORS
330
1A
102
}
330
1A
100
AcDbPlotSettings
  1

  2
\\KTXNTBDC\CASF2PN1
  4

  6

 40
0.0
 41
0.0
 42
0.0
 43
0.0
 44
0.0
 45
0.0
 46
0.0
 47
0.0
 48
0.0
 49
0.0
140
0.0
141
0.0
142
1.0
143
1.0
 70
   688
 72
     0
 73
     0
 74
     5
  7

 75
    16
147
1.0
 76
     0
 77
     2
 78
   300
148
0.0
149
0.0
100
AcDbLayout
  1
Layout1
 70
     1
 71
     1
 10
0.0
 20
0.0
 11
12.0
 21
9.0
 12
0.0
 22
0.0
 32
0.0
 14
1.000000000000000E+20
 24
1.000000000000000E+20
 34
1.000000000000000E+20
 15
-1.000000000000000E+20
 25
-1.000000000000000E+20
 35
-1.000000000000000E+20
146
0.0
 13
0.0
 23
0.0
 33
0.0
 16
1.0
 26
0.0
 36
0.0
 17
0.0
 27
1.0
 37
0.0
 76
     0
330
1B
  0
LAYOUT
  5
26
102
{ACAD_REACTORS
330
1A
102
}
330
1A
100
AcDbPlotSettings
  1

  2
\\KTXNTBDC\CASF2PN1
  4

  6

 40
0.0
 41
0.0
 42
0.0
 43
0.0
 44
0.0
 45
0.0
 46
0.0
 47
0.0
 48
0.0
 49
0.0
140
0.0
141
0.0
142
1.0
143
1.0
 70
   688
 72
     0
 73
     0
 74
     5
  7

 75
    16
147
1.0
 76
     0
 77
     2
 78
   300
148
0.0
149
0.0
100
AcDbLayout
  1
Layout2
 70
     1
 71
     2
 10
0.0
 20
0.0
 11
12.0
 21
9.0
 12
0.0
 22
0.0
 32
0.0
 14
0.0
 24
0.0
 34
0.0
 15
0.0
 25
0.0
 35
0.0
146
0.0
 13
0.0
 23
0.0
 33
0.0
 16
1.0
 26
0.0
 36
0.0
 17
0.0
 27
1.0
 37
0.0
 76
     0
330
23
  0
LAYOUT
  5
22
102
{ACAD_REACTORS
330
1A
102
}
330
1A
100
AcDbPlotSettings
  1

  2
\\KTXNTBDC\CASF2PN1
  4

  6

 40
0.0
 41
0.0
 42
0.0
 43
0.0
 44
0.0
 45
0.0
 46
0.0
 47
0.0
 48
0.0
 49
0.0
140
0.0
141
0.0
142
1.0
143
1.0
 70
  1712
 72
     0
 73
     0
 74
     0
  7

 75
     0
147
1.0
 76
     0
 77
     2
 78
   300
148
0.0
149
0.0
100
AcDbLayout
  1
Model
 70
     1
 71
     0
 10
0.0
 20
0.0
 11
12.0
 21
9.0
 12
0.0
 22
0.0
 32
0.0
 14
0.0
 24
0.0
 34
0.0
 15
0.0
 25
0.0
 35
0.0
146
0.0
 13
0.0
 23
0.0
 33
0.0
 16
1.0
 26
0.0
 36
0.0
 17
0.0
 27
1.0
 37
0.0
 76
     0
330
1F
  0
MATERIAL
  5
B3
102
{ACAD_XDICTIONARY
360
B4
102
}
102
{ACAD_REACTORS
330
AA
102
}
330
AA
100
AcDbMaterial
  1
ByBlock
 72
     0
 43
0.0208333333333333
 43
0.0
 43
0.0
 43
0.0
 43
0.0
 43
0.0208333333333333
 43
0.0
 43
0.0
 43
0.0
 43
0.0
 43
1.0
 43
0.0
 43
0.0
 43
0.0
 43
0.0
 43
1.0
 77
     0
 47
0.0208333333333333
 47
0.0
 47
0.0
 47
0.0
 47
0.0
 47
0.0208333333333333
 47
0.0
 47
0.0
 47
0.0
 47
0.0
 47
1.0
 47
0.0
 47
0.0
 47
0.0
 47
0.0
 47
1.0
171
     0
 49
0.0208333333333333
 49
0.0
 49
0.0
 49
0.0
 49
0.0
 49
0.0208333333333333
 49
0.0
 49
0.0
 49
0.0
 49
0.0
 49
1.0
 49
0.0
 49
0.0
 49
0.0
 49
0.0
 49
1.0
175
     0
142
0.0208333333333333
142
0.0
142
0.0
142
0.0
142
0.0
142
0.0208333333333333
142
0.0
142
0.0
142
0.0
142
0.0
142
1.0
142
0.0
142
0.0
142
0.0
142
0.0
142
1.0
179
     0
144
0.0208333333333333
144
0.0
144
0.0
144
0.0
144
0.0
144
0.0208333333333333
144
0.0
144
0.0
144
0.0
144
0.0
144
1.0
144
0.0
144
0.0
144
0.0
144
0.0
144
1.0
147
0.0208333333333333
147
0.0
147
0.0
147
0.0
147
0.0
147
0.0208333333333333
147
0.0
147
0.0
147
0.0
147
0.0
147
1.0
147
0.0
147
0.0
147
0.0
147
0.0
147
1.0
  0
MATERIAL
  5
AB
102
{ACAD_XDICTIONARY
360
AC
102
}
102
{ACAD_REACTORS
330
AA
102
}
330
AA
100
AcDbMaterial
  1
ByLayer
 72
     0
 43
0.0208333333333333
 43
0.0
 43
0.0
 43
0.0
 43
0.0
 43
0.0208333333333333
 43
0.0
 43
0.0
 43
0.0
 43
0.0
 43
1.0
 43
0.0
 43
0.0
 43
0.0
 43
0.0
 43
1.0
 77
     0
 47
0.0208333333333333
 47
0.0
 47
0.0
 47
0.0
 47
0.0
 47
0.0208333333333333
 47
0.0
 47
0.0
 47
0.0
 47
0.0
 47
1.0
 47
0.0
 47
0.0
 47
0.0
 47
0.0
 47
1.0
171
     0
 49
0.0208333333333333
 49
0.0
 49
0.0
 49
0.0
 49
0.0
 49
0.0208333333333333
 49
0.0
 49
0.0
 49
0.0
 49
0.0
 49
1.0
 49
0.0
 49
0.0
 49
0.0
 49
0.0
 49
1.0
175
     0
142
0.0208333333333333
142
0.0
142
0.0
142
0.0
142
0.0
142
0.0208333333333333
142
0.0
142
0.0
142
0.0
142
0.0
142
1.0
142
0.0
142
0.0
142
0.0
142
0.0
142
1.0
179
     0
144
0.0208333333333333
144
0.0
144
0.0
144
0.0
144
0.0
144
0.0208333333333333
144
0.0
144
0.0
144
0.0
144
0.0
144
1.0
144
0.0
144
0.0
144
0.0
144
0.0
144
1.0
147
0.0208333333333333
147
0.0
147
0.0
147
0.0
147
0.0
147
0.0208333333333333
147
0.0
147
0.0
147
0.0
147
0.0
147
1.0
147
0.0
147
0.0
147
0.0
147
0.0
147
1.0
  0
MATERIAL
  5
BB
102
{ACAD_XDICTIONARY
360
BC
102
}
102
{ACAD_REACTORS
330
AA
102
}
330
AA
100
AcDbMaterial
  1
Global
 72
     0
 43
0.0208333333333333
 43
0.0
 43
0.0
 43
0.0
 43
0.0
 43
0.0208333333333333
 43
0.0
 43
0.0
 43
0.0
 43
0.0
 43
1.0
 43
0.0
 43
0.0
 43
0.0
 43
0.0
 43
1.0
 77
     0
 47
0.0208333333333333
 47
0.0
 47
0.0
 47
0.0
 47
0.0
 47
0.0208333333333333
 47
0.0
 47
0.0
 47
0.0
 47
0.0
 47
1.0
 47
0.0
 47
0.0
 47
0.0
 47
0.0
 47
1.0
171
     0
 49
0.0208333333333333
 49
0.0
 49
0.0
 49
0.0
 49
0.0
 49
0.0208333333333333
 49
0.0
 49
0.0
 49
0.0
 49
0.0
 49
1.0
 49
0.0
 49
0.0
 49
0.0
 49
0.0
 49
1.0
175
     0
142
0.0208333333333333
142
0.0
142
0.0
142
0.0
142
0.0
142
0.0208333333333333
142
0.0
142
0.0
142
0.0
142
0.0
142
1.0
142
0.0
142
0.0
142
0.0
142
0.0
142
1.0
179
     0
144
0.0208333333333333
144
0.0
144
0.0
144
0.0
144
0.0
144
0.0208333333333333
144
0.0
144
0.0
144
0.0
144
0.0
144
1.0
144
0.0
144
0.0
144
0.0
144
0.0
144
1.0
147
0.0208333333333333
147
0.0
147
0.0
147
0.0
147
0.0
147
0.0208333333333333
147
0.0
147
0.0
147
0.0
147
0.0
147
1.0
147
0.0
147
0.0
147
0.0
147
0.0
147
1.0
  0
MLEADERSTYLE
  5
F2
102
{ACAD_XDICTIONARY
360
1AE
102
}
102
{ACAD_REACTORS
330
F1
102
}
330
F1
100
AcDbMLeaderStyle
179
     2
170
     2
171
     1
172
     0
 90
        2
 40
0.0
 41
0.0
173
     1
 91
-1056964608
340
14
 92
       -2
290
     1
 42
0.09
291
     1
 43
0.36
  3
Standard
 44
0.18
300

342
11
174
     1
178
     6
175
     1
176
     0
 93
-1056964608
 45
0.18
292
     0
297
     0
 46
0.18
 94
-1056964608
 47
1.0
 49
1.0
140
1.0
293
     1
141
0.0
294
     1
177
     0
142
1.0
295
     0
296
     0
143
0.125
271
     0
272
     9
273
     9
  0
MLINESTYLE
  5
18
102
{ACAD_REACTORS
330
17
102
}
330
17
100
AcDbMlineStyle
  2
STANDARD
 70
     0
  3

 62
   256
 51
90.0
 52
90.0
 71
     2
 49
0.5
 62
   256
  6
BYLAYER
 49
-0.5
 62
   256
  6
BYLAYER
  0
ACDBPLACEHOLDER
  5
2D
102
{ACAD_REACTORS
330
E
102
}
330
E
  0
ACDBPLACEHOLDER
  5
F
102
{ACAD_REACTORS
330
E
102
}
330
E
  0
SCALE
  5
E0
102
{ACAD_REACTORS
330
DF
102
}
330
DF
100
AcDbScale
 70
     0
300
1:1
140
1.0
141
1.0
290
     1
  0
SCALE
  5
E1
102
{ACAD_REACTORS
330
DF
102
}
330
DF
100
AcDbScale
 70
     0
300
1/128" = 1'-0"
140
0.0078125
141
12.0
290
     0
  0
SCALE
  5
E2
102
{ACAD_REACTORS
330
DF
102
}
330
DF
100
AcDbScale
 70
     0
300
1/64" = 1'-0"
140
0.015625
141
12.0
290
     0
  0
SCALE
  5
E3
102
{ACAD_REACTORS
330
DF
102
}
330
DF
100
AcDbScale
 70
     0
300
1/32" = 1'-0"
140
0.03125
141
12.0
290
     0
  0
SCALE
  5
E4
102
{ACAD_REACTORS
330
DF
102
}
330
DF
100
AcDbScale
 70
     0
300
1/16" = 1'-0"
140
0.0625
141
12.0
290
     0
  0
SCALE
  5
E5
102
{ACAD_REACTORS
330
DF
102
}
330
DF
100
AcDbScale
 70
     0
300
3/32" = 1'-0"
140
0.09375
141
12.0
290
     0
  0
SCALE
  5
E6
102
{ACAD_REACTORS
330
DF
102
}
330
DF
100
AcDbScale
 70
     0
300
1/8" = 1'-0"
140
0.125
141
12.0
290
     0
  0
SCALE
  5
E7
102
{ACAD_REACTORS
330
DF
102
}
330
DF
100
AcDbScale
 70
     0
300
3/16" = 1'-0"
140
0.1875
141
12.0
290
     0
  0
SCALE
  5
E8
102
{ACAD_REACTORS
330
DF
102
}
330
DF
100
AcDbScale
 70
     0
300
1/4" = 1'-0"
140
0.25
141
12.0
290
     0
  0
SCALE
  5
E9
102
{ACAD_REACTORS
330
DF
102
}
330
DF
100
AcDbScale
 70
     0
300
3/8" = 1'-0"
140
0.375
141
12.0
290
     0
  0
SCALE
  5
EA
102
{ACAD_REACTORS
330
DF
102
}
330
DF
100
AcDbScale
 70
     0
300
1/2" = 1'-0"
140
0.5
141
12.0
290
     0
  0
SCALE
  5
EB
102
{ACAD_REACTORS
330
DF
102
}
330
DF
100
AcDbScale
 70
     0
300
3/4" = 1'-0"
140
0.75
141
12.0
290
     0
  0
SCALE
  5
EC
102
{ACAD_REACTORS
330
DF
102
}
330
DF
100
AcDbScale
 70
     0
300
1" = 1'-0"
140
1.0
141
12.0
290
     0
  0
SCALE
  5
ED
102
{ACAD_REACTORS
330
DF
102
}
330
DF
100
AcDbScale
 70
     0
300
1-1/2" = 1'-0"
140
1.5
141
12.0
290
     0
  0
SCALE
  5
EE
102
{ACAD_REACTORS
330
DF
102
}
330
DF
100
AcDbScale
 70
     0
300
3" = 1'-0"
140
3.0
141
12.0
290
     0
  0
SCALE
  5
EF
102
{ACAD_REACTORS
330
DF
102
}
330
DF
100
AcDbScale
 70
     0
300
6" = 1'-0"
140
6.0
141
12.0
290
     0
  0
SCALE
  5
F0
102
{ACAD_REACTORS
330
DF
102
}
330
DF
100
AcDbScale
 70
     0
300
1'-0" = 1'-0"
140
12.0
141
12.0
290
     0
  0
ACDBSECTIONVIEWSTYLE
  5
F4
102
{ACAD_XDICTIONARY
360
1B0
102
}
102
{ACAD_REACTORS
330
F3
102
}
330
F3
100
AcDbModelDocViewStyle
 70
     0
  3
Imperial24
290
     0
100
AcDbSectionViewStyle
 70
     0
 71
     0
 90
       78
 71
     1
340
11
 62
   256
 40
0.24
340
0
340
0
 62
   256
 40
0.24
300
I, O, Q, S, X, Z
 40
0.48
 90
        3
 40
0.18
 90
        1
 71
     2
340
16
 90
       25
 62
   256
340
16
 90
       50
 62
   256
 40
0.24
 40
0.0
 40
0.24
 71
     3
340
11
 62
   256
 40
0.24
 90
        1
 40
0.75
 90
        1
300
%<\AcVar ViewType \f "%tc1">% %<\AcVar ViewSectionStartId>%-%<\AcVar ViewSectionEndId>%\PSCALE %<\AcVar ViewScale \f "%sn">%
 71
     4
 62
   256
 62
   257
300
ANSI31
 40
1.0
 90
        0
290
     0
290
     0
 90
        6
 40
0.0
 40
1.570796326794896
 40
0.2617993877991494
 40
1.308996938995747
 40
-0.2617993877991494
 40
1.832595714594046
  0
TABLESTYLE
  5
DE
102
{ACAD_XDICTIONARY
360
17B
102
}
102
{ACAD_REACTORS
330
DD
102
}
330
DD
100
AcDbTableStyle
280
     0
  3
Standard
 70
     0
 71
     0
 40
0.06
 41
0.06
280
     0
281
     0
  7
Standard
140
0.18
170
     2
 62
     0
 63
     7
283
     0
 90
      512
 91
        0
  1

274
    -2
284
     1
 64
     0
275
    -2
285
     1
 65
     0
276
    -2
286
     1
 66
     0
277
    -2
287
     1
 67
     0
278
    -2
288
     1
 68
     0
279
    -2
289
     1
 69
     0
  7
Standard
140
0.25
170
     5
 62
     0
 63
     7
283
     0
 90
      512
 91
        0
  1

274
    -2
284
     1
 64
     0
275
    -2
285
     1
 65
     0
276
    -2
286
     1
 66
     0
277
    -2
287
     1
 67
     0
278
    -2
288
     1
 68
     0
279
    -2
289
     1
 69
     0
  7
Standard
140
0.18
170
     5
 62
     0
 63
     7
283
     0
 90
      512
 91
        0
  1

274
    -2
284
     1
 64
     0
275
    -2
285
     1
 65
     0
276
    -2
286
     1
 66
     0
277
    -2
287
     1
 67
     0
278
    -2
288
     1
 68
     0
279
    -2
289
     1
 69
     0
  0
VISUALSTYLE
  5
C9
102
{ACAD_XDICTIONARY
360
188
102
}
102
{ACAD_REACTORS
330
C3
102
}
330
C3
100
AcDbVisualStyle
  2
2dWireframe
 70
     4
177
     2
291
     0
 71
     0
176
     1
 72
     2
176
     1
 73
     0
176
     1
 90
        0
176
     1
 40
0.6
176
     1
 41
30.0
176
     1
 63
     7
421
 16777215
176
     1
 74
     1
176
     1
 91
        4
176
     1
 64
     7
176
     1
 65
   257
176
     1
 75
     1
176
     1
175
     1
176
     1
 42
1.0
176
     1
 92
        0
176
     1
 66
   257
176
     1
 43
1.0
176
     1
 76
     1
176
     1
 77
     6
176
     1
 78
     2
176
     1
 67
     7
176
     1
 79
     5
176
     1
170
     0
176
     1
171
     0
176
     1
290
     0
176
     1
 93
        1
176
     1
 44
0.0
176
     1
173
     0
176
     1
1001
ACAD
1000
AcDbSavedByObjectVersion
1070
     0
  0
VISUALSTYLE
  5
C8
102
{ACAD_XDICTIONARY
360
186
102
}
102
{ACAD_REACTORS
330
C3
102
}
330
C3
100
AcDbVisualStyle
  2
Basic
 70
     7
177
     2
291
     1
 71
     1
176
     1
 72
     0
176
     1
 73
     1
176
     1
 90
        0
176
     1
 40
0.6
176
     1
 41
30.0
176
     1
 63
     7
421
 16777215
176
     1
 74
     0
176
     1
 91
        4
176
     1
 64
     7
176
     1
 65
   257
176
     1
 75
     1
176
     1
175
     1
176
     1
 42
1.0
176
     1
 92
        8
176
     1
 66
     7
176
     1
 43
1.0
176
     1
 76
     1
176
     1
 77
     6
176
     1
 78
     2
176
     1
 67
     7
176
     1
 79
     5
176
     1
170
     0
176
     1
171
     0
176
     1
290
     0
176
     1
 93
        1
176
     1
 44
0.0
176
     1
173
     0
176
     1
1001
ACAD
1000
AcDbSavedByObjectVersion
1070
     0
  0
VISUALSTYLE
  5
CF
102
{ACAD_XDICTIONARY
360
194
102
}
102
{ACAD_REACTORS
330
C3
102
}
330
C3
100
AcDbVisualStyle
  2
Brighten
 70
    12
177
     2
291
     1
 71
     2
176
     1
 72
     2
176
     1
 73
     0
176
     1
 90
        0
176
     1
 40
0.6
176
     1
 41
30.0
176
     1
 63
     7
421
 16777215
176
     1
 74
     1
176
     1
 91
        4
176
     1
 64
     7
176
     1
 65
   257
176
     1
 75
     1
176
     1
175
     1
176
     1
 42
1.0
176
     1
 92
        8
176
     1
 66
     7
176
     1
 43
1.0
176
     1
 76
     1
176
     1
 77
     6
176
     1
 78
     2
176
     1
 67
     7
176
     1
 79
     5
176
     1
170
     0
176
     1
171
     0
176
     1
290
     0
176
     1
 93
        1
176
     1
 44
50.0
176
     1
173
     0
176
     1
1001
ACAD
1000
AcDbSavedByObjectVersion
1070
     0
  0
VISUALSTYLE
  5
D3
102
{ACAD_XDICTIONARY
360
19C
102
}
102
{ACAD_REACTORS
330
C3
102
}
330
C3
100
AcDbVisualStyle
  2
ColorChange
 70
    16
177
     2
291
     1
 71
     2
176
     1
 72
     2
176
     1
 73
     3
176
     1
 90
        0
176
     1
 40
0.6
176
     1
 41
30.0
176
     1
 63
     8
421
  8421504
176
     1
 74
     1
176
     1
 91
        4
176
     1
 64
     7
176
     1
 65
   257
176
     1
 75
     1
176
     1
175
     1
176
     1
 42
1.0
176
     1
 92
        8
176
     1
 66
     8
424
  8421504
176
     1
 43
1.0
176
     1
 76
     1
176
     1
 77
     6
176
     1
 78
     2
176
     1
 67
     7
176
     1
 79
     5
176
     1
170
     0
176
     1
171
     0
176
     1
290
     0
176
     1
 93
        1
176
     1
 44
0.0
176
     1
173
     0
176
     1
1001
ACAD
1000
AcDbSavedByObjectVersion
1070
     0
  0
VISUALSTYLE
  5
CC
102
{ACAD_XDICTIONARY
360
18E
102
}
102
{ACAD_REACTORS
330
C3
102
}
330
C3
100
AcDbVisualStyle
  2
Conceptual
 70
     9
177
     2
291
     0
 71
     3
176
     1
 72
     2
176
     1
 73
     0
176
     1
 90
        0
176
     1
 40
0.6
176
     1
 41
30.0
176
     1
 63
     7
421
 16777215
176
     1
 74
     2
176
     1
 91
        2
176
     1
 64
     7
176
     1
 65
   257
176
     1
 75
     1
176
     1
175
     1
176
     1
 42
179.0
176
     1
 92
        8
176
     1
 66
     7
176
     1
 43
1.0
176
     1
 76
     1
176
     1
 77
     6
176
     1
 78
     2
176
     1
 67
     7
176
     1
 79
     3
176
     1
170
     0
176
     1
171
     0
176
     1
290
     0
176
     1
 93
        1
176
     1
 44
0.0
176
     1
173
     0
176
     1
1001
ACAD
1000
AcDbSavedByObjectVersion
1070
     0
  0
VISUALSTYLE
  5
CE
102
{ACAD_XDICTIONARY
360
192
102
}
102
{ACAD_REACTORS
330
C3
102
}
330
C3
100
AcDbVisualStyle
  2
Dim
 70
    11
177
     2
291
     1
 71
     2
176
     1
 72
     2
176
     1
 73
     0
176
     1
 90
        0
176
     1
 40
0.6
176
     1
 41
30.0
176
     1
 63
     7
421
 16777215
176
     1
 74
     1
176
     1
 91
        4
176
     1
 64
     7
176
     1
 65
   257
176
     1
 75
     1
176
     1
175
     1
176
     1
 42
1.0
176
     1
 92
        8
176
     1
 66
     7
176
     1
 43
1.0
176
     1
 76
     1
176
     1
 77
     6
176
     1
 78
     2
176
     1
 67
     7
176
     1
 79
     5
176
     1
170
     0
176
     1
171
     0
176
     1
290
     0
176
     1
 93
        1
176
     1
 44
-50.0
176
     1
173
     0
176
     1
1001
ACAD
1000
AcDbSavedByObjectVersion
1070
     0
  0
VISUALSTYLE
  5
DB
102
{ACAD_XDICTIONARY
360
1AC
102
}
102
{ACAD_REACTORS
330
C3
102
}
330
C3
100
AcDbVisualStyle
  2
EdgeColorOff
 70
    22
177
     2
291
     1
 71
     2
176
     0
 72
     2
176
     0
 73
     0
176
     0
 90
        0
176
     0
 40
0.6
176
     0
 41
30.0
176
     0
 63
     7
421
 16777215
176
     0
 74
     1
176
     0
 91
        4
176
     0
 64
     7
176
     0
 65
   257
176
     0
 75
     1
176
     0
175
     1
176
     0
 42
1.0
176
     0
 92
        8
176
     2
 66
     7
176
     0
 43
1.0
176
     0
 76
     1
176
     0
 77
     6
176
     0
 78
     2
176
     0
 67
     7
176
     0
 79
     5
176
     0
170
     0
176
     0
171
     0
176
     0
290
     0
176
     0
 93
        1
176
     0
 44
0.0
176
     0
173
     0
176
     0
1001
ACAD
1000
AcDbSavedByObjectVersion
1070
     0
  0
VISUALSTYLE
  5
D2
102
{ACAD_XDICTIONARY
360
19A
102
}
102
{ACAD_REACTORS
330
C3
102
}
330
C3
100
AcDbVisualStyle
  2
Facepattern
 70
    15
177
     2
291
     1
 71
     2
176
     1
 72
     2
176
     1
 73
     0
176
     1
 90
        0
176
     1
 40
0.6
176
     1
 41
30.0
176
     1
 63
     7
421
 16777215
176
     1
 74
     1
176
     1
 91
        4
176
     1
 64
     7
176
     1
 65
   257
176
     1
 75
     1
176
     1
175
     1
176
     1
 42
1.0
176
     1
 92
        8
176
     1
 66
     7
176
     1
 43
1.0
176
     1
 76
     1
176
     1
 77
     6
176
     1
 78
     2
176
     1
 67
     7
176
     1
 79
     5
176
     1
170
     0
176
     1
171
     0
176
     1
290
     0
176
     1
 93
        1
176
     1
 44
0.0
176
     1
173
     0
176
     1
1001
ACAD
1000
AcDbSavedByObjectVersion
1070
     0
  0
VISUALSTYLE
  5
C4
102
{ACAD_XDICTIONARY
360
17E
102
}
102
{ACAD_REACTORS
330
C3
102
}
330
C3
100
AcDbVisualStyle
  2
Flat
 70
     0
177
     2
291
     1
 71
     2
176
     1
 72
     1
176
     1
 73
     1
176
     1
 90
        2
176
     1
 40
0.6
176
     1
 41
30.0
176
     1
 63
     7
421
 16777215
176
     1
 74
     0
176
     1
 91
        0
176
     1
 64
     7
176
     1
 65
   257
176
     1
 75
     1
176
     1
175
     1
176
     1
 42
1.0
176
     1
 92
        8
176
     1
 66
     7
176
     1
 43
1.0
176
     1
 76
     1
176
     1
 77
     6
176
     1
 78
     2
176
     1
 67
     7
176
     1
 79
     5
176
     1
170
     0
176
     1
171
     0
176
     1
290
     0
176
     1
 93
       13
176
     1
 44
0.0
176
     1
173
     0
176
     1
1001
ACAD
1000
AcDbSavedByObjectVersion
1070
     0
  0
VISUALSTYLE
  5
C5
102
{ACAD_XDICTIONARY
360
180
102
}
102
{ACAD_REACTORS
330
C3
102
}
330
C3
100
AcDbVisualStyle
  2
FlatWithEdges
 70
     1
177
     2
291
     1
 71
     2
176
     1
 72
     1
176
     1
 73
     1
176
     1
 90
        2
176
     1
 40
0.6
176
     1
 41
30.0
176
     1
 63
     7
421
 16777215
176
     1
 74
     1
176
     1
 91
        0
176
     1
 64
     7
176
     1
 65
   257
176
     1
 75
     1
176
     1
175
     1
176
     1
 42
1.0
176
     1
 92
        0
176
     1
 66
   257
176
     1
 43
1.0
176
     1
 76
     1
176
     1
 77
     6
176
     1
 78
     2
176
     1
 67
     7
176
     1
 79
     5
176
     1
170
     0
176
     1
171
     0
176
     1
290
     0
176
     1
 93
       13
176
     1
 44
0.0
176
     1
173
     0
176
     1
1001
ACAD
1000
AcDbSavedByObjectVersion
1070
     0
  0
VISUALSTYLE
  5
C6
102
{ACAD_XDICTIONARY
360
182
102
}
102
{ACAD_REACTORS
330
C3
102
}
330
C3
100
AcDbVisualStyle
  2
Gouraud
 70
     2
177
     2
291
     1
 71
     2
176
     1
 72
     2
176
     1
 73
     1
176
     1
 90
        2
176
     1
 40
0.6
176
     1
 41
30.0
176
     1
 63
     7
421
 16777215
176
     1
 74
     0
176
     1
 91
        0
176
     1
 64
     7
176
     1
 65
   257
176
     1
 75
     1
176
     1
175
     1
176
     1
 42
1.0
176
     1
 92
        0
176
     1
 66
     7
176
     1
 43
1.0
176
     1
 76
     1
176
     1
 77
     6
176
     1
 78
     2
176
     1
 67
     7
176
     1
 79
     5
176
     1
170
     0
176
     1
171
     0
176
     1
290
     0
176
     1
 93
       13
176
     1
 44
0.0
176
     1
173
     0
176
     1
1001
ACAD
1000
AcDbSavedByObjectVersion
1070
     0
  0
VISUALSTYLE
  5
C7
102
{ACAD_XDICTIONARY
360
184
102
}
102
{ACAD_REACTORS
330
C3
102
}
330
C3
100
AcDbVisualStyle
  2
GouraudWithEdges
 70
     3
177
     2
291
     1
 71
     2
176
     1
 72
     2
176
     1
 73
     1
176
     1
 90
        2
176
     1
 40
0.6
176
     1
 41
30.0
176
     1
 63
     7
421
 16777215
176
     1
 74
     1
176
     1
 91
        0
176
     1
 64
     7
176
     1
 65
   257
176
     1
 75
     1
176
     1
175
     1
176
     1
 42
1.0
176
     1
 92
        0
176
     1
 66
   257
176
     1
 43
1.0
176
     1
 76
     1
176
     1
 77
     6
176
     1
 78
     2
176
     1
 67
     7
176
     1
 79
     5
176
     1
170
     0
176
     1
171
     0
176
     1
290
     0
176
     1
 93
       13
176
     1
 44
0.0
176
     1
173
     0
176
     1
1001
ACAD
1000
AcDbSavedByObjectVersion
1070
     0
  0
VISUALSTYLE
  5
CB
102
{ACAD_XDICTIONARY
360
18C
102
}
102
{ACAD_REACTORS
330
C3
102
}
330
C3
100
AcDbVisualStyle
  2
Hidden
 70
     6
177
     2
291
     0
 71
     1
176
     1
 72
     2
176
     1
 73
     2
176
     1
 90
        0
176
     1
 40
0.6
176
     1
 41
30.0
176
     1
 63
     7
421
 16777215
176
     1
 74
     2
176
     1
 91
        2
176
     1
 64
     7
176
     1
 65
   257
176
     1
 75
     2
176
     1
175
     1
176
     1
 42
40.0
176
     1
 92
        0
176
     1
 66
   257
176
     1
 43
1.0
176
     1
 76
     1
176
     1
 77
     6
176
     1
 78
     2
176
     1
 67
     7
176
     1
 79
     3
176
     1
170
     0
176
     1
171
     0
176
     1
290
     0
176
     1
 93
        1
176
     1
 44
0.0
176
     1
173
     0
176
     1
1001
ACAD
1000
AcDbSavedByObjectVersion
1070
     0
  0
VISUALSTYLE
  5
D9
102
{ACAD_XDICTIONARY
360
1A8
102
}
102
{ACAD_REACTORS
330
C3
102
}
330
C3
100
AcDbVisualStyle
  2
JitterOff
 70
    20
177
     2
291
     1
 71
     2
176
     0
 72
     2
176
     0
 73
     0
176
     0
 90
        0
176
     0
 40
0.6
176
     0
 41
30.0
176
     0
 63
     7
421
 16777215
176
     0
 74
     1
176
     0
 91
        4
176
     0
 64
     7
176
     0
 65
   257
176
     0
 75
     1
176
     0
175
     1
176
     0
 42
1.0
176
     0
 92
       10
176
     2
 66
     7
176
     0
 43
1.0
176
     0
 76
     1
176
     0
 77
     6
176
     0
 78
     2
176
     0
 67
     7
176
     0
 79
     5
176
     0
170
     0
176
     0
171
     0
176
     0
290
     0
176
     0
 93
        1
176
     0
 44
0.0
176
     0
173
     0
176
     0
1001
ACAD
1000
AcDbSavedByObjectVersion
1070
     0
  0
VISUALSTYLE
  5
D1
102
{ACAD_XDICTIONARY
360
198
102
}
102
{ACAD_REACTORS
330
C3
102
}
330
C3
100
AcDbVisualStyle
  2
Linepattern
 70
    14
177
     2
291
     1
 71
     2
176
     1
 72
     2
176
     1
 73
     0
176
     1
 90
        0
176
     1
 40
0.6
176
     1
 41
30.0
176
     1
 63
     7
421
 16777215
176
     1
 74
     1
176
     1
 91
        4
176
     1
 64
     7
176
     1
 65
   257
176
     1
 75
     7
176
     1
175
     7
176
     1
 42
1.0
176
     1
 92
        8
176
     1
 66
     7
176
     1
 43
1.0
176
     1
 76
     1
176
     1
 77
     6
176
     1
 78
     2
176
     1
 67
     7
176
     1
 79
     5
176
     1
170
     0
176
     1
171
     0
176
     1
290
     0
176
     1
 93
        1
176
     1
 44
0.0
176
     1
173
     0
176
     1
1001
ACAD
1000
AcDbSavedByObjectVersion
1070
     0
  0
VISUALSTYLE
  5
DA
102
{ACAD_XDICTIONARY
360
1AA
102
}
102
{ACAD_REACTORS
330
C3
102
}
330
C3
100
AcDbVisualStyle
  2
OverhangOff
 70
    21
177
     2
291
     1
 71
     2
176
     0
 72
     2
176
     0
 73
     0
176
     0
 90
        0
176
     0
 40
0.6
176
     0
 41
30.0
176
     0
 63
     7
421
 16777215
176
     0
 74
     1
176
     0
 91
        4
176
     0
 64
     7
176
     0
 65
   257
176
     0
 75
     1
176
     0
175
     1
176
     0
 42
1.0
176
     0
 92
        9
176
     2
 66
     7
176
     0
 43
1.0
176
     0
 76
     1
176
     0
 77
     6
176
     0
 78
     2
176
     0
 67
     7
176
     0
 79
     5
176
     0
170
     0
176
     0
171
     0
176
     0
290
     0
176
     0
 93
        1
176
     0
 44
0.0
176
     0
173
     0
176
     0
1001
ACAD
1000
AcDbSavedByObjectVersion
1070
     0
  0
VISUALSTYLE
  5
CD
102
{ACAD_XDICTIONARY
360
190
102
}
102
{ACAD_REACTORS
330
C3
102
}
330
C3
100
AcDbVisualStyle
  2
Realistic
 70
     8
177
     2
291
     0
 71
     2
176
     1
 72
     3
176
     1
 73
     0
176
     1
 90
        2
176
     1
 40
0.6
176
     1
 41
30.0
176
     1
 63
     7
421
 16777215
176
     1
 74
     0
176
     1
 91
        0
176
     1
 64
     7
176
     1
 65
   257
176
     1
 75
     1
176
     1
175
     1
176
     1
 42
1.0
176
     1
 92
        8
176
     1
 66
   257
176
     1
 43
1.0
176
     1
 76
     1
176
     1
 77
     6
176
     1
 78
     2
176
     1
 67
     7
176
     1
 79
     3
176
     1
170
     0
176
     1
171
     0
176
     1
290
     0
176
     1
 93
       13
176
     1
 44
0.0
176
     1
173
     0
176
     1
1001
ACAD
1000
AcDbSavedByObjectVersion
1070
     0
  0
VISUALSTYLE
  5
D8
102
{ACAD_XDICTIONARY
360
1A6
102
}
102
{ACAD_REACTORS
330
C3
102
}
330
C3
100
AcDbVisualStyle
  2
Shaded
 70
    27
177
     2
291
     0
 71
     2
176
     1
 72
     2
176
     1
 73
     1
176
     1
 90
        2
176
     1
 40
0.6
176
     1
 41
30.0
176
     1
 63
     7
421
 16777215
176
     1
 74
     0
176
     1
 91
        4
176
     1
 64
     7
176
     1
 65
   257
176
     1
 75
     1
176
     1
175
     1
176
     1
 42
1.0
176
     1
 92
        8
176
     1
 66
   257
176
     1
 43
1.0
176
     1
 76
     1
176
     1
 77
     6
176
     1
 78
     2
176
     1
 67
     8
425
  7895160
176
     1
 79
     3
176
     1
170
     0
176
     1
171
     0
176
     1
290
     0
176
     1
 93
        5
176
     1
 44
0.0
176
     1
173
     0
176
     1
1001
ACAD
1000
AcDbSavedByObjectVersion
1070
     0
  0
VISUALSTYLE
  5
D7
102
{ACAD_XDICTIONARY
360
1A4
102
}
102
{ACAD_REACTORS
330
C3
102
}
330
C3
100
AcDbVisualStyle
  2
Shaded with edges
 70
    26
177
     2
291
     0
 71
     2
176
     1
 72
     2
176
     1
 73
     1
176
     1
 90
        2
176
     1
 40
0.6
176
     1
 41
30.0
176
     1
 63
     7
421
 16777215
176
     1
 74
     1
176
     1
 91
       10
176
     1
 64
     7
176
     1
 65
   257
176
     1
 75
     2
176
     1
175
     1
176
     1
 42
1.0
176
     1
 92
        8
176
     1
 66
   257
176
     1
 43
1.0
176
     1
 76
     1
176
     1
 77
     6
176
     1
 78
     2
176
     1
 67
     7
176
     1
 79
     3
176
     1
170
     0
176
     1
171
     0
176
     1
290
     0
176
     1
 93
        5
176
     1
 44
0.0
176
     1
173
     0
176
     1
1001
ACAD
1000
AcDbSavedByObjectVersion
1070
     0
  0
VISUALSTYLE
  5
D4
102
{ACAD_XDICTIONARY
360
19E
102
}
102
{ACAD_REACTORS
330
C3
102
}
330
C3
100
AcDbVisualStyle
  2
Shades of Gray
 70
    23
177
     2
291
     0
 71
     2
176
     1
 72
     2
176
     1
 73
     3
176
     1
 90
        0
176
     1
 40
0.6
176
     1
 41
30.0
176
     1
 63
     7
421
 16777215
176
     1
 74
     2
176
     1
 91
        2
176
     1
 64
     7
176
     1
 65
     7
176
     1
 75
     1
176
     1
175
     1
176
     1
 42
40.0
176
     1
 92
        8
176
     1
 66
     7
176
     1
 43
1.0
176
     1
 76
     1
176
     1
 77
     6
176
     1
 78
     2
176
     1
 67
     7
176
     1
 79
     3
176
     1
170
     0
176
     1
171
     0
176
     1
290
     0
176
     1
 93
        1
176
     1
 44
0.0
176
     1
173
     0
176
     1
1001
ACAD
1000
AcDbSavedByObjectVersion
1070
     0
  0
VISUALSTYLE
  5
D5
102
{ACAD_XDICTIONARY
360
1A0
102
}
102
{ACAD_REACTORS
330
C3
102
}
330
C3
100
AcDbVisualStyle
  2
Sketchy
 70
    24
177
     2
291
     0
 71
     1
176
     1
 72
     2
176
     1
 73
     2
176
     1
 90
        0
176
     1
 40
0.6
176
     1
 41
30.0
176
     1
 63
     7
421
 16777215
176
     1
 74
     2
176
     1
 91
        2
176
     1
 64
     7
176
     1
 65
     7
176
     1
 75
     1
176
     1
175
     1
176
     1
 42
40.0
176
     1
 92
       11
176
     1
 66
     7
176
     1
 43
1.0
176
     1
 76
     1
176
     1
 77
     6
176
     1
 78
     2
176
     1
 67
     7
176
     1
 79
     6
176
     1
170
     0
176
     1
171
     0
176
     1
290
     0
176
     1
 93
        1
176
     1
 44
0.0
176
     1
173
     0
176
     1
1001
ACAD
1000
AcDbSavedByObjectVersion
1070
     0
  0
VISUALSTYLE
  5
D0
102
{ACAD_XDICTIONARY
360
196
102
}
102
{ACAD_REACTORS
330
C3
102
}
330
C3
100
AcDbVisualStyle
  2
Thicken
 70
    13
177
     2
291
     1
 71
     2
176
     1
 72
     2
176
     1
 73
     0
176
     1
 90
        0
176
     1
 40
0.6
176
     1
 41
30.0
176
     1
 63
     7
421
 16777215
176
     1
 74
     1
176
     1
 91
        4
176
     1
 64
     7
176
     1
 65
   257
176
     1
 75
     1
176
     1
175
     1
176
     1
 42
1.0
176
     1
 92
       12
176
     1
 66
     7
176
     1
 43
1.0
176
     1
 76
     1
176
     1
 77
     6
176
     1
 78
     2
176
     1
 67
     7
176
     1
 79
     5
176
     1
170
     0
176
     1
171
     0
176
     1
290
     0
176
     1
 93
        1
176
     1
 44
0.0
176
     1
173
     0
176
     1
1001
ACAD
1000
AcDbSavedByObjectVersion
1070
     0
  0
VISUALSTYLE
  5
CA
102
{ACAD_XDICTIONARY
360
18A
102
}
102
{ACAD_REACTORS
330
C3
102
}
330
C3
100
AcDbVisualStyle
  2
Wireframe
 70
     5
177
     2
291
     0
 71
     0
176
     1
 72
     2
176
     1
 73
     0
176
     1
 90
        0
176
     1
 40
0.6
176
     1
 41
30.0
176
     1
 63
     7
421
 16777215
176
     1
 74
     1
176
     1
 91
        4
176
     1
 64
     7
176
     1
 65
   257
176
     1
 75
     1
176
     1
175
     1
176
     1
 42
1.0
176
     1
 92
        0
176
     1
 66
   257
176
     1
 43
1.0
176
     1
 76
     1
176
     1
 77
     6
176
     1
 78
     2
176
     1
 67
     7
176
     1
 79
     3
176
     1
170
     0
176
     1
171
     0
176
     1
290
     0
176
     1
 93
        1
176
     1
 44
0.0
176
     1
173
     0
176
     1
1001
ACAD
1000
AcDbSavedByObjectVersion
1070
     0
  0
VISUALSTYLE
  5
D6
102
{ACAD_XDICTIONARY
360
1A2
102
}
102
{ACAD_REACTORS
330
C3
102
}
330
C3
100
AcDbVisualStyle
  2
X-Ray
 70
    25
177
     2
291
     0
 71
     2
176
     1
 72
     2
176
     1
 73
     1
176
     1
 90
        1
176
     1
 40
0.5
176
     1
 41
30.0
176
     1
 63
     7
421
 16777215
176
     1
 74
     1
176
     1
 91
        0
176
     1
 64
     7
176
     1
 65
   257
176
     1
 75
     1
176
     1
175
     1
176
     1
 42
1.0
176
     1
 92
        8
176
     1
 66
     7
176
     1
 43
1.0
176
     1
 76
     1
176
     1
 77
     6
176
     1
 78
     2
176
     1
 67
     7
176
     1
 79
     3
176
     1
170
     0
176
     1
171
     0
176
     1
290
     0
176
     1
 93
       13
176
     1
 44
0.0
176
     1
173
     0
176
     1
1001
ACAD
1000
AcDbSavedByObjectVersion
1070
     0
  0
DICTIONARYVAR
  5
177
102
{ACAD_REACTORS
330
171
102
}
330
171
100
DictionaryVariables
280
     0
  1
1:1
  0
DICTIONARYVAR
  5
173
102
{ACAD_REACTORS
330
171
102
}
330
171
100
DictionaryVariables
280
     0
  1
STANDARD
  0
DICTIONARYVAR
  5
172
102
{ACAD_REACTORS
330
171
102
}
330
171
100
DictionaryVariables
280
     0
  1
STANDARD
  0
DICTIONARYVAR
  5
174
102
{ACAD_REACTORS
330
171
102
}
330
171
100
DictionaryVariables
280
     0
  1
Imperial24
  0
DICTIONARYVAR
  5
175
102
{ACAD_REACTORS
330
171
102
}
330
171
100
DictionaryVariables
280
     0
  1
Imperial24
  0
DICTIONARYVAR
  5
179
102
{ACAD_REACTORS
330
171
102
}
330
171
100
DictionaryVariables
280
     0
  1
1
  0
DICTIONARYVAR
  5
17A
102
{ACAD_REACTORS
330
171
102
}
330
171
100
DictionaryVariables
280
     0
  1
15
  0
DICTIONARYVAR
  5
178
102
{ACAD_REACTORS
330
171
102
}
330
171
100
DictionaryVariables
280
     0
  1
0
  0
DICTIONARYVAR
  5
176
102
{ACAD_REACTORS
330
171
102
}
330
171
100
DictionaryVariables
280
     0
  1
0
  0
DICTIONARY
  5
1B2
330
F6
100
AcDbDictionary
280
     1
281
     1
  3
ACAD_XREC_ROUNDTRIP
360
1B3
  0
DICTIONARY
  5
B4
330
B3
100
AcDbDictionary
280
     1
281
     1
  3
BUMPTILE
360
B6
  3
DIFFUSETILE
360
B5
  3
OPACITYTILE
360
B9
  3
REFLECTIONTILE
360
B8
  3
REFRACTIONTILE
360
BA
  3
SPECULARTILE
360
B7
  0
DICTIONARY
  5
AC
330
AB
100
AcDbDictionary
280
     1
281
     1
  3
BUMPTILE
360
AE
  3
DIFFUSETILE
360
AD
  3
OPACITYTILE
360
B1
  3
REFLECTIONTILE
360
B0
  3
REFRACTIONTILE
360
B2
  3
SPECULARTILE
360
AF
  0
DICTIONARY
  5
BC
330
BB
100
AcDbDictionary
280
     1
281
     1
  3
BUMPTILE
360
BE
  3
DIFFUSETILE
360
BD
  3
OPACITYTILE
360
C1
  3
REFLECTIONTILE
360
C0
  3
REFRACTIONTILE
360
C2
  3
SPECULARTILE
360
BF
  0
DICTIONARY
  5
1AE
330
F2
100
AcDbDictionary
280
     1
281
     1
  3
ACAD_XREC_ROUNDTRIP
360
1AF
  0
DICTIONARY
  5
1B0
330
F4
100
AcDbDictionary
280
     1
281
     1
  3
ACAD_XREC_ROUNDTRIP
360
1B1
  0
DICTIONARY
  5
17B
330
DE
100
AcDbDictionary
280
     1
281
     1
  3
ACAD_ROUNDTRIP_2008_TABLESTYLE_CELLSTYLEMAP
360
17C
  0
DICTIONARY
  5
188
330
C9
100
AcDbDictionary
280
     1
281
     1
  3
ACAD_XREC_ROUNDTRIP
360
189
  0
DICTIONARY
  5
186
330
C8
100
AcDbDictionary
280
     1
281
     1
  3
ACAD_XREC_ROUNDTRIP
360
187
  0
DICTIONARY
  5
194
330
CF
100
AcDbDictionary
280
     1
281
     1
  3
ACAD_XREC_ROUNDTRIP
360
195
  0
DICTIONARY
  5
19C
330
D3
100
AcDbDictionary
280
     1
281
     1
  3
ACAD_XREC_ROUNDTRIP
360
19D
  0
DICTIONARY
  5
18E
330
CC
100
AcDbDictionary
280
     1
281
     1
  3
ACAD_XREC_ROUNDTRIP
360
18F
  0
DICTIONARY
  5
192
330
CE
100
AcDbDictionary
280
     1
281
     1
  3
ACAD_XREC_ROUNDTRIP
360
193
  0
DICTIONARY
  5
1AC
330
DB
100
AcDbDictionary
280
     1
281
     1
  3
ACAD_XREC_ROUNDTRIP
360
1AD
  0
DICTIONARY
  5
19A
330
D2
100
AcDbDictionary
280
     1
281
     1
  3
ACAD_XREC_ROUNDTRIP
360
19B
  0
DICTIONARY
  5
17E
330
C4
100
AcDbDictionary
280
     1
281
     1
  3
ACAD_XREC_ROUNDTRIP
360
17F
  0
DICTIONARY
  5
180
330
C5
100
AcDbDictionary
280
     1
281
     1
  3
ACAD_XREC_ROUNDTRIP
360
181
  0
DICTIONARY
  5
182
330
C6
100
AcDbDictionary
280
     1
281
     1
  3
ACAD_XREC_ROUNDTRIP
360
183
  0
DICTIONARY
  5
184
330
C7
100
AcDbDictionary
280
     1
281
     1
  3
ACAD_XREC_ROUNDTRIP
360
185
  0
DICTIONARY
  5
18C
330
CB
100
AcDbDictionary
280
     1
281
     1
  3
ACAD_XREC_ROUNDTRIP
360
18D
  0
DICTIONARY
  5
1A8
330
D9
100
AcDbDictionary
280
     1
281
     1
  3
ACAD_XREC_ROUNDTRIP
360
1A9
  0
DICTIONARY
  5
198
330
D1
100
AcDbDictionary
280
     1
281
     1
  3
ACAD_XREC_ROUNDTRIP
360
199
  0
DICTIONARY
  5
1AA
330
DA
100
AcDbDictionary
280
     1
281
     1
  3
ACAD_XREC_ROUNDTRIP
360
1AB
  0
DICTIONARY
  5
190
330
CD
100
AcDbDictionary
280
     1
281
     1
  3
ACAD_XREC_ROUNDTRIP
360
191
  0
DICTIONARY
  5
1A6
330
D8
100
AcDbDictionary
280
     1
281
     1
  3
ACAD_XREC_ROUNDTRIP
360
1A7
  0
DICTIONARY
  5
1A4
330
D7
100
AcDbDictionary
280
     1
281
     1
  3
ACAD_XREC_ROUNDTRIP
360
1A5
  0
DICTIONARY
  5
19E
330
D4
100
AcDbDictionary
280
     1
281
     1
  3
ACAD_XREC_ROUNDTRIP
360
19F
  0
DICTIONARY
  5
1A0
330
D5
100
AcDbDictionary
280
     1
281
     1
  3
ACAD_XREC_ROUNDTRIP
360
1A1
  0
DICTIONARY
  5
196
330
D0
100
AcDbDictionary
280
     1
281
     1
  3
ACAD_XREC_ROUNDTRIP
360
197
  0
DICTIONARY
  5
18A
330
CA
100
AcDbDictionary
280
     1
281
     1
  3
ACAD_XREC_ROUNDTRIP
360
18B
  0
DICTIONARY
  5
1A2
330
D6
100
AcDbDictionary
280
     1
281
     1
  3
ACAD_XREC_ROUNDTRIP
360
1A3
  0
XRECORD
  5
1B3
102
{ACAD_REACTORS
330
1B2
102
}
330
1B2
100
AcDbXrecord
280
     1
102
DISPLAYNAME
  1
Imperial24
102
FLAGS
 90
        0
  0
XRECORD
  5
B6
102
{ACAD_REACTORS
330
B4
102
}
330
B4
100
AcDbXrecord
280
     1
270
     1
271
     1
  0
XRECORD
  5
B5
102
{ACAD_REACTORS
330
B4
102
}
330
B4
100
AcDbXrecord
280
     1
270
     1
271
     1
  0
XRECORD
  5
B9
102
{ACAD_REACTORS
330
B4
102
}
330
B4
100
AcDbXrecord
280
     1
270
     1
271
     1
  0
XRECORD
  5
B8
102
{ACAD_REACTORS
330
B4
102
}
330
B4
100
AcDbXrecord
280
     1
270
     1
271
     1
  0
XRECORD
  5
BA
102
{ACAD_REACTORS
330
B4
102
}
330
B4
100
AcDbXrecord
280
     1
270
     1
271
     1
  0
XRECORD
  5
B7
102
{ACAD_REACTORS
330
B4
102
}
330
B4
100
AcDbXrecord
280
     1
270
     1
271
     1
  0
XRECORD
  5
AE
102
{ACAD_REACTORS
330
AC
102
}
330
AC
100
AcDbXrecord
280
     1
270
     1
271
     1
  0
XRECORD
  5
AD
102
{ACAD_REACTORS
330
AC
102
}
330
AC
100
AcDbXrecord
280
     1
270
     1
271
     1
  0
XRECORD
  5
B1
102
{ACAD_REACTORS
330
AC
102
}
330
AC
100
AcDbXrecord
280
     1
270
     1
271
     1
  0
XRECORD
  5
B0
102
{ACAD_REACTORS
330
AC
102
}
330
AC
100
AcDbXrecord
280
     1
270
     1
271
     1
  0
XRECORD
  5
B2
102
{ACAD_REACTORS
330
AC
102
}
330
AC
100
AcDbXrecord
280
     1
270
     1
271
     1
  0
XRECORD
  5
AF
102
{ACAD_REACTORS
330
AC
102
}
330
AC
100
AcDbXrecord
280
     1
270
     1
271
     1
  0
XRECORD
  5
BE
102
{ACAD_REACTORS
330
BC
102
}
330
BC
100
AcDbXrecord
280
     1
270
     1
271
     1
  0
XRECORD
  5
BD
102
{ACAD_REACTORS
330
BC
102
}
330
BC
100
AcDbXrecord
280
     1
270
     1
271
     1
  0
XRECORD
  5
C1
102
{ACAD_REACTORS
330
BC
102
}
330
BC
100
AcDbXrecord
280
     1
270
     1
271
     1
  0
XRECORD
  5
C0
102
{ACAD_REACTORS
330
BC
102
}
330
BC
100
AcDbXrecord
280
     1
270
     1
271
     1
  0
XRECORD
  5
C2
102
{ACAD_REACTORS
330
BC
102
}
330
BC
100
AcDbXrecord
280
     1
270
     1
271
     1
  0
XRECORD
  5
BF
102
{ACAD_REACTORS
330
BC
102
}
330
BC
100
AcDbXrecord
280
     1
270
     1
271
     1
  0
XRECORD
  5
1AF
102
{ACAD_REACTORS
330
1AE
102
}
330
1AE
100
AcDbXrecord
280
     1
102
ACAD_ROUNDTRIP_2012_MLEADER_STYLE
298
     1
  0
XRECORD
  5
1B1
102
{ACAD_REACTORS
330
1B0
102
}
330
1B0
100
AcDbXrecord
280
     1
102
DISPLAYNAME
  1
Imperial24
102
FLAGS
 90
        0
  0
CELLSTYLEMAP
  5
17C
102
{ACAD_REACTORS
330
17B
102
}
330
17B
100
AcDbCellStyleMap
 90
        3
300
CELLSTYLE
  1
TABLEFORMAT_BEGIN
 90
        5
170
     1
 91
        0
 92
    32768
 62
   257
 93
        1
300
CONTENTFORMAT
  1
CONTENTFORMAT_BEGIN
 90
        0
 91
        0
 92
      512
 93
        0
300

 40
0.0
140
1.0
 94
        5
 62
     0
340
11
144
0.25
309
CONTENTFORMAT_END
171
     0
 94
        0
309
TABLEFORMAT_END
  1
CELLSTYLE_BEGIN
 90
        1
 91
        1
300
_TITLE
309
CELLSTYLE_END
300
CELLSTYLE
  1
TABLEFORMAT_BEGIN
 90
        5
170
     1
 91
        0
 92
        0
 62
   257
 93
        1
300
CONTENTFORMAT
  1
CONTENTFORMAT_BEGIN
 90
        0
 91
        0
 92
      512
 93
        0
300

 40
0.0
140
1.0
 94
        5
 62
     0
340
11
144
0.18
309
CONTENTFORMAT_END
171
     0
 94
        0
309
TABLEFORMAT_END
  1
CELLSTYLE_BEGIN
 90
        2
 91
        1
300
_HEADER
309
CELLSTYLE_END
300
CELLSTYLE
  1
TABLEFORMAT_BEGIN
 90
        5
170
     1
 91
        0
 92
        0
 62
   257
 93
        1
300
CONTENTFORMAT
  1
CONTENTFORMAT_BEGIN
 90
        0
 91
        0
 92
      512
 93
        0
300

 40
0.0
140
1.0
 94
        2
 62
     0
340
11
144
0.18
309
CONTENTFORMAT_END
171
     0
 94
        0
309
TABLEFORMAT_END
  1
CELLSTYLE_BEGIN
 90
        3
 91
        2
300
_DATA
309
CELLSTYLE_END
  0
XRECORD
  5
189
102
{ACAD_REACTORS
330
188
102
}
330
188
100
AcDbXrecord
280
     1
102
RTVSPost2010Prop28
280
     1
102
RTVSPost2010PropOp28
 70
     1
102
RTVSPost2010Prop29
280
     1
102
RTVSPost2010PropOp29
 70
     1
102
RTVSPost2010Prop30
280
     0
102
RTVSPost2010PropOp30
 70
     1
102
RTVSPost2010Prop31
280
     0
102
RTVSPost2010PropOp31
 70
     1
102
RTVSPost2010Prop32
280
     0
102
RTVSPost2010PropOp32
 70
     1
102
RTVSPost2010Prop33
280
     0
102
RTVSPost2010PropOp33
 70
     1
102
RTVSPost2010Prop34
280
     0
102
RTVSPost2010PropOp34
 70
     1
102
RTVSPost2010Prop35
280
     0
102
RTVSPost2010PropOp35
 70
     1
102
RTVSPost2010Prop36
280
     0
102
RTVSPost2010PropOp36
 70
     1
102
RTVSPost2010Prop37
 90
       50
102
RTVSPost2010PropOp37
 70
     1
102
RTVSPost2010Prop38
140
0.0
102
RTVSPost2010PropOp38
 70
     1
102
RTVSPost2010Prop39
140
1.0
102
RTVSPost2010PropOp39
 70
     1
102
RTVSPost2010Prop40
 90
        0
102
RTVSPost2010PropOp40
 70
     1
102
RTVSPost2010Prop41ColorIndex
 90
       18
102
RTVSPost2010Prop41ColorRGB
 90
        0
102
RTVSPost2010PropOp41
 70
     1
102
RTVSPost2010Prop42
 90
       50
102
RTVSPost2010PropOp42
 70
     1
102
RTVSPost2010Prop43
 90
        3
102
RTVSPost2010PropOp43
 70
     1
102
RTVSPost2010Prop44ColorIndex
 90
        5
102
RTVSPost2010Prop44ColorRGB
 90
      255
102
RTVSPost2010PropOp44
 70
     1
102
RTVSPost2010Prop45
280
     0
102
RTVSPost2010PropOp45
 70
     1
102
RTVSPost2010Prop46
 90
       50
102
RTVSPost2010PropOp46
 70
     1
102
RTVSPost2010Prop47
 90
       50
102
RTVSPost2010PropOp47
 70
     1
102
RTVSPost2010Prop48
 90
       50
102
RTVSPost2010PropOp48
 70
     1
102
RTVSPost2010Prop49
280
     0
102
RTVSPost2010PropOp49
 70
     1
102
RTVSPost2010Prop50
 90
       50
102
RTVSPost2010PropOp50
 70
     1
102
RTVSPost2010Prop51ColorIndex
 90
      256
102
RTVSPost2010Prop51ColorRGB
 90
-16777216
102
RTVSPost2010PropOp51
 70
     0
102
RTVSPost2010Prop52
140
1.0
102
RTVSPost2010PropOp52
 70
     0
102
RTVSPost2010Prop53
 90
        2
102
RTVSPost2010PropOp53
 70
     1
102
RTVSPost2010Prop54
  1
strokes_ogs.tif
102
RTVSPost2010PropOp54
 70
     1
102
RTVSPost2010Prop55
280
     0
102
RTVSPost2010PropOp55
 70
     1
102
RTVSPost2010Prop56
140
1.0
102
RTVSPost2010PropOp56
 70
     1
102
RTVSPost2010Prop57
140
1.0
102
RTVSPost2010PropOp57
 70
     1
  0
XRECORD
  5
187
102
{ACAD_REACTORS
330
186
102
}
330
186
100
AcDbXrecord
280
     1
102
RTVSPost2010Prop28
280
     0
102
RTVSPost2010PropOp28
 70
     1
102
RTVSPost2010Prop29
280
     1
102
RTVSPost2010PropOp29
 70
     1
102
RTVSPost2010Prop30
280
     1
102
RTVSPost2010PropOp30
 70
     1
102
RTVSPost2010Prop31
280
     0
102
RTVSPost2010PropOp31
 70
     1
102
RTVSPost2010Prop32
280
     0
102
RTVSPost2010PropOp32
 70
     1
102
RTVSPost2010Prop33
280
     0
102
RTVSPost2010PropOp33
 70
     1
102
RTVSPost2010Prop34
280
     0
102
RTVSPost2010PropOp34
 70
     1
102
RTVSPost2010Prop35
280
     0
102
RTVSPost2010PropOp35
 70
     1
102
RTVSPost2010Prop36
280
     0
102
RTVSPost2010PropOp36
 70
     1
102
RTVSPost2010Prop37
 90
       50
102
RTVSPost2010PropOp37
 70
     1
102
RTVSPost2010Prop38
140
0.0
102
RTVSPost2010PropOp38
 70
     1
102
RTVSPost2010Prop39
140
1.0
102
RTVSPost2010PropOp39
 70
     1
102
RTVSPost2010Prop40
 90
        0
102
RTVSPost2010PropOp40
 70
     1
102
RTVSPost2010Prop41ColorIndex
 90
       18
102
RTVSPost2010Prop41ColorRGB
 90
        0
102
RTVSPost2010PropOp41
 70
     1
102
RTVSPost2010Prop42
 90
       50
102
RTVSPost2010PropOp42
 70
     1
102
RTVSPost2010Prop43
 90
        3
102
RTVSPost2010PropOp43
 70
     1
102
RTVSPost2010Prop44ColorIndex
 90
        5
102
RTVSPost2010Prop44ColorRGB
 90
      255
102
RTVSPost2010PropOp44
 70
     1
102
RTVSPost2010Prop45
280
     0
102
RTVSPost2010PropOp45
 70
     1
102
RTVSPost2010Prop46
 90
       50
102
RTVSPost2010PropOp46
 70
     1
102
RTVSPost2010Prop47
 90
       50
102
RTVSPost2010PropOp47
 70
     1
102
RTVSPost2010Prop48
 90
       50
102
RTVSPost2010PropOp48
 70
     1
102
RTVSPost2010Prop49
280
     0
102
RTVSPost2010PropOp49
 70
     1
102
RTVSPost2010Prop50
 90
       50
102
RTVSPost2010PropOp50
 70
     1
102
RTVSPost2010Prop51ColorIndex
 90
      256
102
RTVSPost2010Prop51ColorRGB
 90
-16777216
102
RTVSPost2010PropOp51
 70
     0
102
RTVSPost2010Prop52
140
1.0
102
RTVSPost2010PropOp52
 70
     0
102
RTVSPost2010Prop53
 90
        2
102
RTVSPost2010PropOp53
 70
     1
102
RTVSPost2010Prop54
  1
strokes_ogs.tif
102
RTVSPost2010PropOp54
 70
     1
102
RTVSPost2010Prop55
280
     0
102
RTVSPost2010PropOp55
 70
     1
102
RTVSPost2010Prop56
140
1.0
102
RTVSPost2010PropOp56
 70
     1
102
RTVSPost2010Prop57
140
1.0
102
RTVSPost2010PropOp57
 70
     1
  0
XRECORD
  5
195
102
{ACAD_REACTORS
330
194
102
}
330
194
100
AcDbXrecord
280
     1
102
RTVSPost2010Prop28
280
     0
102
RTVSPost2010PropOp28
 70
     1
102
RTVSPost2010Prop29
280
     1
102
RTVSPost2010PropOp29
 70
     1
102
RTVSPost2010Prop30
280
     1
102
RTVSPost2010PropOp30
 70
     1
102
RTVSPost2010Prop31
280
     0
102
RTVSPost2010PropOp31
 70
     1
102
RTVSPost2010Prop32
280
     0
102
RTVSPost2010PropOp32
 70
     1
102
RTVSPost2010Prop33
280
     0
102
RTVSPost2010PropOp33
 70
     1
102
RTVSPost2010Prop34
280
     0
102
RTVSPost2010PropOp34
 70
     1
102
RTVSPost2010Prop35
280
     0
102
RTVSPost2010PropOp35
 70
     1
102
RTVSPost2010Prop36
280
     0
102
RTVSPost2010PropOp36
 70
     1
102
RTVSPost2010Prop37
 90
       50
102
RTVSPost2010PropOp37
 70
     1
102
RTVSPost2010Prop38
140
0.0
102
RTVSPost2010PropOp38
 70
     1
102
RTVSPost2010Prop39
140
1.0
102
RTVSPost2010PropOp39
 70
     1
102
RTVSPost2010Prop40
 90
        0
102
RTVSPost2010PropOp40
 70
     1
102
RTVSPost2010Prop41ColorIndex
 90
       18
102
RTVSPost2010Prop41ColorRGB
 90
        0
102
RTVSPost2010PropOp41
 70
     1
102
RTVSPost2010Prop42
 90
       50
102
RTVSPost2010PropOp42
 70
     1
102
RTVSPost2010Prop43
 90
        3
102
RTVSPost2010PropOp43
 70
     1
102
RTVSPost2010Prop44ColorIndex
 90
        5
102
RTVSPost2010Prop44ColorRGB
 90
      255
102
RTVSPost2010PropOp44
 70
     1
102
RTVSPost2010Prop45
280
     0
102
RTVSPost2010PropOp45
 70
     1
102
RTVSPost2010Prop46
 90
       50
102
RTVSPost2010PropOp46
 70
     1
102
RTVSPost2010Prop47
 90
       50
102
RTVSPost2010PropOp47
 70
     1
102
RTVSPost2010Prop48
 90
       50
102
RTVSPost2010PropOp48
 70
     1
102
RTVSPost2010Prop49
280
     0
102
RTVSPost2010PropOp49
 70
     1
102
RTVSPost2010Prop50
 90
       50
102
RTVSPost2010PropOp50
 70
     1
102
RTVSPost2010Prop51ColorIndex
 90
      256
102
RTVSPost2010Prop51ColorRGB
 90
-16777216
102
RTVSPost2010PropOp51
 70
     0
102
RTVSPost2010Prop52
140
1.0
102
RTVSPost2010PropOp52
 70
     0
102
RTVSPost2010Prop53
 90
        2
102
RTVSPost2010PropOp53
 70
     1
102
RTVSPost2010Prop54
  1
strokes_ogs.tif
102
RTVSPost2010PropOp54
 70
     1
102
RTVSPost2010Prop55
280
     0
102
RTVSPost2010PropOp55
 70
     1
102
RTVSPost2010Prop56
140
1.0
102
RTVSPost2010PropOp56
 70
     1
102
RTVSPost2010Prop57
140
1.0
102
RTVSPost2010PropOp57
 70
     1
  0
XRECORD
  5
19D
102
{ACAD_REACTORS
330
19C
102
}
330
19C
100
AcDbXrecord
280
     1
102
RTVSPost2010Prop28
280
     0
102
RTVSPost2010PropOp28
 70
     1
102
RTVSPost2010Prop29
280
     1
102
RTVSPost2010PropOp29
 70
     1
102
RTVSPost2010Prop30
280
     1
102
RTVSPost2010PropOp30
 70
     1
102
RTVSPost2010Prop31
280
     0
102
RTVSPost2010PropOp31
 70
     1
102
RTVSPost2010Prop32
280
     0
102
RTVSPost2010PropOp32
 70
     1
102
RTVSPost2010Prop33
280
     0
102
RTVSPost2010PropOp33
 70
     1
102
RTVSPost2010Prop34
280
     0
102
RTVSPost2010PropOp34
 70
     1
102
RTVSPost2010Prop35
280
     0
102
RTVSPost2010PropOp35
 70
     1
102
RTVSPost2010Prop36
280
     0
102
RTVSPost2010PropOp36
 70
     1
102
RTVSPost2010Prop37
 90
       50
102
RTVSPost2010PropOp37
 70
     1
102
RTVSPost2010Prop38
140
0.0
102
RTVSPost2010PropOp38
 70
     1
102
RTVSPost2010Prop39
140
1.0
102
RTVSPost2010PropOp39
 70
     1
102
RTVSPost2010Prop40
 90
        0
102
RTVSPost2010PropOp40
 70
     1
102
RTVSPost2010Prop41ColorIndex
 90
       18
102
RTVSPost2010Prop41ColorRGB
 90
        0
102
RTVSPost2010PropOp41
 70
     1
102
RTVSPost2010Prop42
 90
       50
102
RTVSPost2010PropOp42
 70
     1
102
RTVSPost2010Prop43
 90
        3
102
RTVSPost2010PropOp43
 70
     1
102
RTVSPost2010Prop44ColorIndex
 90
        5
102
RTVSPost2010Prop44ColorRGB
 90
      255
102
RTVSPost2010PropOp44
 70
     1
102
RTVSPost2010Prop45
280
     0
102
RTVSPost2010PropOp45
 70
     1
102
RTVSPost2010Prop46
 90
       50
102
RTVSPost2010PropOp46
 70
     1
102
RTVSPost2010Prop47
 90
       50
102
RTVSPost2010PropOp47
 70
     1
102
RTVSPost2010Prop48
 90
       50
102
RTVSPost2010PropOp48
 70
     1
102
RTVSPost2010Prop49
280
     0
102
RTVSPost2010PropOp49
 70
     1
102
RTVSPost2010Prop50
 90
       50
102
RTVSPost2010PropOp50
 70
     1
102
RTVSPost2010Prop51ColorIndex
 90
      256
102
RTVSPost2010Prop51ColorRGB
 90
-16777216
102
RTVSPost2010PropOp51
 70
     0
102
RTVSPost2010Prop52
140
1.0
102
RTVSPost2010PropOp52
 70
     0
102
RTVSPost2010Prop53
 90
        2
102
RTVSPost2010PropOp53
 70
     1
102
RTVSPost2010Prop54
  1
strokes_ogs.tif
102
RTVSPost2010PropOp54
 70
     1
102
RTVSPost2010Prop55
280
     0
102
RTVSPost2010PropOp55
 70
     1
102
RTVSPost2010Prop56
140
1.0
102
RTVSPost2010PropOp56
 70
     1
102
RTVSPost2010Prop57
140
1.0
102
RTVSPost2010PropOp57
 70
     1
  0
XRECORD
  5
18F
102
{ACAD_REACTORS
330
18E
102
}
330
18E
100
AcDbXrecord
280
     1
102
RTVSPost2010Prop28
280
     0
102
RTVSPost2010PropOp28
 70
     1
102
RTVSPost2010Prop29
280
     1
102
RTVSPost2010PropOp29
 70
     1
102
RTVSPost2010Prop30
280
     1
102
RTVSPost2010PropOp30
 70
     1
102
RTVSPost2010Prop31
280
     0
102
RTVSPost2010PropOp31
 70
     1
102
RTVSPost2010Prop32
280
     0
102
RTVSPost2010PropOp32
 70
     1
102
RTVSPost2010Prop33
280
     0
102
RTVSPost2010PropOp33
 70
     1
102
RTVSPost2010Prop34
280
     0
102
RTVSPost2010PropOp34
 70
     1
102
RTVSPost2010Prop35
280
     0
102
RTVSPost2010PropOp35
 70
     1
102
RTVSPost2010Prop36
280
     0
102
RTVSPost2010PropOp36
 70
     1
102
RTVSPost2010Prop37
 90
       50
102
RTVSPost2010PropOp37
 70
     1
102
RTVSPost2010Prop38
140
0.0
102
RTVSPost2010PropOp38
 70
     1
102
RTVSPost2010Prop39
140
1.0
102
RTVSPost2010PropOp39
 70
     1
102
RTVSPost2010Prop40
 90
        0
102
RTVSPost2010PropOp40
 70
     1
102
RTVSPost2010Prop41ColorIndex
 90
       18
102
RTVSPost2010Prop41ColorRGB
 90
        0
102
RTVSPost2010PropOp41
 70
     1
102
RTVSPost2010Prop42
 90
       50
102
RTVSPost2010PropOp42
 70
     1
102
RTVSPost2010Prop43
 90
        3
102
RTVSPost2010PropOp43
 70
     1
102
RTVSPost2010Prop44ColorIndex
 90
        5
102
RTVSPost2010Prop44ColorRGB
 90
      255
102
RTVSPost2010PropOp44
 70
     1
102
RTVSPost2010Prop45
280
     0
102
RTVSPost2010PropOp45
 70
     1
102
RTVSPost2010Prop46
 90
       50
102
RTVSPost2010PropOp46
 70
     1
102
RTVSPost2010Prop47
 90
       50
102
RTVSPost2010PropOp47
 70
     1
102
RTVSPost2010Prop48
 90
       50
102
RTVSPost2010PropOp48
 70
     1
102
RTVSPost2010Prop49
280
     0
102
RTVSPost2010PropOp49
 70
     1
102
RTVSPost2010Prop50
 90
       50
102
RTVSPost2010PropOp50
 70
     1
102
RTVSPost2010Prop51ColorIndex
 90
      256
102
RTVSPost2010Prop51ColorRGB
 90
-16777216
102
RTVSPost2010PropOp51
 70
     0
102
RTVSPost2010Prop52
140
1.0
102
RTVSPost2010PropOp52
 70
     0
102
RTVSPost2010Prop53
 90
        2
102
RTVSPost2010PropOp53
 70
     1
102
RTVSPost2010Prop54
  1
strokes_ogs.tif
102
RTVSPost2010PropOp54
 70
     1
102
RTVSPost2010Prop55
280
     0
102
RTVSPost2010PropOp55
 70
     1
102
RTVSPost2010Prop56
140
1.0
102
RTVSPost2010PropOp56
 70
     1
102
RTVSPost2010Prop57
140
1.0
102
RTVSPost2010PropOp57
 70
     1
  0
XRECORD
  5
193
102
{ACAD_REACTORS
330
192
102
}
330
192
100
AcDbXrecord
280
     1
102
RTVSPost2010Prop28
280
     0
102
RTVSPost2010PropOp28
 70
     1
102
RTVSPost2010Prop29
280
     1
102
RTVSPost2010PropOp29
 70
     1
102
RTVSPost2010Prop30
280
     1
102
RTVSPost2010PropOp30
 70
     1
102
RTVSPost2010Prop31
280
     0
102
RTVSPost2010PropOp31
 70
     1
102
RTVSPost2010Prop32
280
     0
102
RTVSPost2010PropOp32
 70
     1
102
RTVSPost2010Prop33
280
     0
102
RTVSPost2010PropOp33
 70
     1
102
RTVSPost2010Prop34
280
     0
102
RTVSPost2010PropOp34
 70
     1
102
RTVSPost2010Prop35
280
     0
102
RTVSPost2010PropOp35
 70
     1
102
RTVSPost2010Prop36
280
     0
102
RTVSPost2010PropOp36
 70
     1
102
RTVSPost2010Prop37
 90
       50
102
RTVSPost2010PropOp37
 70
     1
102
RTVSPost2010Prop38
140
0.0
102
RTVSPost2010PropOp38
 70
     1
102
RTVSPost2010Prop39
140
1.0
102
RTVSPost2010PropOp39
 70
     1
102
RTVSPost2010Prop40
 90
        0
102
RTVSPost2010PropOp40
 70
     1
102
RTVSPost2010Prop41ColorIndex
 90
       18
102
RTVSPost2010Prop41ColorRGB
 90
        0
102
RTVSPost2010PropOp41
 70
     1
102
RTVSPost2010Prop42
 90
       50
102
RTVSPost2010PropOp42
 70
     1
102
RTVSPost2010Prop43
 90
        3
102
RTVSPost2010PropOp43
 70
     1
102
RTVSPost2010Prop44ColorIndex
 90
        5
102
RTVSPost2010Prop44ColorRGB
 90
      255
102
RTVSPost2010PropOp44
 70
     1
102
RTVSPost2010Prop45
280
     0
102
RTVSPost2010PropOp45
 70
     1
102
RTVSPost2010Prop46
 90
       50
102
RTVSPost2010PropOp46
 70
     1
102
RTVSPost2010Prop47
 90
       50
102
RTVSPost2010PropOp47
 70
     1
102
RTVSPost2010Prop48
 90
       50
102
RTVSPost2010PropOp48
 70
     1
102
RTVSPost2010Prop49
280
     0
102
RTVSPost2010PropOp49
 70
     1
102
RTVSPost2010Prop50
 90
       50
102
RTVSPost2010PropOp50
 70
     1
102
RTVSPost2010Prop51ColorIndex
 90
      256
102
RTVSPost2010Prop51ColorRGB
 90
-16777216
102
RTVSPost2010PropOp51
 70
     0
102
RTVSPost2010Prop52
140
1.0
102
RTVSPost2010PropOp52
 70
     0
102
RTVSPost2010Prop53
 90
        2
102
RTVSPost2010PropOp53
 70
     1
102
RTVSPost2010Prop54
  1
strokes_ogs.tif
102
RTVSPost2010PropOp54
 70
     1
102
RTVSPost2010Prop55
280
     0
102
RTVSPost2010PropOp55
 70
     1
102
RTVSPost2010Prop56
140
1.0
102
RTVSPost2010PropOp56
 70
     1
102
RTVSPost2010Prop57
140
1.0
102
RTVSPost2010PropOp57
 70
     1
  0
XRECORD
  5
1AD
102
{ACAD_REACTORS
330
1AC
102
}
330
1AC
100
AcDbXrecord
280
     1
102
RTVSPost2010Prop28
280
     0
102
RTVSPost2010PropOp28
 70
     0
102
RTVSPost2010Prop29
280
     1
102
RTVSPost2010PropOp29
 70
     0
102
RTVSPost2010Prop30
280
     1
102
RTVSPost2010PropOp30
 70
     0
102
RTVSPost2010Prop31
280
     0
102
RTVSPost2010PropOp31
 70
     0
102
RTVSPost2010Prop32
280
     0
102
RTVSPost2010PropOp32
 70
     0
102
RTVSPost2010Prop33
280
     0
102
RTVSPost2010PropOp33
 70
     0
102
RTVSPost2010Prop34
280
     0
102
RTVSPost2010PropOp34
 70
     0
102
RTVSPost2010Prop35
280
     0
102
RTVSPost2010PropOp35
 70
     0
102
RTVSPost2010Prop36
280
     0
102
RTVSPost2010PropOp36
 70
     0
102
RTVSPost2010Prop37
 90
       50
102
RTVSPost2010PropOp37
 70
     0
102
RTVSPost2010Prop38
140
0.0
102
RTVSPost2010PropOp38
 70
     0
102
RTVSPost2010Prop39
140
1.0
102
RTVSPost2010PropOp39
 70
     0
102
RTVSPost2010Prop40
 90
        0
102
RTVSPost2010PropOp40
 70
     0
102
RTVSPost2010Prop41ColorIndex
 90
       18
102
RTVSPost2010Prop41ColorRGB
 90
        0
102
RTVSPost2010PropOp41
 70
     0
102
RTVSPost2010Prop42
 90
       50
102
RTVSPost2010PropOp42
 70
     0
102
RTVSPost2010Prop43
 90
        3
102
RTVSPost2010PropOp43
 70
     0
102
RTVSPost2010Prop44ColorIndex
 90
        5
102
RTVSPost2010Prop44ColorRGB
 90
      255
102
RTVSPost2010PropOp44
 70
     0
102
RTVSPost2010Prop45
280
     0
102
RTVSPost2010PropOp45
 70
     0
102
RTVSPost2010Prop46
 90
       50
102
RTVSPost2010PropOp46
 70
     0
102
RTVSPost2010Prop47
 90
       50
102
RTVSPost2010PropOp47
 70
     0
102
RTVSPost2010Prop48
 90
       50
102
RTVSPost2010PropOp48
 70
     0
102
RTVSPost2010Prop49
280
     0
102
RTVSPost2010PropOp49
 70
     0
102
RTVSPost2010Prop50
 90
       50
102
RTVSPost2010PropOp50
 70
     0
102
RTVSPost2010Prop51ColorIndex
 90
      256
102
RTVSPost2010Prop51ColorRGB
 90
-16777216
102
RTVSPost2010PropOp51
 70
     0
102
RTVSPost2010Prop52
140
1.0
102
RTVSPost2010PropOp52
 70
     0
102
RTVSPost2010Prop53
 90
        2
102
RTVSPost2010PropOp53
 70
     0
102
RTVSPost2010Prop54
  1
strokes_ogs.tif
102
RTVSPost2010PropOp54
 70
     0
102
RTVSPost2010Prop55
280
     0
102
RTVSPost2010PropOp55
 70
     0
102
RTVSPost2010Prop56
140
1.0
102
RTVSPost2010PropOp56
 70
     0
102
RTVSPost2010Prop57
140
1.0
102
RTVSPost2010PropOp57
 70
     0
  0
XRECORD
  5
19B
102
{ACAD_REACTORS
330
19A
102
}
330
19A
100
AcDbXrecord
280
     1
102
RTVSPost2010Prop28
280
     0
102
RTVSPost2010PropOp28
 70
     1
102
RTVSPost2010Prop29
280
     1
102
RTVSPost2010PropOp29
 70
     1
102
RTVSPost2010Prop30
280
     1
102
RTVSPost2010PropOp30
 70
     1
102
RTVSPost2010Prop31
280
     0
102
RTVSPost2010PropOp31
 70
     1
102
RTVSPost2010Prop32
280
     0
102
RTVSPost2010PropOp32
 70
     1
102
RTVSPost2010Prop33
280
     0
102
RTVSPost2010PropOp33
 70
     1
102
RTVSPost2010Prop34
280
     0
102
RTVSPost2010PropOp34
 70
     1
102
RTVSPost2010Prop35
280
     0
102
RTVSPost2010PropOp35
 70
     1
102
RTVSPost2010Prop36
280
     0
102
RTVSPost2010PropOp36
 70
     1
102
RTVSPost2010Prop37
 90
       50
102
RTVSPost2010PropOp37
 70
     1
102
RTVSPost2010Prop38
140
0.0
102
RTVSPost2010PropOp38
 70
     1
102
RTVSPost2010Prop39
140
1.0
102
RTVSPost2010PropOp39
 70
     1
102
RTVSPost2010Prop40
 90
        0
102
RTVSPost2010PropOp40
 70
     1
102
RTVSPost2010Prop41ColorIndex
 90
       18
102
RTVSPost2010Prop41ColorRGB
 90
        0
102
RTVSPost2010PropOp41
 70
     1
102
RTVSPost2010Prop42
 90
       50
102
RTVSPost2010PropOp42
 70
     1
102
RTVSPost2010Prop43
 90
        3
102
RTVSPost2010PropOp43
 70
     1
102
RTVSPost2010Prop44ColorIndex
 90
        5
102
RTVSPost2010Prop44ColorRGB
 90
      255
102
RTVSPost2010PropOp44
 70
     1
102
RTVSPost2010Prop45
280
     0
102
RTVSPost2010PropOp45
 70
     1
102
RTVSPost2010Prop46
 90
       50
102
RTVSPost2010PropOp46
 70
     1
102
RTVSPost2010Prop47
 90
       50
102
RTVSPost2010PropOp47
 70
     1
102
RTVSPost2010Prop48
 90
       50
102
RTVSPost2010PropOp48
 70
     1
102
RTVSPost2010Prop49
280
     0
102
RTVSPost2010PropOp49
 70
     1
102
RTVSPost2010Prop50
 90
       50
102
RTVSPost2010PropOp50
 70
     1
102
RTVSPost2010Prop51ColorIndex
 90
      256
102
RTVSPost2010Prop51ColorRGB
 90
-16777216
102
RTVSPost2010PropOp51
 70
     0
102
RTVSPost2010Prop52
140
1.0
102
RTVSPost2010PropOp52
 70
     0
102
RTVSPost2010Prop53
 90
        2
102
RTVSPost2010PropOp53
 70
     1
102
RTVSPost2010Prop54
  1
strokes_ogs.tif
102
RTVSPost2010PropOp54
 70
     1
102
RTVSPost2010Prop55
280
     0
102
RTVSPost2010PropOp55
 70
     1
102
RTVSPost2010Prop56
140
1.0
102
RTVSPost2010PropOp56
 70
     1
102
RTVSPost2010Prop57
140
1.0
102
RTVSPost2010PropOp57
 70
     1
  0
XRECORD
  5
17F
102
{ACAD_REACTORS
330
17E
102
}
330
17E
100
AcDbXrecord
280
     1
102
RTVSPost2010Prop28
280
     0
102
RTVSPost2010PropOp28
 70
     1
102
RTVSPost2010Prop29
280
     1
102
RTVSPost2010PropOp29
 70
     1
102
RTVSPost2010Prop30
280
     1
102
RTVSPost2010PropOp30
 70
     1
102
RTVSPost2010Prop31
280
     0
102
RTVSPost2010PropOp31
 70
     1
102
RTVSPost2010Prop32
280
     0
102
RTVSPost2010PropOp32
 70
     1
102
RTVSPost2010Prop33
280
     0
102
RTVSPost2010PropOp33
 70
     1
102
RTVSPost2010Prop34
280
     0
102
RTVSPost2010PropOp34
 70
     1
102
RTVSPost2010Prop35
280
     0
102
RTVSPost2010PropOp35
 70
     1
102
RTVSPost2010Prop36
280
     0
102
RTVSPost2010PropOp36
 70
     1
102
RTVSPost2010Prop37
 90
       50
102
RTVSPost2010PropOp37
 70
     1
102
RTVSPost2010Prop38
140
0.0
102
RTVSPost2010PropOp38
 70
     1
102
RTVSPost2010Prop39
140
1.0
102
RTVSPost2010PropOp39
 70
     1
102
RTVSPost2010Prop40
 90
        0
102
RTVSPost2010PropOp40
 70
     1
102
RTVSPost2010Prop41ColorIndex
 90
       18
102
RTVSPost2010Prop41ColorRGB
 90
        0
102
RTVSPost2010PropOp41
 70
     1
102
RTVSPost2010Prop42
 90
       50
102
RTVSPost2010PropOp42
 70
     1
102
RTVSPost2010Prop43
 90
        3
102
RTVSPost2010PropOp43
 70
     1
102
RTVSPost2010Prop44ColorIndex
 90
        5
102
RTVSPost2010Prop44ColorRGB
 90
      255
102
RTVSPost2010PropOp44
 70
     1
102
RTVSPost2010Prop45
280
     0
102
RTVSPost2010PropOp45
 70
     1
102
RTVSPost2010Prop46
 90
       50
102
RTVSPost2010PropOp46
 70
     1
102
RTVSPost2010Prop47
 90
       50
102
RTVSPost2010PropOp47
 70
     1
102
RTVSPost2010Prop48
 90
       50
102
RTVSPost2010PropOp48
 70
     1
102
RTVSPost2010Prop49
280
     0
102
RTVSPost2010PropOp49
 70
     1
102
RTVSPost2010Prop50
 90
       50
102
RTVSPost2010PropOp50
 70
     1
102
RTVSPost2010Prop51ColorIndex
 90
      256
102
RTVSPost2010Prop51ColorRGB
 90
-16777216
102
RTVSPost2010PropOp51
 70
     0
102
RTVSPost2010Prop52
140
1.0
102
RTVSPost2010PropOp52
 70
     0
102
RTVSPost2010Prop53
 90
        2
102
RTVSPost2010PropOp53
 70
     1
102
RTVSPost2010Prop54
  1
strokes_ogs.tif
102
RTVSPost2010PropOp54
 70
     1
102
RTVSPost2010Prop55
280
     0
102
RTVSPost2010PropOp55
 70
     1
102
RTVSPost2010Prop56
140
1.0
102
RTVSPost2010PropOp56
 70
     1
102
RTVSPost2010Prop57
140
1.0
102
RTVSPost2010PropOp57
 70
     1
  0
XRECORD
  5
181
102
{ACAD_REACTORS
330
180
102
}
330
180
100
AcDbXrecord
280
     1
102
RTVSPost2010Prop28
280
     0
102
RTVSPost2010PropOp28
 70
     1
102
RTVSPost2010Prop29
280
     1
102
RTVSPost2010PropOp29
 70
     1
102
RTVSPost2010Prop30
280
     1
102
RTVSPost2010PropOp30
 70
     1
102
RTVSPost2010Prop31
280
     0
102
RTVSPost2010PropOp31
 70
     1
102
RTVSPost2010Prop32
280
     0
102
RTVSPost2010PropOp32
 70
     1
102
RTVSPost2010Prop33
280
     0
102
RTVSPost2010PropOp33
 70
     1
102
RTVSPost2010Prop34
280
     0
102
RTVSPost2010PropOp34
 70
     1
102
RTVSPost2010Prop35
280
     0
102
RTVSPost2010PropOp35
 70
     1
102
RTVSPost2010Prop36
280
     0
102
RTVSPost2010PropOp36
 70
     1
102
RTVSPost2010Prop37
 90
       50
102
RTVSPost2010PropOp37
 70
     1
102
RTVSPost2010Prop38
140
0.0
102
RTVSPost2010PropOp38
 70
     1
102
RTVSPost2010Prop39
140
1.0
102
RTVSPost2010PropOp39
 70
     1
102
RTVSPost2010Prop40
 90
        0
102
RTVSPost2010PropOp40
 70
     1
102
RTVSPost2010Prop41ColorIndex
 90
       18
102
RTVSPost2010Prop41ColorRGB
 90
        0
102
RTVSPost2010PropOp41
 70
     1
102
RTVSPost2010Prop42
 90
       50
102
RTVSPost2010PropOp42
 70
     1
102
RTVSPost2010Prop43
 90
        3
102
RTVSPost2010PropOp43
 70
     1
102
RTVSPost2010Prop44ColorIndex
 90
        5
102
RTVSPost2010Prop44ColorRGB
 90
      255
102
RTVSPost2010PropOp44
 70
     1
102
RTVSPost2010Prop45
280
     0
102
RTVSPost2010PropOp45
 70
     1
102
RTVSPost2010Prop46
 90
       50
102
RTVSPost2010PropOp46
 70
     1
102
RTVSPost2010Prop47
 90
       50
102
RTVSPost2010PropOp47
 70
     1
102
RTVSPost2010Prop48
 90
       50
102
RTVSPost2010PropOp48
 70
     1
102
RTVSPost2010Prop49
280
     0
102
RTVSPost2010PropOp49
 70
     1
102
RTVSPost2010Prop50
 90
       50
102
RTVSPost2010PropOp50
 70
     1
102
RTVSPost2010Prop51ColorIndex
 90
      256
102
RTVSPost2010Prop51ColorRGB
 90
-16777216
102
RTVSPost2010PropOp51
 70
     0
102
RTVSPost2010Prop52
140
1.0
102
RTVSPost2010PropOp52
 70
     0
102
RTVSPost2010Prop53
 90
        2
102
RTVSPost2010PropOp53
 70
     1
102
RTVSPost2010Prop54
  1
strokes_ogs.tif
102
RTVSPost2010PropOp54
 70
     1
102
RTVSPost2010Prop55
280
     0
102
RTVSPost2010PropOp55
 70
     1
102
RTVSPost2010Prop56
140
1.0
102
RTVSPost2010PropOp56
 70
     1
102
RTVSPost2010Prop57
140
1.0
102
RTVSPost2010PropOp57
 70
     1
  0
XRECORD
  5
183
102
{ACAD_REACTORS
330
182
102
}
330
182
100
AcDbXrecord
280
     1
102
RTVSPost2010Prop28
280
     0
102
RTVSPost2010PropOp28
 70
     1
102
RTVSPost2010Prop29
280
     1
102
RTVSPost2010PropOp29
 70
     1
102
RTVSPost2010Prop30
280
     1
102
RTVSPost2010PropOp30
 70
     1
102
RTVSPost2010Prop31
280
     0
102
RTVSPost2010PropOp31
 70
     1
102
RTVSPost2010Prop32
280
     0
102
RTVSPost2010PropOp32
 70
     1
102
RTVSPost2010Prop33
280
     0
102
RTVSPost2010PropOp33
 70
     1
102
RTVSPost2010Prop34
280
     0
102
RTVSPost2010PropOp34
 70
     1
102
RTVSPost2010Prop35
280
     0
102
RTVSPost2010PropOp35
 70
     1
102
RTVSPost2010Prop36
280
     0
102
RTVSPost2010PropOp36
 70
     1
102
RTVSPost2010Prop37
 90
       50
102
RTVSPost2010PropOp37
 70
     1
102
RTVSPost2010Prop38
140
0.0
102
RTVSPost2010PropOp38
 70
     1
102
RTVSPost2010Prop39
140
1.0
102
RTVSPost2010PropOp39
 70
     1
102
RTVSPost2010Prop40
 90
        0
102
RTVSPost2010PropOp40
 70
     1
102
RTVSPost2010Prop41ColorIndex
 90
       18
102
RTVSPost2010Prop41ColorRGB
 90
        0
102
RTVSPost2010PropOp41
 70
     1
102
RTVSPost2010Prop42
 90
       50
102
RTVSPost2010PropOp42
 70
     1
102
RTVSPost2010Prop43
 90
        3
102
RTVSPost2010PropOp43
 70
     1
102
RTVSPost2010Prop44ColorIndex
 90
        5
102
RTVSPost2010Prop44ColorRGB
 90
      255
102
RTVSPost2010PropOp44
 70
     1
102
RTVSPost2010Prop45
280
     0
102
RTVSPost2010PropOp45
 70
     1
102
RTVSPost2010Prop46
 90
       50
102
RTVSPost2010PropOp46
 70
     1
102
RTVSPost2010Prop47
 90
       50
102
RTVSPost2010PropOp47
 70
     1
102
RTVSPost2010Prop48
 90
       50
102
RTVSPost2010PropOp48
 70
     1
102
RTVSPost2010Prop49
280
     0
102
RTVSPost2010PropOp49
 70
     1
102
RTVSPost2010Prop50
 90
       50
102
RTVSPost2010PropOp50
 70
     1
102
RTVSPost2010Prop51ColorIndex
 90
      256
102
RTVSPost2010Prop51ColorRGB
 90
-16777216
102
RTVSPost2010PropOp51
 70
     0
102
RTVSPost2010Prop52
140
1.0
102
RTVSPost2010PropOp52
 70
     0
102
RTVSPost2010Prop53
 90
        2
102
RTVSPost2010PropOp53
 70
     1
102
RTVSPost2010Prop54
  1
strokes_ogs.tif
102
RTVSPost2010PropOp54
 70
     1
102
RTVSPost2010Prop55
280
     0
102
RTVSPost2010PropOp55
 70
     1
102
RTVSPost2010Prop56
140
1.0
102
RTVSPost2010PropOp56
 70
     1
102
RTVSPost2010Prop57
140
1.0
102
RTVSPost2010PropOp57
 70
     1
  0
XRECORD
  5
185
102
{ACAD_REACTORS
330
184
102
}
330
184
100
AcDbXrecord
280
     1
102
RTVSPost2010Prop28
280
     0
102
RTVSPost2010PropOp28
 70
     1
102
RTVSPost2010Prop29
280
     1
102
RTVSPost2010PropOp29
 70
     1
102
RTVSPost2010Prop30
280
     1
102
RTVSPost2010PropOp30
 70
     1
102
RTVSPost2010Prop31
280
     0
102
RTVSPost2010PropOp31
 70
     1
102
RTVSPost2010Prop32
280
     0
102
RTVSPost2010PropOp32
 70
     1
102
RTVSPost2010Prop33
280
     0
102
RTVSPost2010PropOp33
 70
     1
102
RTVSPost2010Prop34
280
     0
102
RTVSPost2010PropOp34
 70
     1
102
RTVSPost2010Prop35
280
     0
102
RTVSPost2010PropOp35
 70
     1
102
RTVSPost2010Prop36
280
     0
102
RTVSPost2010PropOp36
 70
     1
102
RTVSPost2010Prop37
 90
       50
102
RTVSPost2010PropOp37
 70
     1
102
RTVSPost2010Prop38
140
0.0
102
RTVSPost2010PropOp38
 70
     1
102
RTVSPost2010Prop39
140
1.0
102
RTVSPost2010PropOp39
 70
     1
102
RTVSPost2010Prop40
 90
        0
102
RTVSPost2010PropOp40
 70
     1
102
RTVSPost2010Prop41ColorIndex
 90
       18
102
RTVSPost2010Prop41ColorRGB
 90
        0
102
RTVSPost2010PropOp41
 70
     1
102
RTVSPost2010Prop42
 90
       50
102
RTVSPost2010PropOp42
 70
     1
102
RTVSPost2010Prop43
 90
        3
102
RTVSPost2010PropOp43
 70
     1
102
RTVSPost2010Prop44ColorIndex
 90
        5
102
RTVSPost2010Prop44ColorRGB
 90
      255
102
RTVSPost2010PropOp44
 70
     1
102
RTVSPost2010Prop45
280
     0
102
RTVSPost2010PropOp45
 70
     1
102
RTVSPost2010Prop46
 90
       50
102
RTVSPost2010PropOp46
 70
     1
102
RTVSPost2010Prop47
 90
       50
102
RTVSPost2010PropOp47
 70
     1
102
RTVSPost2010Prop48
 90
       50
102
RTVSPost2010PropOp48
 70
     1
102
RTVSPost2010Prop49
280
     0
102
RTVSPost2010PropOp49
 70
     1
102
RTVSPost2010Prop50
 90
       50
102
RTVSPost2010PropOp50
 70
     1
102
RTVSPost2010Prop51ColorIndex
 90
      256
102
RTVSPost2010Prop51ColorRGB
 90
-16777216
102
RTVSPost2010PropOp51
 70
     0
102
RTVSPost2010Prop52
140
1.0
102
RTVSPost2010PropOp52
 70
     0
102
RTVSPost2010Prop53
 90
        2
102
RTVSPost2010PropOp53
 70
     1
102
RTVSPost2010Prop54
  1
strokes_ogs.tif
102
RTVSPost2010PropOp54
 70
     1
102
RTVSPost2010Prop55
280
     0
102
RTVSPost2010PropOp55
 70
     1
102
RTVSPost2010Prop56
140
1.0
102
RTVSPost2010PropOp56
 70
     1
102
RTVSPost2010Prop57
140
1.0
102
RTVSPost2010PropOp57
 70
     1
  0
XRECORD
  5
18D
102
{ACAD_REACTORS
330
18C
102
}
330
18C
100
AcDbXrecord
280
     1
102
RTVSPost2010Prop28
280
     0
102
RTVSPost2010PropOp28
 70
     1
102
RTVSPost2010Prop29
280
     1
102
RTVSPost2010PropOp29
 70
     1
102
RTVSPost2010Prop30
280
     1
102
RTVSPost2010PropOp30
 70
     1
102
RTVSPost2010Prop31
280
     0
102
RTVSPost2010PropOp31
 70
     1
102
RTVSPost2010Prop32
280
     0
102
RTVSPost2010PropOp32
 70
     1
102
RTVSPost2010Prop33
280
     0
102
RTVSPost2010PropOp33
 70
     1
102
RTVSPost2010Prop34
280
     0
102
RTVSPost2010PropOp34
 70
     1
102
RTVSPost2010Prop35
280
     0
102
RTVSPost2010PropOp35
 70
     1
102
RTVSPost2010Prop36
280
     0
102
RTVSPost2010PropOp36
 70
     1
102
RTVSPost2010Prop37
 90
       50
102
RTVSPost2010PropOp37
 70
     1
102
RTVSPost2010Prop38
140
0.0
102
RTVSPost2010PropOp38
 70
     1
102
RTVSPost2010Prop39
140
1.0
102
RTVSPost2010PropOp39
 70
     1
102
RTVSPost2010Prop40
 90
        0
102
RTVSPost2010PropOp40
 70
     1
102
RTVSPost2010Prop41ColorIndex
 90
       18
102
RTVSPost2010Prop41ColorRGB
 90
        0
102
RTVSPost2010PropOp41
 70
     1
102
RTVSPost2010Prop42
 90
       50
102
RTVSPost2010PropOp42
 70
     1
102
RTVSPost2010Prop43
 90
        3
102
RTVSPost2010PropOp43
 70
     1
102
RTVSPost2010Prop44ColorIndex
 90
        5
102
RTVSPost2010Prop44ColorRGB
 90
      255
102
RTVSPost2010PropOp44
 70
     1
102
RTVSPost2010Prop45
280
     0
102
RTVSPost2010PropOp45
 70
     1
102
RTVSPost2010Prop46
 90
       50
102
RTVSPost2010PropOp46
 70
     1
102
RTVSPost2010Prop47
 90
       50
102
RTVSPost2010PropOp47
 70
     1
102
RTVSPost2010Prop48
 90
       50
102
RTVSPost2010PropOp48
 70
     1
102
RTVSPost2010Prop49
280
     0
102
RTVSPost2010PropOp49
 70
     1
102
RTVSPost2010Prop50
 90
       50
102
RTVSPost2010PropOp50
 70
     1
102
RTVSPost2010Prop51ColorIndex
 90
      256
102
RTVSPost2010Prop51ColorRGB
 90
-16777216
102
RTVSPost2010PropOp51
 70
     0
102
RTVSPost2010Prop52
140
1.0
102
RTVSPost2010PropOp52
 70
     0
102
RTVSPost2010Prop53
 90
        2
102
RTVSPost2010PropOp53
 70
     1
102
RTVSPost2010Prop54
  1
strokes_ogs.tif
102
RTVSPost2010PropOp54
 70
     1
102
RTVSPost2010Prop55
280
     0
102
RTVSPost2010PropOp55
 70
     1
102
RTVSPost2010Prop56
140
1.0
102
RTVSPost2010PropOp56
 70
     1
102
RTVSPost2010Prop57
140
1.0
102
RTVSPost2010PropOp57
 70
     1
  0
XRECORD
  5
1A9
102
{ACAD_REACTORS
330
1A8
102
}
330
1A8
100
AcDbXrecord
280
     1
102
RTVSPost2010Prop28
280
     0
102
RTVSPost2010PropOp28
 70
     0
102
RTVSPost2010Prop29
280
     1
102
RTVSPost2010PropOp29
 70
     0
102
RTVSPost2010Prop30
280
     1
102
RTVSPost2010PropOp30
 70
     0
102
RTVSPost2010Prop31
280
     0
102
RTVSPost2010PropOp31
 70
     0
102
RTVSPost2010Prop32
280
     0
102
RTVSPost2010PropOp32
 70
     0
102
RTVSPost2010Prop33
280
     0
102
RTVSPost2010PropOp33
 70
     0
102
RTVSPost2010Prop34
280
     0
102
RTVSPost2010PropOp34
 70
     0
102
RTVSPost2010Prop35
280
     0
102
RTVSPost2010PropOp35
 70
     0
102
RTVSPost2010Prop36
280
     0
102
RTVSPost2010PropOp36
 70
     0
102
RTVSPost2010Prop37
 90
       50
102
RTVSPost2010PropOp37
 70
     0
102
RTVSPost2010Prop38
140
0.0
102
RTVSPost2010PropOp38
 70
     0
102
RTVSPost2010Prop39
140
1.0
102
RTVSPost2010PropOp39
 70
     0
102
RTVSPost2010Prop40
 90
        0
102
RTVSPost2010PropOp40
 70
     0
102
RTVSPost2010Prop41ColorIndex
 90
       18
102
RTVSPost2010Prop41ColorRGB
 90
        0
102
RTVSPost2010PropOp41
 70
     0
102
RTVSPost2010Prop42
 90
       50
102
RTVSPost2010PropOp42
 70
     0
102
RTVSPost2010Prop43
 90
        3
102
RTVSPost2010PropOp43
 70
     0
102
RTVSPost2010Prop44ColorIndex
 90
        5
102
RTVSPost2010Prop44ColorRGB
 90
      255
102
RTVSPost2010PropOp44
 70
     0
102
RTVSPost2010Prop45
280
     0
102
RTVSPost2010PropOp45
 70
     0
102
RTVSPost2010Prop46
 90
       50
102
RTVSPost2010PropOp46
 70
     0
102
RTVSPost2010Prop47
 90
       50
102
RTVSPost2010PropOp47
 70
     0
102
RTVSPost2010Prop48
 90
       50
102
RTVSPost2010PropOp48
 70
     0
102
RTVSPost2010Prop49
280
     0
102
RTVSPost2010PropOp49
 70
     0
102
RTVSPost2010Prop50
 90
       50
102
RTVSPost2010PropOp50
 70
     0
102
RTVSPost2010Prop51ColorIndex
 90
      256
102
RTVSPost2010Prop51ColorRGB
 90
-16777216
102
RTVSPost2010PropOp51
 70
     0
102
RTVSPost2010Prop52
140
1.0
102
RTVSPost2010PropOp52
 70
     0
102
RTVSPost2010Prop53
 90
        2
102
RTVSPost2010PropOp53
 70
     0
102
RTVSPost2010Prop54
  1
strokes_ogs.tif
102
RTVSPost2010PropOp54
 70
     0
102
RTVSPost2010Prop55
280
     0
102
RTVSPost2010PropOp55
 70
     0
102
RTVSPost2010Prop56
140
1.0
102
RTVSPost2010PropOp56
 70
     0
102
RTVSPost2010Prop57
140
1.0
102
RTVSPost2010PropOp57
 70
     0
  0
XRECORD
  5
199
102
{ACAD_REACTORS
330
198
102
}
330
198
100
AcDbXrecord
280
     1
102
RTVSPost2010Prop28
280
     0
102
RTVSPost2010PropOp28
 70
     1
102
RTVSPost2010Prop29
280
     1
102
RTVSPost2010PropOp29
 70
     1
102
RTVSPost2010Prop30
280
     1
102
RTVSPost2010PropOp30
 70
     1
102
RTVSPost2010Prop31
280
     0
102
RTVSPost2010PropOp31
 70
     1
102
RTVSPost2010Prop32
280
     0
102
RTVSPost2010PropOp32
 70
     1
102
RTVSPost2010Prop33
280
     0
102
RTVSPost2010PropOp33
 70
     1
102
RTVSPost2010Prop34
280
     0
102
RTVSPost2010PropOp34
 70
     1
102
RTVSPost2010Prop35
280
     0
102
RTVSPost2010PropOp35
 70
     1
102
RTVSPost2010Prop36
280
     0
102
RTVSPost2010PropOp36
 70
     1
102
RTVSPost2010Prop37
 90
       50
102
RTVSPost2010PropOp37
 70
     1
102
RTVSPost2010Prop38
140
0.0
102
RTVSPost2010PropOp38
 70
     1
102
RTVSPost2010Prop39
140
1.0
102
RTVSPost2010PropOp39
 70
     1
102
RTVSPost2010Prop40
 90
        0
102
RTVSPost2010PropOp40
 70
     1
102
RTVSPost2010Prop41ColorIndex
 90
       18
102
RTVSPost2010Prop41ColorRGB
 90
        0
102
RTVSPost2010PropOp41
 70
     1
102
RTVSPost2010Prop42
 90
       50
102
RTVSPost2010PropOp42
 70
     1
102
RTVSPost2010Prop43
 90
        3
102
RTVSPost2010PropOp43
 70
     1
102
RTVSPost2010Prop44ColorIndex
 90
        5
102
RTVSPost2010Prop44ColorRGB
 90
      255
102
RTVSPost2010PropOp44
 70
     1
102
RTVSPost2010Prop45
280
     0
102
RTVSPost2010PropOp45
 70
     1
102
RTVSPost2010Prop46
 90
       50
102
RTVSPost2010PropOp46
 70
     1
102
RTVSPost2010Prop47
 90
       50
102
RTVSPost2010PropOp47
 70
     1
102
RTVSPost2010Prop48
 90
       50
102
RTVSPost2010PropOp48
 70
     1
102
RTVSPost2010Prop49
280
     0
102
RTVSPost2010PropOp49
 70
     1
102
RTVSPost2010Prop50
 90
       50
102
RTVSPost2010PropOp50
 70
     1
102
RTVSPost2010Prop51ColorIndex
 90
      256
102
RTVSPost2010Prop51ColorRGB
 90
-16777216
102
RTVSPost2010PropOp51
 70
     0
102
RTVSPost2010Prop52
140
1.0
102
RTVSPost2010PropOp52
 70
     0
102
RTVSPost2010Prop53
 90
        2
102
RTVSPost2010PropOp53
 70
     1
102
RTVSPost2010Prop54
  1
strokes_ogs.tif
102
RTVSPost2010PropOp54
 70
     1
102
RTVSPost2010Prop55
280
     0
102
RTVSPost2010PropOp55
 70
     1
102
RTVSPost2010Prop56
140
1.0
102
RTVSPost2010PropOp56
 70
     1
102
RTVSPost2010Prop57
140
1.0
102
RTVSPost2010PropOp57
 70
     1
  0
XRECORD
  5
1AB
102
{ACAD_REACTORS
330
1AA
102
}
330
1AA
100
AcDbXrecord
280
     1
102
RTVSPost2010Prop28
280
     0
102
RTVSPost2010PropOp28
 70
     0
102
RTVSPost2010Prop29
280
     1
102
RTVSPost2010PropOp29
 70
     0
102
RTVSPost2010Prop30
280
     1
102
RTVSPost2010PropOp30
 70
     0
102
RTVSPost2010Prop31
280
     0
102
RTVSPost2010PropOp31
 70
     0
102
RTVSPost2010Prop32
280
     0
102
RTVSPost2010PropOp32
 70
     0
102
RTVSPost2010Prop33
280
     0
102
RTVSPost2010PropOp33
 70
     0
102
RTVSPost2010Prop34
280
     0
102
RTVSPost2010PropOp34
 70
     0
102
RTVSPost2010Prop35
280
     0
102
RTVSPost2010PropOp35
 70
     0
102
RTVSPost2010Prop36
280
     0
102
RTVSPost2010PropOp36
 70
     0
102
RTVSPost2010Prop37
 90
       50
102
RTVSPost2010PropOp37
 70
     0
102
RTVSPost2010Prop38
140
0.0
102
RTVSPost2010PropOp38
 70
     0
102
RTVSPost2010Prop39
140
1.0
102
RTVSPost2010PropOp39
 70
     0
102
RTVSPost2010Prop40
 90
        0
102
RTVSPost2010PropOp40
 70
     0
102
RTVSPost2010Prop41ColorIndex
 90
       18
102
RTVSPost2010Prop41ColorRGB
 90
        0
102
RTVSPost2010PropOp41
 70
     0
102
RTVSPost2010Prop42
 90
       50
102
RTVSPost2010PropOp42
 70
     0
102
RTVSPost2010Prop43
 90
        3
102
RTVSPost2010PropOp43
 70
     0
102
RTVSPost2010Prop44ColorIndex
 90
        5
102
RTVSPost2010Prop44ColorRGB
 90
      255
102
RTVSPost2010PropOp44
 70
     0
102
RTVSPost2010Prop45
280
     0
102
RTVSPost2010PropOp45
 70
     0
102
RTVSPost2010Prop46
 90
       50
102
RTVSPost2010PropOp46
 70
     0
102
RTVSPost2010Prop47
 90
       50
102
RTVSPost2010PropOp47
 70
     0
102
RTVSPost2010Prop48
 90
       50
102
RTVSPost2010PropOp48
 70
     0
102
RTVSPost2010Prop49
280
     0
102
RTVSPost2010PropOp49
 70
     0
102
RTVSPost2010Prop50
 90
       50
102
RTVSPost2010PropOp50
 70
     0
102
RTVSPost2010Prop51ColorIndex
 90
      256
102
RTVSPost2010Prop51ColorRGB
 90
-16777216
102
RTVSPost2010PropOp51
 70
     0
102
RTVSPost2010Prop52
140
1.0
102
RTVSPost2010PropOp52
 70
     0
102
RTVSPost2010Prop53
 90
        2
102
RTVSPost2010PropOp53
 70
     0
102
RTVSPost2010Prop54
  1
strokes_ogs.tif
102
RTVSPost2010PropOp54
 70
     0
102
RTVSPost2010Prop55
280
     0
102
RTVSPost2010PropOp55
 70
     0
102
RTVSPost2010Prop56
140
1.0
102
RTVSPost2010PropOp56
 70
     0
102
RTVSPost2010Prop57
140
1.0
102
RTVSPost2010PropOp57
 70
     0
  0
XRECORD
  5
191
102
{ACAD_REACTORS
330
190
102
}
330
190
100
AcDbXrecord
280
     1
102
RTVSPost2010Prop28
280
     0
102
RTVSPost2010PropOp28
 70
     1
102
RTVSPost2010Prop29
280
     1
102
RTVSPost2010PropOp29
 70
     1
102
RTVSPost2010Prop30
280
     1
102
RTVSPost2010PropOp30
 70
     1
102
RTVSPost2010Prop31
280
     0
102
RTVSPost2010PropOp31
 70
     1
102
RTVSPost2010Prop32
280
     0
102
RTVSPost2010PropOp32
 70
     1
102
RTVSPost2010Prop33
280
     0
102
RTVSPost2010PropOp33
 70
     1
102
RTVSPost2010Prop34
280
     0
102
RTVSPost2010PropOp34
 70
     1
102
RTVSPost2010Prop35
280
     0
102
RTVSPost2010PropOp35
 70
     1
102
RTVSPost2010Prop36
280
     0
102
RTVSPost2010PropOp36
 70
     1
102
RTVSPost2010Prop37
 90
       50
102
RTVSPost2010PropOp37
 70
     1
102
RTVSPost2010Prop38
140
0.0
102
RTVSPost2010PropOp38
 70
     1
102
RTVSPost2010Prop39
140
1.0
102
RTVSPost2010PropOp39
 70
     1
102
RTVSPost2010Prop40
 90
        0
102
RTVSPost2010PropOp40
 70
     1
102
RTVSPost2010Prop41ColorIndex
 90
       18
102
RTVSPost2010Prop41ColorRGB
 90
        0
102
RTVSPost2010PropOp41
 70
     1
102
RTVSPost2010Prop42
 90
       50
102
RTVSPost2010PropOp42
 70
     1
102
RTVSPost2010Prop43
 90
        3
102
RTVSPost2010PropOp43
 70
     1
102
RTVSPost2010Prop44ColorIndex
 90
        5
102
RTVSPost2010Prop44ColorRGB
 90
      255
102
RTVSPost2010PropOp44
 70
     1
102
RTVSPost2010Prop45
280
     0
102
RTVSPost2010PropOp45
 70
     1
102
RTVSPost2010Prop46
 90
       50
102
RTVSPost2010PropOp46
 70
     1
102
RTVSPost2010Prop47
 90
       50
102
RTVSPost2010PropOp47
 70
     1
102
RTVSPost2010Prop48
 90
       50
102
RTVSPost2010PropOp48
 70
     1
102
RTVSPost2010Prop49
280
     0
102
RTVSPost2010PropOp49
 70
     1
102
RTVSPost2010Prop50
 90
       50
102
RTVSPost2010PropOp50
 70
     1
102
RTVSPost2010Prop51ColorIndex
 90
      256
102
RTVSPost2010Prop51ColorRGB
 90
-16777216
102
RTVSPost2010PropOp51
 70
     0
102
RTVSPost2010Prop52
140
1.0
102
RTVSPost2010PropOp52
 70
     0
102
RTVSPost2010Prop53
 90
        2
102
RTVSPost2010PropOp53
 70
     1
102
RTVSPost2010Prop54
  1
strokes_ogs.tif
102
RTVSPost2010PropOp54
 70
     1
102
RTVSPost2010Prop55
280
     0
102
RTVSPost2010PropOp55
 70
     1
102
RTVSPost2010Prop56
140
1.0
102
RTVSPost2010PropOp56
 70
     1
102
RTVSPost2010Prop57
140
1.0
102
RTVSPost2010PropOp57
 70
     1
  0
XRECORD
  5
1A7
102
{ACAD_REACTORS
330
1A6
102
}
330
1A6
100
AcDbXrecord
280
     1
102
RTVSPost2010Prop28
280
     0
102
RTVSPost2010PropOp28
 70
     1
102
RTVSPost2010Prop29
280
     1
102
RTVSPost2010PropOp29
 70
     1
102
RTVSPost2010Prop30
280
     1
102
RTVSPost2010PropOp30
 70
     1
102
RTVSPost2010Prop31
280
     0
102
RTVSPost2010PropOp31
 70
     1
102
RTVSPost2010Prop32
280
     0
102
RTVSPost2010PropOp32
 70
     1
102
RTVSPost2010Prop33
280
     0
102
RTVSPost2010PropOp33
 70
     1
102
RTVSPost2010Prop34
280
     0
102
RTVSPost2010PropOp34
 70
     1
102
RTVSPost2010Prop35
280
     0
102
RTVSPost2010PropOp35
 70
     1
102
RTVSPost2010Prop36
280
     0
102
RTVSPost2010PropOp36
 70
     1
102
RTVSPost2010Prop37
 90
       50
102
RTVSPost2010PropOp37
 70
     1
102
RTVSPost2010Prop38
140
0.0
102
RTVSPost2010PropOp38
 70
     1
102
RTVSPost2010Prop39
140
1.0
102
RTVSPost2010PropOp39
 70
     1
102
RTVSPost2010Prop40
 90
        0
102
RTVSPost2010PropOp40
 70
     1
102
RTVSPost2010Prop41ColorIndex
 90
       18
102
RTVSPost2010Prop41ColorRGB
 90
        0
102
RTVSPost2010PropOp41
 70
     1
102
RTVSPost2010Prop42
 90
       50
102
RTVSPost2010PropOp42
 70
     1
102
RTVSPost2010Prop43
 90
        3
102
RTVSPost2010PropOp43
 70
     1
102
RTVSPost2010Prop44ColorIndex
 90
        5
102
RTVSPost2010Prop44ColorRGB
 90
      255
102
RTVSPost2010PropOp44
 70
     1
102
RTVSPost2010Prop45
280
     0
102
RTVSPost2010PropOp45
 70
     1
102
RTVSPost2010Prop46
 90
       50
102
RTVSPost2010PropOp46
 70
     1
102
RTVSPost2010Prop47
 90
       50
102
RTVSPost2010PropOp47
 70
     1
102
RTVSPost2010Prop48
 90
       50
102
RTVSPost2010PropOp48
 70
     1
102
RTVSPost2010Prop49
280
     0
102
RTVSPost2010PropOp49
 70
     1
102
RTVSPost2010Prop50
 90
       50
102
RTVSPost2010PropOp50
 70
     1
102
RTVSPost2010Prop51ColorIndex
 90
      256
102
RTVSPost2010Prop51ColorRGB
 90
-16777216
102
RTVSPost2010PropOp51
 70
     0
102
RTVSPost2010Prop52
140
1.0
102
RTVSPost2010PropOp52
 70
     0
102
RTVSPost2010Prop53
 90
        2
102
RTVSPost2010PropOp53
 70
     1
102
RTVSPost2010Prop54
  1
strokes_ogs.tif
102
RTVSPost2010PropOp54
 70
     1
102
RTVSPost2010Prop55
280
     0
102
RTVSPost2010PropOp55
 70
     1
102
RTVSPost2010Prop56
140
1.0
102
RTVSPost2010PropOp56
 70
     1
102
RTVSPost2010Prop57
140
1.0
102
RTVSPost2010PropOp57
 70
     1
  0
XRECORD
  5
1A5
102
{ACAD_REACTORS
330
1A4
102
}
330
1A4
100
AcDbXrecord
280
     1
102
RTVSPost2010Prop28
280
     0
102
RTVSPost2010PropOp28
 70
     1
102
RTVSPost2010Prop29
280
     1
102
RTVSPost2010PropOp29
 70
     1
102
RTVSPost2010Prop30
280
     1
102
RTVSPost2010PropOp30
 70
     1
102
RTVSPost2010Prop31
280
     0
102
RTVSPost2010PropOp31
 70
     1
102
RTVSPost2010Prop32
280
     0
102
RTVSPost2010PropOp32
 70
     1
102
RTVSPost2010Prop33
280
     0
102
RTVSPost2010PropOp33
 70
     1
102
RTVSPost2010Prop34
280
     0
102
RTVSPost2010PropOp34
 70
     1
102
RTVSPost2010Prop35
280
     0
102
RTVSPost2010PropOp35
 70
     1
102
RTVSPost2010Prop36
280
     0
102
RTVSPost2010PropOp36
 70
     1
102
RTVSPost2010Prop37
 90
       50
102
RTVSPost2010PropOp37
 70
     1
102
RTVSPost2010Prop38
140
0.0
102
RTVSPost2010PropOp38
 70
     1
102
RTVSPost2010Prop39
140
1.0
102
RTVSPost2010PropOp39
 70
     1
102
RTVSPost2010Prop40
 90
        0
102
RTVSPost2010PropOp40
 70
     1
102
RTVSPost2010Prop41ColorIndex
 90
       18
102
RTVSPost2010Prop41ColorRGB
 90
        0
102
RTVSPost2010PropOp41
 70
     1
102
RTVSPost2010Prop42
 90
       50
102
RTVSPost2010PropOp42
 70
     1
102
RTVSPost2010Prop43
 90
        3
102
RTVSPost2010PropOp43
 70
     1
102
RTVSPost2010Prop44ColorIndex
 90
        5
102
RTVSPost2010Prop44ColorRGB
 90
      255
102
RTVSPost2010PropOp44
 70
     1
102
RTVSPost2010Prop45
280
     0
102
RTVSPost2010PropOp45
 70
     1
102
RTVSPost2010Prop46
 90
       50
102
RTVSPost2010PropOp46
 70
     1
102
RTVSPost2010Prop47
 90
       50
102
RTVSPost2010PropOp47
 70
     1
102
RTVSPost2010Prop48
 90
       50
102
RTVSPost2010PropOp48
 70
     1
102
RTVSPost2010Prop49
280
     0
102
RTVSPost2010PropOp49
 70
     1
102
RTVSPost2010Prop50
 90
       50
102
RTVSPost2010PropOp50
 70
     1
102
RTVSPost2010Prop51ColorIndex
 90
      256
102
RTVSPost2010Prop51ColorRGB
 90
-16777216
102
RTVSPost2010PropOp51
 70
     0
102
RTVSPost2010Prop52
140
1.0
102
RTVSPost2010PropOp52
 70
     0
102
RTVSPost2010Prop53
 90
        2
102
RTVSPost2010PropOp53
 70
     1
102
RTVSPost2010Prop54
  1
strokes_ogs.tif
102
RTVSPost2010PropOp54
 70
     1
102
RTVSPost2010Prop55
280
     0
102
RTVSPost2010PropOp55
 70
     1
102
RTVSPost2010Prop56
140
1.0
102
RTVSPost2010PropOp56
 70
     1
102
RTVSPost2010Prop57
140
1.0
102
RTVSPost2010PropOp57
 70
     1
  0
XRECORD
  5
19F
102
{ACAD_REACTORS
330
19E
102
}
330
19E
100
AcDbXrecord
280
     1
102
RTVSPost2010Prop28
280
     0
102
RTVSPost2010PropOp28
 70
     1
102
RTVSPost2010Prop29
280
     1
102
RTVSPost2010PropOp29
 70
     1
102
RTVSPost2010Prop30
280
     1
102
RTVSPost2010PropOp30
 70
     1
102
RTVSPost2010Prop31
280
     0
102
RTVSPost2010PropOp31
 70
     1
102
RTVSPost2010Prop32
280
     0
102
RTVSPost2010PropOp32
 70
     1
102
RTVSPost2010Prop33
280
     0
102
RTVSPost2010PropOp33
 70
     1
102
RTVSPost2010Prop34
280
     0
102
RTVSPost2010PropOp34
 70
     1
102
RTVSPost2010Prop35
280
     0
102
RTVSPost2010PropOp35
 70
     1
102
RTVSPost2010Prop36
280
     0
102
RTVSPost2010PropOp36
 70
     1
102
RTVSPost2010Prop37
 90
       50
102
RTVSPost2010PropOp37
 70
     1
102
RTVSPost2010Prop38
140
0.0
102
RTVSPost2010PropOp38
 70
     1
102
RTVSPost2010Prop39
140
1.0
102
RTVSPost2010PropOp39
 70
     1
102
RTVSPost2010Prop40
 90
        0
102
RTVSPost2010PropOp40
 70
     1
102
RTVSPost2010Prop41ColorIndex
 90
       18
102
RTVSPost2010Prop41ColorRGB
 90
        0
102
RTVSPost2010PropOp41
 70
     1
102
RTVSPost2010Prop42
 90
       50
102
RTVSPost2010PropOp42
 70
     1
102
RTVSPost2010Prop43
 90
        3
102
RTVSPost2010PropOp43
 70
     1
102
RTVSPost2010Prop44ColorIndex
 90
        5
102
RTVSPost2010Prop44ColorRGB
 90
      255
102
RTVSPost2010PropOp44
 70
     1
102
RTVSPost2010Prop45
280
     0
102
RTVSPost2010PropOp45
 70
     1
102
RTVSPost2010Prop46
 90
       50
102
RTVSPost2010PropOp46
 70
     1
102
RTVSPost2010Prop47
 90
       50
102
RTVSPost2010PropOp47
 70
     1
102
RTVSPost2010Prop48
 90
       50
102
RTVSPost2010PropOp48
 70
     1
102
RTVSPost2010Prop49
280
     0
102
RTVSPost2010PropOp49
 70
     1
102
RTVSPost2010Prop50
 90
       50
102
RTVSPost2010PropOp50
 70
     1
102
RTVSPost2010Prop51ColorIndex
 90
      256
102
RTVSPost2010Prop51ColorRGB
 90
-16777216
102
RTVSPost2010PropOp51
 70
     0
102
RTVSPost2010Prop52
140
1.0
102
RTVSPost2010PropOp52
 70
     0
102
RTVSPost2010Prop53
 90
        2
102
RTVSPost2010PropOp53
 70
     1
102
RTVSPost2010Prop54
  1
strokes_ogs.tif
102
RTVSPost2010PropOp54
 70
     1
102
RTVSPost2010Prop55
280
     0
102
RTVSPost2010PropOp55
 70
     1
102
RTVSPost2010Prop56
140
1.0
102
RTVSPost2010PropOp56
 70
     1
102
RTVSPost2010Prop57
140
1.0
102
RTVSPost2010PropOp57
 70
     1
  0
XRECORD
  5
1A1
102
{ACAD_REACTORS
330
1A0
102
}
330
1A0
100
AcDbXrecord
280
     1
102
RTVSPost2010Prop28
280
     0
102
RTVSPost2010PropOp28
 70
     1
102
RTVSPost2010Prop29
280
     1
102
RTVSPost2010PropOp29
 70
     1
102
RTVSPost2010Prop30
280
     1
102
RTVSPost2010PropOp30
 70
     1
102
RTVSPost2010Prop31
280
     0
102
RTVSPost2010PropOp31
 70
     1
102
RTVSPost2010Prop32
280
     0
102
RTVSPost2010PropOp32
 70
     1
102
RTVSPost2010Prop33
280
     0
102
RTVSPost2010PropOp33
 70
     1
102
RTVSPost2010Prop34
280
     0
102
RTVSPost2010PropOp34
 70
     1
102
RTVSPost2010Prop35
280
     0
102
RTVSPost2010PropOp35
 70
     1
102
RTVSPost2010Prop36
280
     0
102
RTVSPost2010PropOp36
 70
     1
102
RTVSPost2010Prop37
 90
       50
102
RTVSPost2010PropOp37
 70
     1
102
RTVSPost2010Prop38
140
0.0
102
RTVSPost2010PropOp38
 70
     1
102
RTVSPost2010Prop39
140
1.0
102
RTVSPost2010PropOp39
 70
     1
102
RTVSPost2010Prop40
 90
        0
102
RTVSPost2010PropOp40
 70
     1
102
RTVSPost2010Prop41ColorIndex
 90
       18
102
RTVSPost2010Prop41ColorRGB
 90
        0
102
RTVSPost2010PropOp41
 70
     1
102
RTVSPost2010Prop42
 90
       50
102
RTVSPost2010PropOp42
 70
     1
102
RTVSPost2010Prop43
 90
        3
102
RTVSPost2010PropOp43
 70
     1
102
RTVSPost2010Prop44ColorIndex
 90
        5
102
RTVSPost2010Prop44ColorRGB
 90
      255
102
RTVSPost2010PropOp44
 70
     1
102
RTVSPost2010Prop45
280
     0
102
RTVSPost2010PropOp45
 70
     1
102
RTVSPost2010Prop46
 90
       50
102
RTVSPost2010PropOp46
 70
     1
102
RTVSPost2010Prop47
 90
       50
102
RTVSPost2010PropOp47
 70
     1
102
RTVSPost2010Prop48
 90
       50
102
RTVSPost2010PropOp48
 70
     1
102
RTVSPost2010Prop49
280
     0
102
RTVSPost2010PropOp49
 70
     1
102
RTVSPost2010Prop50
 90
       50
102
RTVSPost2010PropOp50
 70
     1
102
RTVSPost2010Prop51ColorIndex
 90
      256
102
RTVSPost2010Prop51ColorRGB
 90
-16777216
102
RTVSPost2010PropOp51
 70
     0
102
RTVSPost2010Prop52
140
1.0
102
RTVSPost2010PropOp52
 70
     0
102
RTVSPost2010Prop53
 90
        2
102
RTVSPost2010PropOp53
 70
     1
102
RTVSPost2010Prop54
  1
strokes_ogs.tif
102
RTVSPost2010PropOp54
 70
     1
102
RTVSPost2010Prop55
280
     0
102
RTVSPost2010PropOp55
 70
     1
102
RTVSPost2010Prop56
140
1.0
102
RTVSPost2010PropOp56
 70
     1
102
RTVSPost2010Prop57
140
1.0
102
RTVSPost2010PropOp57
 70
     1
  0
XRECORD
  5
197
102
{ACAD_REACTORS
330
196
102
}
330
196
100
AcDbXrecord
280
     1
102
RTVSPost2010Prop28
280
     0
102
RTVSPost2010PropOp28
 70
     1
102
RTVSPost2010Prop29
280
     1
102
RTVSPost2010PropOp29
 70
     1
102
RTVSPost2010Prop30
280
     1
102
RTVSPost2010PropOp30
 70
     1
102
RTVSPost2010Prop31
280
     0
102
RTVSPost2010PropOp31
 70
     1
102
RTVSPost2010Prop32
280
     0
102
RTVSPost2010PropOp32
 70
     1
102
RTVSPost2010Prop33
280
     0
102
RTVSPost2010PropOp33
 70
     1
102
RTVSPost2010Prop34
280
     0
102
RTVSPost2010PropOp34
 70
     1
102
RTVSPost2010Prop35
280
     0
102
RTVSPost2010PropOp35
 70
     1
102
RTVSPost2010Prop36
280
     0
102
RTVSPost2010PropOp36
 70
     1
102
RTVSPost2010Prop37
 90
       50
102
RTVSPost2010PropOp37
 70
     1
102
RTVSPost2010Prop38
140
0.0
102
RTVSPost2010PropOp38
 70
     1
102
RTVSPost2010Prop39
140
1.0
102
RTVSPost2010PropOp39
 70
     1
102
RTVSPost2010Prop40
 90
        0
102
RTVSPost2010PropOp40
 70
     1
102
RTVSPost2010Prop41ColorIndex
 90
       18
102
RTVSPost2010Prop41ColorRGB
 90
        0
102
RTVSPost2010PropOp41
 70
     1
102
RTVSPost2010Prop42
 90
       50
102
RTVSPost2010PropOp42
 70
     1
102
RTVSPost2010Prop43
 90
        3
102
RTVSPost2010PropOp43
 70
     1
102
RTVSPost2010Prop44ColorIndex
 90
        5
102
RTVSPost2010Prop44ColorRGB
 90
      255
102
RTVSPost2010PropOp44
 70
     1
102
RTVSPost2010Prop45
280
     0
102
RTVSPost2010PropOp45
 70
     1
102
RTVSPost2010Prop46
 90
       50
102
RTVSPost2010PropOp46
 70
     1
102
RTVSPost2010Prop47
 90
       50
102
RTVSPost2010PropOp47
 70
     1
102
RTVSPost2010Prop48
 90
       50
102
RTVSPost2010PropOp48
 70
     1
102
RTVSPost2010Prop49
280
     0
102
RTVSPost2010PropOp49
 70
     1
102
RTVSPost2010Prop50
 90
       50
102
RTVSPost2010PropOp50
 70
     1
102
RTVSPost2010Prop51ColorIndex
 90
      256
102
RTVSPost2010Prop51ColorRGB
 90
-16777216
102
RTVSPost2010PropOp51
 70
     0
102
RTVSPost2010Prop52
140
1.0
102
RTVSPost2010PropOp52
 70
     0
102
RTVSPost2010Prop53
 90
        2
102
RTVSPost2010PropOp53
 70
     1
102
RTVSPost2010Prop54
  1
strokes_ogs.tif
102
RTVSPost2010PropOp54
 70
     1
102
RTVSPost2010Prop55
280
     0
102
RTVSPost2010PropOp55
 70
     1
102
RTVSPost2010Prop56
140
1.0
102
RTVSPost2010PropOp56
 70
     1
102
RTVSPost2010Prop57
140
1.0
102
RTVSPost2010PropOp57
 70
     1
  0
XRECORD
  5
18B
102
{ACAD_REACTORS
330
18A
102
}
330
18A
100
AcDbXrecord
280
     1
102
RTVSPost2010Prop28
280
     0
102
RTVSPost2010PropOp28
 70
     1
102
RTVSPost2010Prop29
280
     1
102
RTVSPost2010PropOp29
 70
     1
102
RTVSPost2010Prop30
280
     1
102
RTVSPost2010PropOp30
 70
     1
102
RTVSPost2010Prop31
280
     0
102
RTVSPost2010PropOp31
 70
     1
102
RTVSPost2010Prop32
280
     0
102
RTVSPost2010PropOp32
 70
     1
102
RTVSPost2010Prop33
280
     0
102
RTVSPost2010PropOp33
 70
     1
102
RTVSPost2010Prop34
280
     0
102
RTVSPost2010PropOp34
 70
     1
102
RTVSPost2010Prop35
280
     0
102
RTVSPost2010PropOp35
 70
     1
102
RTVSPost2010Prop36
280
     0
102
RTVSPost2010PropOp36
 70
     1
102
RTVSPost2010Prop37
 90
       50
102
RTVSPost2010PropOp37
 70
     1
102
RTVSPost2010Prop38
140
0.0
102
RTVSPost2010PropOp38
 70
     1
102
RTVSPost2010Prop39
140
1.0
102
RTVSPost2010PropOp39
 70
     1
102
RTVSPost2010Prop40
 90
        0
102
RTVSPost2010PropOp40
 70
     1
102
RTVSPost2010Prop41ColorIndex
 90
       18
102
RTVSPost2010Prop41ColorRGB
 90
        0
102
RTVSPost2010PropOp41
 70
     1
102
RTVSPost2010Prop42
 90
       50
102
RTVSPost2010PropOp42
 70
     1
102
RTVSPost2010Prop43
 90
        3
102
RTVSPost2010PropOp43
 70
     1
102
RTVSPost2010Prop44ColorIndex
 90
        5
102
RTVSPost2010Prop44ColorRGB
 90
      255
102
RTVSPost2010PropOp44
 70
     1
102
RTVSPost2010Prop45
280
     0
102
RTVSPost2010PropOp45
 70
     1
102
RTVSPost2010Prop46
 90
       50
102
RTVSPost2010PropOp46
 70
     1
102
RTVSPost2010Prop47
 90
       50
102
RTVSPost2010PropOp47
 70
     1
102
RTVSPost2010Prop48
 90
       50
102
RTVSPost2010PropOp48
 70
     1
102
RTVSPost2010Prop49
280
     0
102
RTVSPost2010PropOp49
 70
     1
102
RTVSPost2010Prop50
 90
       50
102
RTVSPost2010PropOp50
 70
     1
102
RTVSPost2010Prop51ColorIndex
 90
      256
102
RTVSPost2010Prop51ColorRGB
 90
-16777216
102
RTVSPost2010PropOp51
 70
     0
102
RTVSPost2010Prop52
140
1.0
102
RTVSPost2010PropOp52
 70
     0
102
RTVSPost2010Prop53
 90
        2
102
RTVSPost2010PropOp53
 70
     1
102
RTVSPost2010Prop54
  1
strokes_ogs.tif
102
RTVSPost2010PropOp54
 70
     1
102
RTVSPost2010Prop55
280
     0
102
RTVSPost2010PropOp55
 70
     1
102
RTVSPost2010Prop56
140
1.0
102
RTVSPost2010PropOp56
 70
     1
102
RTVSPost2010Prop57
140
1.0
102
RTVSPost2010PropOp57
 70
     1
  0
XRECORD
  5
1A3
102
{ACAD_REACTORS
330
1A2
102
}
330
1A2
100
AcDbXrecord
280
     1
102
RTVSPost2010Prop28
280
     0
102
RTVSPost2010PropOp28
 70
     1
102
RTVSPost2010Prop29
280
     1
102
RTVSPost2010PropOp29
 70
     1
102
RTVSPost2010Prop30
280
     1
102
RTVSPost2010PropOp30
 70
     1
102
RTVSPost2010Prop31
280
     0
102
RTVSPost2010PropOp31
 70
     1
102
RTVSPost2010Prop32
280
     0
102
RTVSPost2010PropOp32
 70
     1
102
RTVSPost2010Prop33
280
     0
102
RTVSPost2010PropOp33
 70
     1
102
RTVSPost2010Prop34
280
     0
102
RTVSPost2010PropOp34
 70
     1
102
RTVSPost2010Prop35
280
     0
102
RTVSPost2010PropOp35
 70
     1
102
RTVSPost2010Prop36
280
     0
102
RTVSPost2010PropOp36
 70
     1
102
RTVSPost2010Prop37
 90
       50
102
RTVSPost2010PropOp37
 70
     1
102
RTVSPost2010Prop38
140
0.0
102
RTVSPost2010PropOp38
 70
     1
102
RTVSPost2010Prop39
140
1.0
102
RTVSPost2010PropOp39
 70
     1
102
RTVSPost2010Prop40
 90
        0
102
RTVSPost2010PropOp40
 70
     1
102
RTVSPost2010Prop41ColorIndex
 90
       18
102
RTVSPost2010Prop41ColorRGB
 90
        0
102
RTVSPost2010PropOp41
 70
     1
102
RTVSPost2010Prop42
 90
       50
102
RTVSPost2010PropOp42
 70
     1
102
RTVSPost2010Prop43
 90
        3
102
RTVSPost2010PropOp43
 70
     1
102
RTVSPost2010Prop44ColorIndex
 90
        5
102
RTVSPost2010Prop44ColorRGB
 90
      255
102
RTVSPost2010PropOp44
 70
     1
102
RTVSPost2010Prop45
280
     0
102
RTVSPost2010PropOp45
 70
     1
102
RTVSPost2010Prop46
 90
       50
102
RTVSPost2010PropOp46
 70
     1
102
RTVSPost2010Prop47
 90
       50
102
RTVSPost2010PropOp47
 70
     1
102
RTVSPost2010Prop48
 90
       50
102
RTVSPost2010PropOp48
 70
     1
102
RTVSPost2010Prop49
280
     0
102
RTVSPost2010PropOp49
 70
     1
102
RTVSPost2010Prop50
 90
       50
102
RTVSPost2010PropOp50
 70
     1
102
RTVSPost2010Prop51ColorIndex
 90
      256
102
RTVSPost2010Prop51ColorRGB
 90
-16777216
102
RTVSPost2010PropOp51
 70
     0
102
RTVSPost2010Prop52
140
1.0
102
RTVSPost2010PropOp52
 70
     0
102
RTVSPost2010Prop53
 90
        2
102
RTVSPost2010PropOp53
 70
     1
102
RTVSPost2010Prop54
  1
strokes_ogs.tif
102
RTVSPost2010PropOp54
 70
     1
102
RTVSPost2010Prop55
280
     0
102
RTVSPost2010PropOp55
 70
     1
102
RTVSPost2010Prop56
140
1.0
102
RTVSPost2010PropOp56
 70
     1
102
RTVSPost2010Prop57
140
1.0
102
RTVSPost2010PropOp57
 70
     1
  0
ENDSEC
  0
EOF
