  0
SECTION
  2
HEADER
  9
$ACADVER
  1
AC1024
  9
$ACADMAINTVER
 70
   205
  9
$DWGCODEPAGE
  3
ANSI_1251
  9
$INSBASE
 10
0.0
 20
0.0
 30
0.0
  9
$EXTMIN
 10
1.000000000000000E+20
 20
1.000000000000000E+20
 30
1.000000000000000E+20
  9
$EXTMAX
 10
-1.000000000000000E+20
 20
-1.000000000000000E+20
 30
-1.000000000000000E+20
  9
$LIMMIN
 10
0.0
 20
0.0
  9
$LIMMAX
 10
12.0
 20
9.0
  9
$ORTHOMODE
 70
     0
  9
$REGENMODE
 70
     1
  9
$FILLMODE
 70
     1
  9
$QTEXTMODE
 70
     0
  9
$MIRRTEXT
 70
     1
  9
$LTSCALE
 40
1.0
  9
$ATTMODE
 70
     1
  9
$TEXTSIZE
 40
0.2
  9
$TRACEWID
 40
0.05
  9
$TEXTSTYLE
  7
Standard
  9
$CLAYER
  8
OracDecor_cornice_mouldings
  9
$CELTYPE
  6
ByLayer
  9
$CECOLOR
 62
   256
  9
$CELTSCALE
 40
1.0
  9
$DISPSILH
 70
     0
  9
$DIMSCALE
 40
1.0
  9
$DIMASZ
 40
0.18
  9
$DIMEXO
 40
0.0625
  9
$DIMDLI
 40
0.38
  9
$DIMRND
 40
0.0
  9
$DIMDLE
 40
0.0
  9
$DIMEXE
 40
0.18
  9
$DIMTP
 40
0.0
  9
$DIMTM
 40
0.0
  9
$DIMTXT
 40
0.18
  9
$DIMCEN
 40
0.09
  9
$DIMTSZ
 40
0.0
  9
$DIMTOL
 70
     0
  9
$DIMLIM
 70
     0
  9
$DIMTIH
 70
     1
  9
$DIMTOH
 70
     1
  9
$DIMSE1
 70
     0
  9
$DIMSE2
 70
     0
  9
$DIMTAD
 70
     0
  9
$DIMZIN
 70
     0
  9
$DIMBLK
  1

  9
$DIMASO
 70
     1
  9
$DIMSHO
 70
     1
  9
$DIMPOST
  1

  9
$DIMAPOST
  1

  9
$DIMALT
 70
     0
  9
$DIMALTD
 70
     2
  9
$DIMALTF
 40
25.4
  9
$DIMLFAC
 40
1.0
  9
$DIMTOFL
 70
     0
  9
$DIMTVP
 40
0.0
  9
$DIMTIX
 70
     0
  9
$DIMSOXD
 70
     0
  9
$DIMSAH
 70
     0
  9
$DIMBLK1
  1

  9
$DIMBLK2
  1

  9
$DIMSTYLE
  2
Standard
  9
$DIMCLRD
 70
     0
  9
$DIMCLRE
 70
     0
  9
$DIMCLRT
 70
     0
  9
$DIMTFAC
 40
1.0
  9
$DIMGAP
 40
0.09
  9
$DIMJUST
 70
     0
  9
$DIMSD1
 70
     0
  9
$DIMSD2
 70
     0
  9
$DIMTOLJ
 70
     1
  9
$DIMTZIN
 70
     0
  9
$DIMALTZ
 70
     0
  9
$DIMALTTZ
 70
     0
  9
$DIMUPT
 70
     0
  9
$DIMDEC
 70
     4
  9
$DIMTDEC
 70
     4
  9
$DIMALTU
 70
     2
  9
$DIMALTTD
 70
     2
  9
$DIMTXSTY
  7
Standard
  9
$DIMAUNIT
 70
     0
  9
$DIMADEC
 70
     0
  9
$DIMALTRND
 40
0.0
  9
$DIMAZIN
 70
     0
  9
$DIMDSEP
 70
    46
  9
$DIMATFIT
 70
     3
  9
$DIMFRAC
 70
     0
  9
$DIMLDRBLK
  1

  9
$DIMLUNIT
 70
     2
  9
$DIMLWD
 70
    -2
  9
$DIMLWE
 70
    -2
  9
$DIMTMOVE
 70
     0
  9
$DIMFXL
 40
1.0
  9
$DIMFXLON
 70
     0
  9
$DIMJOGANG
 40
0.7853981633974483
  9
$DIMTFILL
 70
     0
  9
$DIMTFILLCLR
 70
     0
  9
$DIMARCSYM
 70
     0
  9
$DIMLTYPE
  6

  9
$DIMLTEX1
  6

  9
$DIMLTEX2
  6

  9
$DIMTXTDIRECTION
 70
     0
  9
$LUNITS
 70
     2
  9
$LUPREC
 70
     4
  9
$SKETCHINC
 40
0.1
  9
$FILLETRAD
 40
0.5
  9
$AUNITS
 70
     0
  9
$AUPREC
 70
     0
  9
$MENU
  1
.
  9
$ELEVATION
 40
0.0
  9
$PELEVATION
 40
0.0
  9
$THICKNESS
 40
0.0
  9
$LIMCHECK
 70
     0
  9
$CHAMFERA
 40
0.5
  9
$CHAMFERB
 40
0.5
  9
$CHAMFERC
 40
1.0
  9
$CHAMFERD
 40
0.0
  9
$SKPOLY
 70
     0
  9
$TDCREATE
 40
2451380.930432396
  9
$TDUCREATE
 40
2451380.805432396
  9
$TDUPDATE
 40
2451380.966180555
  9
$TDUUPDATE
 40
2451380.841180556
  9
$TDINDWG
 40
0.0075634491
  9
$TDUSRTIMER
 40
0.0075544097
  9
$USRTIMER
 70
     1
  9
$ANGBASE
 50
0.0
  9
$ANGDIR
 70
     0
  9
$PDMODE
 70
     0
  9
$PDSIZE
 40
0.0
  9
$PLINEWID
 40
0.0
  9
$SPLFRAME
 70
     0
  9
$SPLINETYPE
 70
     6
  9
$SPLINESEGS
 70
     8
  9
$HANDSEED
  5
1C5
  9
$SURFTAB1
 70
     6
  9
$SURFTAB2
 70
     6
  9
$SURFTYPE
 70
     6
  9
$SURFU
 70
     6
  9
$SURFV
 70
     6
  9
$UCSBASE
  2

  9
$UCSNAME
  2

  9
$UCSORG
 10
0.0
 20
0.0
 30
0.0
  9
$UCSXDIR
 10
1.0
 20
0.0
 30
0.0
  9
$UCSYDIR
 10
0.0
 20
1.0
 30
0.0
  9
$UCSORTHOREF
  2

  9
$UCSORTHOVIEW
 70
     0
  9
$UCSORGTOP
 10
0.0
 20
0.0
 30
0.0
  9
$UCSORGBOTTOM
 10
0.0
 20
0.0
 30
0.0
  9
$UCSORGLEFT
 10
0.0
 20
0.0
 30
0.0
  9
$UCSORGRIGHT
 10
0.0
 20
0.0
 30
0.0
  9
$UCSORGFRONT
 10
0.0
 20
0.0
 30
0.0
  9
$UCSORGBACK
 10
0.0
 20
0.0
 30
0.0
  9
$PUCSBASE
  2

  9
$PUCSNAME
  2

  9
$PUCSORG
 10
0.0
 20
0.0
 30
0.0
  9
$PUCSXDIR
 10
1.0
 20
0.0
 30
0.0
  9
$PUCSYDIR
 10
0.0
 20
1.0
 30
0.0
  9
$PUCSORTHOREF
  2

  9
$PUCSORTHOVIEW
 70
     0
  9
$PUCSORGTOP
 10
0.0
 20
0.0
 30
0.0
  9
$PUCSORGBOTTOM
 10
0.0
 20
0.0
 30
0.0
  9
$PUCSORGLEFT
 10
0.0
 20
0.0
 30
0.0
  9
$PUCSORGRIGHT
 10
0.0
 20
0.0
 30
0.0
  9
$PUCSORGFRONT
 10
0.0
 20
0.0
 30
0.0
  9
$PUCSORGBACK
 10
0.0
 20
0.0
 30
0.0
  9
$USERI1
 70
     0
  9
$USERI2
 70
     0
  9
$USERI3
 70
     0
  9
$USERI4
 70
     0
  9
$USERI5
 70
     0
  9
$USERR1
 40
0.0
  9
$USERR2
 40
0.0
  9
$USERR3
 40
0.0
  9
$USERR4
 40
0.0
  9
$USERR5
 40
0.0
  9
$WORLDVIEW
 70
     1
  9
$SHADEDGE
 70
     3
  9
$SHADEDIF
 70
    70
  9
$TILEMODE
 70
     1
  9
$MAXACTVP
 70
    64
  9
$PINSBASE
 10
0.0
 20
0.0
 30
0.0
  9
$PLIMCHECK
 70
     0
  9
$PEXTMIN
 10
1.000000000000000E+20
 20
1.000000000000000E+20
 30
1.000000000000000E+20
  9
$PEXTMAX
 10
-1.000000000000000E+20
 20
-1.000000000000000E+20
 30
-1.000000000000000E+20
  9
$PLIMMIN
 10
0.0
 20
0.0
  9
$PLIMMAX
 10
12.0
 20
9.0
  9
$UNITMODE
 70
     0
  9
$VISRETAIN
 70
     1
  9
$PLINEGEN
 70
     0
  9
$PSLTSCALE
 70
     1
  9
$TREEDEPTH
 70
  3020
  9
$CMLSTYLE
  2
Standard
  9
$CMLJUST
 70
     0
  9
$CMLSCALE
 40
1.0
  9
$PROXYGRAPHICS
 70
     1
  9
$MEASUREMENT
 70
     1
  9
$CELWEIGHT
370
    -1
  9
$ENDCAPS
280
     0
  9
$JOINSTYLE
280
     0
  9
$LWDISPLAY
290
     0
  9
$INSUNITS
 70
     4
  9
$HYPERLINKBASE
  1

  9
$STYLESHEET
  1

  9
$XEDIT
290
     1
  9
$CEPSNTYPE
380
     0
  9
$PSTYLEMODE
290
     1
  9
$FINGERPRINTGUID
  2
{12F50282-3ED8-11D3-A8B7-0060B0F84BC6}
  9
$VERSIONGUID
  2
{12F50293-3ED8-11D3-A8B7-0060B0F84BC6}
  9
$EXTNAMES
290
     1
  9
$PSVPSCALE
 40
0.0
  9
$OLESTARTUP
290
     0
  9
$SORTENTS
280
   127
  9
$INDEXCTL
280
     0
  9
$HIDETEXT
280
     0
  9
$XCLIPFRAME
280
     2
  9
$HALOGAP
280
     0
  9
$OBSCOLOR
 70
   257
  9
$OBSLTYPE
280
     0
  9
$INTERSECTIONDISPLAY
280
     0
  9
$INTERSECTIONCOLOR
 70
   257
  9
$DIMASSOC
280
     1
  9
$PROJECTNAME
  1

  9
$CAMERADISPLAY
290
     0
  9
$LENSLENGTH
 40
50.0
  9
$CAMERAHEIGHT
 40
0.0
  9
$STEPSPERSEC
 40
2.0
  9
$STEPSIZE
 40
6.0
  9
$3DDWFPREC
 40
2.0
  9
$PSOLWIDTH
 40
0.25
  9
$PSOLHEIGHT
 40
4.0
  9
$LOFTANG1
 40
1.570796326794896
  9
$LOFTANG2
 40
1.570796326794896
  9
$LOFTMAG1
 40
0.0
  9
$LOFTMAG2
 40
0.0
  9
$LOFTPARAM
 70
     7
  9
$LOFTNORMALS
280
     1
  9
$LATITUDE
 40
37.795
  9
$LONGITUDE
 40
-122.394
  9
$NORTHDIRECTION
 40
0.0
  9
$TIMEZONE
 70
 -8000
  9
$LIGHTGLYPHDISPLAY
280
     1
  9
$TILEMODELIGHTSYNCH
280
     1
  9
$CMATERIAL
347
AB
  9
$SOLIDHIST
280
     0
  9
$SHOWHIST
280
     1
  9
$DWFFRAME
280
     2
  9
$DGNFRAME
280
     0
  9
$REALWORLDSCALE
290
     1
  9
$INTERFERECOLOR
 62
     1
  9
$INTERFEREOBJVS
345
CD
  9
$INTERFEREVPVS
346
CA
  9
$CSHADOW
280
     0
  9
$SHADOWPLANELOCATION
 40
0.0
  0
ENDSEC
  0
SECTION
  2
CLASSES
  0
CLASS
  1
ACDBDICTIONARYWDFLT
  2
AcDbDictionaryWithDefault
  3
ObjectDBX Classes
 90
        0
 91
        1
280
     0
281
     0
  0
CLASS
  1
ACDBPLACEHOLDER
  2
AcDbPlaceHolder
  3
ObjectDBX Classes
 90
        0
 91
        2
280
     0
281
     0
  0
CLASS
  1
LAYOUT
  2
AcDbLayout
  3
ObjectDBX Classes
 90
        0
 91
        3
280
     0
281
     0
  0
CLASS
  1
MATERIAL
  2
AcDbMaterial
  3
ObjectDBX Classes
 90
     1153
 91
        3
280
     0
281
     0
  0
CLASS
  1
VISUALSTYLE
  2
AcDbVisualStyle
  3
ObjectDBX Classes
 90
     4095
 91
       24
280
     0
281
     0
  0
CLASS
  1
TABLESTYLE
  2
AcDbTableStyle
  3
ObjectDBX Classes
 90
     4095
 91
        1
280
     0
281
     0
  0
CLASS
  1
SCALE
  2
AcDbScale
  3
ObjectDBX Classes
 90
     1153
 91
       17
280
     0
281
     0
  0
CLASS
  1
MLEADERSTYLE
  2
AcDbMLeaderStyle
  3
ACDB_MLEADERSTYLE_CLASS
 90
     4095
 91
        1
280
     0
281
     0
  0
CLASS
  1
ACDBSECTIONVIEWSTYLE
  2
AcDbSectionViewStyle
  3
ObjectDBX Classes
 90
     1025
 91
        1
280
     0
281
     0
  0
CLASS
  1
ACDBDETAILVIEWSTYLE
  2
AcDbDetailViewStyle
  3
ObjectDBX Classes
 90
     1025
 91
        1
280
     0
281
     0
  0
CLASS
  1
MESH
  2
AcDbSubDMesh
  3
ObjectDBX Classes
 90
        0
 91
        1
280
     0
281
     1
  0
CLASS
  1
DICTIONARYVAR
  2
AcDbDictionaryVar
  3
ObjectDBX Classes
 90
        0
 91
        9
280
     0
281
     0
  0
CLASS
  1
CELLSTYLEMAP
  2
AcDbCellStyleMap
  3
ObjectDBX Classes
 90
     1152
 91
        1
280
     0
281
     0
  0
ENDSEC
  0
SECTION
  2
TABLES
  0
TABLE
  2
VPORT
  5
8
330
0
100
AcDbSymbolTable
 70
     1
  0
VPORT
  5
A8
330
8
100
AcDbSymbolTableRecord
100
AcDbViewportTableRecord
  2
*Active
 70
     0
 10
0.0
 20
0.0
 11
1.0
 21
1.0
 12
0.0000458557769889
 22
-93.91512298583984
 13
0.0
 23
0.0
 14
0.5
 24
0.5
 15
0.5
 25
0.5
 16
-1.0
 26
-1.0
 36
1.0
 17
0.0
 27
0.0
 37
0.0
 40
1343.971439332696
 41
1.435657190375957
 42
50.0
 43
0.0
 44
0.0
 50
0.0
 51
0.0
 71
     0
 72
   100
 73
     1
 74
     3
 75
     0
 76
     0
 77
     0
 78
     0
281
     0
 65
     1
110
0.0
120
0.0
130
0.0
111
1.0
121
0.0
131
0.0
112
0.0
122
1.0
132
0.0
 79
     0
146
0.0
348
C9
 60
     3
 61
     5
292
     1
282
     1
141
0.0
142
0.0
 63
   250
421
  3355443
  0
ENDTAB
  0
TABLE
  2
LTYPE
  5
5
330
0
100
AcDbSymbolTable
 70
     1
  0
LTYPE
  5
14
330
5
100
AcDbSymbolTableRecord
100
AcDbLinetypeTableRecord
  2
ByBlock
 70
     0
  3

 72
    65
 73
     0
 40
0.0
  0
LTYPE
  5
15
330
5
100
AcDbSymbolTableRecord
100
AcDbLinetypeTableRecord
  2
ByLayer
 70
     0
  3

 72
    65
 73
     0
 40
0.0
  0
LTYPE
  5
16
330
5
100
AcDbSymbolTableRecord
100
AcDbLinetypeTableRecord
  2
Continuous
 70
     0
  3
Solid line
 72
    65
 73
     0
 40
0.0
  0
ENDTAB
  0
TABLE
  2
LAYER
  5
2
330
0
100
AcDbSymbolTable
 70
     3
  0
LAYER
  5
10
330
2
100
AcDbSymbolTableRecord
100
AcDbLayerTableRecord
  2
0
 70
     0
 62
     7
  6
Continuous
370
    -3
390
F
347
BB
  0
LAYER
  5
2B
330
2
100
AcDbSymbolTableRecord
100
AcDbLayerTableRecord
  2
ASHADE
 70
     4
 62
     7
  6
Continuous
370
    -3
390
2D
347
BB
  0
LAYER
  5
F8
330
2
100
AcDbSymbolTableRecord
100
AcDbLayerTableRecord
  2
OracDecor_cornice_mouldings
 70
     0
 62
    41
420
 14997145
  6
Continuous
370
    -3
390
F
347
BB
  0
ENDTAB
  0
TABLE
  2
STYLE
  5
3
330
0
100
AcDbSymbolTable
 70
     2
  0
STYLE
  5
11
330
3
100
AcDbSymbolTableRecord
100
AcDbTextStyleTableRecord
  2
Standard
 70
     0
 40
0.0
 41
1.0
 50
0.0
 71
     0
 42
0.2
  3
txt
  4

  0
STYLE
  5
2C
330
3
100
AcDbSymbolTableRecord
100
AcDbTextStyleTableRecord
  2
ASHADE
 70
     0
 40
0.2
 41
1.0
 50
0.0
 71
     0
 42
0.2
  3
simplex
  4

  0
ENDTAB
  0
TABLE
  2
VIEW
  5
6
330
0
100
AcDbSymbolTable
 70
     0
  0
ENDTAB
  0
TABLE
  2
UCS
  5
7
330
0
100
AcDbSymbolTable
 70
     0
  0
ENDTAB
  0
TABLE
  2
APPID
  5
9
330
0
100
AcDbSymbolTable
 70
     6
  0
APPID
  5
12
330
9
100
AcDbSymbolTableRecord
100
AcDbRegAppTableRecord
  2
ACAD
 70
     0
  0
APPID
  5
8F
330
9
100
AcDbSymbolTableRecord
100
AcDbRegAppTableRecord
  2
AVE_RENDER
 70
     0
  0
APPID
  5
90
330
9
100
AcDbSymbolTableRecord
100
AcDbRegAppTableRecord
  2
AVE_ENTITY_MATERIAL
 70
     0
  0
APPID
  5
9C
330
9
100
AcDbSymbolTableRecord
100
AcDbRegAppTableRecord
  2
AVE_FINISH
 70
     0
  0
APPID
  5
9D
330
9
100
AcDbSymbolTableRecord
100
AcDbRegAppTableRecord
  2
AVE_MATERIAL
 70
     0
  0
APPID
  5
9E
330
9
100
AcDbSymbolTableRecord
100
AcDbRegAppTableRecord
  2
AVE_GLOBAL
 70
     0
  0
ENDTAB
  0
TABLE
  2
DIMSTYLE
  5
A
330
0
100
AcDbSymbolTable
 70
     1
100
AcDbDimStyleTable
 71
     0
  0
DIMSTYLE
105
27
330
A
100
AcDbSymbolTableRecord
100
AcDbDimStyleTableRecord
  2
Standard
 70
     0
340
11
  0
ENDTAB
  0
TABLE
  2
BLOCK_RECORD
  5
1
330
0
100
AcDbSymbolTable
 70
     6
  0
BLOCK_RECORD
  5
1F
330
1
100
AcDbSymbolTableRecord
100
AcDbBlockTableRecord
  2
*Model_Space
340
22
 70
     0
280
     1
281
     0
  0
BLOCK_RECORD
  5
1B
330
1
100
AcDbSymbolTableRecord
100
AcDbBlockTableRecord
  2
*Paper_Space
340
1E
 70
     0
280
     1
281
     0
  0
BLOCK_RECORD
  5
23
330
1
100
AcDbSymbolTableRecord
100
AcDbBlockTableRecord
  2
*Paper_Space0
340
26
 70
     0
280
     1
281
     0
  0
BLOCK_RECORD
  5
2E
330
1
100
AcDbSymbolTableRecord
100
AcDbBlockTableRecord
  2
direct
340
0
 70
     0
280
     1
281
     0
  0
BLOCK_RECORD
  5
42
330
1
100
AcDbSymbolTableRecord
100
AcDbBlockTableRecord
  2
overhead
340
0
 70
     0
280
     1
281
     0
  0
BLOCK_RECORD
  5
5F
330
1
100
AcDbSymbolTableRecord
100
AcDbBlockTableRecord
  2
sh_spot
340
0
 70
     0
280
     1
281
     0
  0
BLOCK_RECORD
  5
91
330
1
100
AcDbSymbolTableRecord
100
AcDbBlockTableRecord
  2
AVE_RENDER
340
0
102
{BLKREFS
331
94
331
95
331
96
331
97
331
98
331
99
331
9A
331
9B
102
}
 70
     0
280
     1
281
     0
  0
BLOCK_RECORD
  5
9F
330
1
100
AcDbSymbolTableRecord
100
AcDbBlockTableRecord
  2
AVE_GLOBAL
340
0
102
{BLKREFS
331
A2
102
}
 70
     0
280
     1
281
     0
  0
ENDTAB
  0
ENDSEC
  0
SECTION
  2
BLOCKS
  0
BLOCK
  5
20
330
1F
100
AcDbEntity
  8
0
100
AcDbBlockBegin
  2
*Model_Space
 70
     0
 10
0.0
 20
0.0
 30
0.0
  3
*Model_Space
  1

  0
ENDBLK
  5
21
330
1F
100
AcDbEntity
  8
0
100
AcDbBlockEnd
  0
BLOCK
  5
1C
330
1B
100
AcDbEntity
 67
     1
  8
0
100
AcDbBlockBegin
  2
*Paper_Space
 70
     0
 10
0.0
 20
0.0
 30
0.0
  3
*Paper_Space
  1

  0
ENDBLK
  5
1D
330
1B
100
AcDbEntity
 67
     1
  8
0
100
AcDbBlockEnd
  0
BLOCK
  5
24
330
23
100
AcDbEntity
 67
     1
  8
0
100
AcDbBlockBegin
  2
*Paper_Space0
 70
     0
 10
0.0
 20
0.0
 30
0.0
  3
*Paper_Space0
  1

  0
ENDBLK
  5
25
330
23
100
AcDbEntity
 67
     1
  8
0
100
AcDbBlockEnd
  0
BLOCK
  5
40
330
2E
100
AcDbEntity
  8
0
100
AcDbBlockBegin
  2
direct
 70
     2
 10
0.0
 20
0.0
 30
0.0
  3
direct
  1

  0
ATTDEF
  5
2F
330
2E
100
AcDbEntity
  8
ASHADE
  6
Continuous
 62
     1
100
AcDbText
 10
0.0
 20
-0.1
 30
0.0
 40
0.2
  1

  7
ASHADE
 72
     1
 11
0.0
 21
-0.1
 31
0.0
100
AcDbAttributeDefinition
280
     0
  3
Light Name
  2
SNAME
 70
     0
280
     0
  0
ARC
  5
30
330
2E
100
AcDbEntity
  8
ASHADE
  6
Continuous
 62
     7
100
AcDbCircle
 10
0.0
 20
0.0
 30
0.0
 40
0.3
100
AcDbArc
 50
205.6792886194569
 51
334.3207113805431
  0
ARC
  5
31
330
2E
100
AcDbEntity
  8
ASHADE
  6
Continuous
 62
     7
100
AcDbCircle
 10
0.0
 20
0.0
 30
0.0
 40
0.3
100
AcDbArc
 50
25.67928861945685
 51
154.3207113805431
  0
LINE
  5
32
330
2E
100
AcDbEntity
  8
ASHADE
  6
Continuous
 62
     7
100
AcDbLine
 10
-0.21
 20
0.2142428528562855
 30
0.0
 11
-0.21
 21
0.5
 31
0.0
  0
LINE
  5
33
330
2E
100
AcDbEntity
  8
ASHADE
  6
Continuous
 62
     7
100
AcDbLine
 10
-0.11
 20
0.2791057147390572
 30
0.0
 11
-0.11
 21
0.5
 31
0.0
  0
LINE
  5
34
330
2E
100
AcDbEntity
  8
ASHADE
  6
Continuous
 62
     7
100
AcDbLine
 10
0.21
 20
0.2142428528562855
 30
0.0
 11
0.21
 21
0.5
 31
0.0
  0
ATTDEF
  5
35
330
2E
100
AcDbEntity
  8
ASHADE
  6
Continuous
 62
     7
100
AcDbText
 10
0.0
 20
0.25
 30
0.0
 40
0.01
  1

100
AcDbAttributeDefinition
280
     0
  3
Look-at Y
  2
LAY
 70
     1
280
     0
  0
ATTDEF
  5
36
330
2E
100
AcDbEntity
  8
ASHADE
  6
Continuous
 62
     7
100
AcDbText
 10
0.0
 20
0.22
 30
0.0
 40
0.01
  1
1
100
AcDbAttributeDefinition
280
     0
  3
Light Intensity
  2
INTENSITY
 70
     1
280
     0
  0
ATTDEF
  5
37
330
2E
100
AcDbEntity
  8
ASHADE
  6
Continuous
 62
     7
100
AcDbText
 10
0.0
 20
0.16
 30
0.0
 40
0.01
  1
-1
100
AcDbAttributeDefinition
280
     0
  3
*not used*
  2
BEAMD
 70
     1
280
     0
  0
ATTDEF
  5
38
330
2E
100
AcDbEntity
  8
ASHADE
  6
Continuous
 62
     7
100
AcDbText
 10
0.0
 20
0.175
 30
0.0
 40
0.01
  1
-1
100
AcDbAttributeDefinition
280
     0
  3
*not used*
  2
CONED
 70
     1
280
     0
  0
ATTDEF
  5
39
330
2E
100
AcDbEntity
  8
ASHADE
  6
Continuous
 62
     7
100
AcDbText
 10
0.0
 20
0.19
 30
0.0
 40
0.01
  1
0
100
AcDbAttributeDefinition
280
     0
  3
Depth Map Size
  2
CONEA
 70
     1
280
     0
  0
ATTDEF
  5
3A
330
2E
100
AcDbEntity
  8
ASHADE
  6
Continuous
 62
     7
100
AcDbText
 10
0.0
 20
0.2050000000000001
 30
0.0
 40
0.01
  1
1,1,1
100
AcDbAttributeDefinition
280
     0
  3
Light Color (RGB)
  2
COLOR
 70
     1
280
     0
  0
ATTDEF
  5
3B
330
2E
100
AcDbEntity
  8
ASHADE
  6
Continuous
 62
     7
100
AcDbText
 10
0.0
 20
0.235
 30
0.0
 40
0.01
  1

100
AcDbAttributeDefinition
280
     0
  3
Look-at Z
  2
LAZ
 70
     1
280
     0
  0
LINE
  5
3C
330
2E
100
AcDbEntity
  8
ASHADE
  6
Continuous
 62
     7
100
AcDbLine
 10
0.0
 20
0.3
 30
0.0
 11
0.0
 21
0.5
 31
0.0
  0
LINE
  5
3D
330
2E
100
AcDbEntity
  8
ASHADE
  6
Continuous
 62
     7
100
AcDbLine
 10
0.11
 20
0.2791057147390572
 30
0.0
 11
0.11
 21
0.5
 31
0.0
  0
ATTDEF
  5
3E
330
2E
100
AcDbEntity
  8
ASHADE
  6
Continuous
 62
     7
100
AcDbText
 10
0.0
 20
0.265
 30
0.0
 40
0.01
  1

100
AcDbAttributeDefinition
280
     0
  3
Look-at X
  2
LAX
 70
     1
280
     0
  0
ATTDEF
  5
3F
330
2E
100
AcDbEntity
  8
ASHADE
  6
Continuous
 62
     7
100
AcDbText
 10
0.0
 20
0.28
 30
0.0
 40
0.01
  1

100
AcDbAttributeDefinition
280
     0
  3

  2
GNAME
 70
     1
280
     0
  0
ENDBLK
  5
41
330
2E
100
AcDbEntity
  8
0
100
AcDbBlockEnd
  0
BLOCK
  5
5D
330
42
100
AcDbEntity
  8
0
100
AcDbBlockBegin
  2
overhead
 70
     2
 10
0.0
 20
0.0
 30
0.0
  3
overhead
  1

  0
ATTDEF
  5
43
330
42
100
AcDbEntity
  8
ASHADE
  6
Continuous
 62
     1
100
AcDbText
 10
0.0
 20
-0.1
 30
0.0
 40
0.2
  1

  7
ASHADE
 72
     1
 11
0.0
 21
-0.1
 31
0.0
100
AcDbAttributeDefinition
280
     0
  3
Light Name
  2
SNAME
 70
     0
280
     0
  0
ARC
  5
44
330
42
100
AcDbEntity
  8
ASHADE
  6
Continuous
 62
     7
100
AcDbCircle
 10
0.0
 20
0.0
 30
0.0
 40
0.3
100
AcDbArc
 50
205.6792886194569
 51
334.3207113805431
  0
LINE
  5
45
330
42
100
AcDbEntity
  8
ASHADE
  6
Continuous
 62
     7
100
AcDbLine
 10
-0.2041413561583015
 20
-0.2198324514393848
 30
0.0
 11
-0.2721884748777353
 21
-0.2931099352525131
 31
0.0
  0
LINE
  5
46
330
42
100
AcDbEntity
  8
ASHADE
  6
Continuous
 62
     7
100
AcDbLine
 10
-0.1096591641591904
 20
-0.2792398032442862
 30
0.0
 11
-0.1279356915190555
 21
-0.3257797704516673
 31
0.0
  0
LINE
  5
47
330
42
100
AcDbEntity
  8
ASHADE
  6
Continuous
 62
     7
100
AcDbLine
 10
0.0
 20
-0.2999999999999999
 30
0.0
 11
0.0
 21
-0.4
 31
0.0
  0
LINE
  5
48
330
42
100
AcDbEntity
  8
ASHADE
  6
Continuous
 62
     7
100
AcDbLine
 10
0.1096591641591904
 20
-0.2792398032442862
 30
0.0
 11
0.1279356915190555
 21
-0.3257797704516673
 31
0.0
  0
LINE
  5
49
330
42
100
AcDbEntity
  8
ASHADE
  6
Continuous
 62
     7
100
AcDbLine
 10
0.2041413561583015
 20
-0.2198324514393848
 30
0.0
 11
0.2721884748777353
 21
-0.2931099352525131
 31
0.0
  0
ARC
  5
4A
330
42
100
AcDbEntity
  8
ASHADE
  6
Continuous
 62
     7
100
AcDbCircle
 10
0.0
 20
0.0
 30
0.0
 40
0.3
100
AcDbArc
 50
25.67928861945685
 51
154.3207113805431
  0
LINE
  5
4B
330
42
100
AcDbEntity
  8
ASHADE
  6
Continuous
 62
     7
100
AcDbLine
 10
-0.2703701166919155
 20
0.13
 30
0.0
 11
-0.3154318028072347
 21
0.1516666666666666
 31
0.0
  0
LINE
  5
4C
330
42
100
AcDbEntity
  8
ASHADE
  6
Continuous
 62
     7
100
AcDbLine
 10
-0.2703701166919155
 20
-0.13
 30
0.0
 11
-0.3154318028072347
 21
-0.1516666666666666
 31
0.0
  0
LINE
  5
4D
330
42
100
AcDbEntity
  8
ASHADE
  6
Continuous
 62
     7
100
AcDbLine
 10
-0.2041413561583015
 20
0.2198324514393849
 30
0.0
 11
-0.2721884748777353
 21
0.2931099352525131
 31
0.0
  0
LINE
  5
4E
330
42
100
AcDbEntity
  8
ASHADE
  6
Continuous
 62
     7
100
AcDbLine
 10
-0.1096591641591904
 20
0.2792398032442862
 30
0.0
 11
-0.1279356915190555
 21
0.3257797704516674
 31
0.0
  0
LINE
  5
4F
330
42
100
AcDbEntity
  8
ASHADE
  6
Continuous
 62
     7
100
AcDbLine
 10
0.2703701166919155
 20
-0.13
 30
0.0
 11
0.3154318028072347
 21
-0.1516666666666666
 31
0.0
  0
LINE
  5
50
330
42
100
AcDbEntity
  8
ASHADE
  6
Continuous
 62
     7
100
AcDbLine
 10
0.2703701166919155
 20
0.13
 30
0.0
 11
0.3154318028072347
 21
0.1516666666666666
 31
0.0
  0
LINE
  5
51
330
42
100
AcDbEntity
  8
ASHADE
  6
Continuous
 62
     7
100
AcDbLine
 10
0.0
 20
0.3
 30
0.0
 11
0.0
 21
0.4
 31
0.0
  0
ATTDEF
  5
52
330
42
100
AcDbEntity
  8
ASHADE
  6
Continuous
 62
     7
100
AcDbText
 10
0.0
 20
0.22
 30
0.0
 40
0.01
  1
1
100
AcDbAttributeDefinition
280
     0
  3
Light Intensity
  2
INTENSITY
 70
     1
280
     0
  0
ATTDEF
  5
53
330
42
100
AcDbEntity
  8
ASHADE
  6
Continuous
 62
     7
100
AcDbText
 10
0.0
 20
0.16
 30
0.0
 40
0.01
  1
-1
100
AcDbAttributeDefinition
280
     0
  3
*not used*
  2
BEAMD
 70
     1
280
     0
  0
ATTDEF
  5
54
330
42
100
AcDbEntity
  8
ASHADE
  6
Continuous
 62
     7
100
AcDbText
 10
0.0
 20
0.175
 30
0.0
 40
0.01
  1
-1
100
AcDbAttributeDefinition
280
     0
  3
*not used*
  2
CONED
 70
     1
280
     0
  0
ATTDEF
  5
55
330
42
100
AcDbEntity
  8
ASHADE
  6
Continuous
 62
     7
100
AcDbText
 10
0.0
 20
0.19
 30
0.0
 40
0.01
  1
0
100
AcDbAttributeDefinition
280
     0
  3
Depth Map Size
  2
CONEA
 70
     1
280
     0
  0
ATTDEF
  5
56
330
42
100
AcDbEntity
  8
ASHADE
  6
Continuous
 62
     7
100
AcDbText
 10
0.0
 20
0.2050000000000001
 30
0.0
 40
0.01
  1
1,1,1
100
AcDbAttributeDefinition
280
     0
  3
Light Color (RGB)
  2
COLOR
 70
     1
280
     0
  0
ATTDEF
  5
57
330
42
100
AcDbEntity
  8
ASHADE
  6
Continuous
 62
     7
100
AcDbText
 10
0.0
 20
0.235
 30
0.0
 40
0.01
  1

100
AcDbAttributeDefinition
280
     0
  3
Look-at Z
  2
LAZ
 70
     1
280
     0
  0
ATTDEF
  5
58
330
42
100
AcDbEntity
  8
ASHADE
  6
Continuous
 62
     7
100
AcDbText
 10
0.0
 20
0.25
 30
0.0
 40
0.01
  1

100
AcDbAttributeDefinition
280
     0
  3
Look-at Y
  2
LAY
 70
     1
280
     0
  0
ATTDEF
  5
59
330
42
100
AcDbEntity
  8
ASHADE
  6
Continuous
 62
     7
100
AcDbText
 10
0.0
 20
0.265
 30
0.0
 40
0.01
  1

100
AcDbAttributeDefinition
280
     0
  3
Look-at X
  2
LAX
 70
     1
280
     0
  0
ATTDEF
  5
5A
330
42
100
AcDbEntity
  8
ASHADE
  6
Continuous
 62
     7
100
AcDbText
 10
0.0
 20
0.28
 30
0.0
 40
0.01
  1

100
AcDbAttributeDefinition
280
     0
  3

  2
GNAME
 70
     1
280
     0
  0
LINE
  5
5B
330
42
100
AcDbEntity
  8
ASHADE
  6
Continuous
 62
     7
100
AcDbLine
 10
0.1096591641591904
 20
0.2792398032442862
 30
0.0
 11
0.1279356915190555
 21
0.3257797704516674
 31
0.0
  0
LINE
  5
5C
330
42
100
AcDbEntity
  8
ASHADE
  6
Continuous
 62
     7
100
AcDbLine
 10
0.2041413561583015
 20
0.2198324514393849
 30
0.0
 11
0.2721884748777353
 21
0.2931099352525131
 31
0.0
  0
ENDBLK
  5
5E
330
42
100
AcDbEntity
  8
0
100
AcDbBlockEnd
  0
BLOCK
  5
85
330
5F
100
AcDbEntity
  8
0
100
AcDbBlockBegin
  2
sh_spot
 70
     2
 10
0.0
 20
0.0
 30
0.0
  3
sh_spot
  1

  0
LINE
  5
60
330
5F
100
AcDbEntity
  8
ASHADE
  6
Continuous
 62
     7
100
AcDbLine
 10
0.25
 20
0.26
 30
0.0
 11
-0.25
 21
0.26
 31
0.0
  0
LINE
  5
61
330
5F
100
AcDbEntity
  8
ASHADE
  6
Continuous
 62
     7
100
AcDbLine
 10
-0.25
 20
-0.3399999999999999
 30
0.0
 11
0.25
 21
-0.3399999999999999
 31
0.0
  0
ATTDEF
  5
62
330
5F
100
AcDbEntity
  8
ASHADE
  6
Continuous
 62
     1
100
AcDbText
 10
0.0
 20
-0.1
 30
0.0
 40
0.2
  1

  7
ASHADE
 72
     1
 11
0.0
 21
-0.1
 31
0.0
100
AcDbAttributeDefinition
280
     0
  3
Light Name
  2
SNAME
 70
     0
280
     0
  0
LINE
  5
63
330
5F
100
AcDbEntity
  8
ASHADE
  6
Continuous
 62
     7
100
AcDbLine
 10
-0.25
 20
-0.13
 30
0.0
 11
-0.25
 21
-0.3399999999999999
 31
0.0
  0
LINE
  5
64
330
5F
100
AcDbEntity
  8
ASHADE
  6
Continuous
 62
     7
100
AcDbLine
 10
-0.25
 20
-0.18
 30
0.0
 11
-0.29
 21
-0.18
 31
0.0
  0
LINE
  5
65
330
5F
100
AcDbEntity
  8
ASHADE
  6
Continuous
 62
     7
100
AcDbLine
 10
-0.29
 20
-0.22
 30
0.0
 11
-0.25
 21
-0.22
 31
0.0
  0
LINE
  5
66
330
5F
100
AcDbEntity
  8
ASHADE
  6
Continuous
 62
     7
100
AcDbLine
 10
-0.29
 20
-0.18
 30
0.0
 11
-0.29
 21
-0.22
 31
0.0
  0
LINE
  5
67
330
5F
100
AcDbEntity
  8
ASHADE
  6
Continuous
 62
     7
100
AcDbLine
 10
-0.1045454545454545
 20
0.26
 30
0.0
 11
-0.15
 21
0.46
 31
0.0
  0
LINE
  5
68
330
5F
100
AcDbEntity
  8
ASHADE
  6
Continuous
 62
     7
100
AcDbLine
 10
-0.21
 20
0.26
 30
0.0
 11
-0.301304347826087
 21
0.46
 31
0.0
  0
LINE
  5
69
330
5F
100
AcDbEntity
  8
ASHADE
  6
Continuous
 62
     7
100
AcDbLine
 10
-0.25
 20
0.26
 30
0.0
 11
-0.25
 21
0.13
 31
0.0
  0
LINE
  5
6A
330
5F
100
AcDbEntity
  8
ASHADE
  6
Continuous
 62
     7
100
AcDbLine
 10
-0.25
 20
0.22
 30
0.0
 11
-0.29
 21
0.22
 31
0.0
  0
LINE
  5
6B
330
5F
100
AcDbEntity
  8
ASHADE
  6
Continuous
 62
     7
100
AcDbLine
 10
-0.29
 20
0.1799999999999999
 30
0.0
 11
-0.25
 21
0.1799999999999999
 31
0.0
  0
LINE
  5
6C
330
5F
100
AcDbEntity
  8
ASHADE
  6
Continuous
 62
     7
100
AcDbLine
 10
-0.29
 20
0.22
 30
0.0
 11
-0.29
 21
0.1799999999999999
 31
0.0
  0
ATTDEF
  5
6D
330
5F
100
AcDbEntity
  8
ASHADE
  6
Continuous
 62
     7
100
AcDbText
 10
0.0
 20
-0.24
 30
0.0
 40
0.01
  1
0
100
AcDbAttributeDefinition
280
     0
  3
Depth Map Size
  2
ZSIZE
 70
     1
280
     0
  0
ATTDEF
  5
6E
330
5F
100
AcDbEntity
  8
ASHADE
  6
Continuous
 62
     7
100
AcDbText
 10
0.0
 20
-0.3300000000000001
 30
0.0
 40
0.01
  1
0,0,0
100
AcDbAttributeDefinition
280
     0
  3
Look-from XYZ
  2
LFXYZ
 70
     1
280
     0
  0
ATTDEF
  5
6F
330
5F
100
AcDbEntity
  8
ASHADE
  6
Continuous
 62
     7
100
AcDbText
 10
0.0
 20
-0.315
 30
0.0
 40
0.01
  1
0.0
100
AcDbAttributeDefinition
280
     0
  3
Beam Distribution
  2
BEAMDI
 70
     1
280
     0
  0
ATTDEF
  5
70
330
5F
100
AcDbEntity
  8
ASHADE
  6
Continuous
 62
     7
100
AcDbText
 10
0.0
 20
-0.3
 30
0.0
 40
0.01
  1
0.0
100
AcDbAttributeDefinition
280
     0
  3
Cone Delta
  2
CONEDE
 70
     1
280
     0
  0
ATTDEF
  5
71
330
5F
100
AcDbEntity
  8
ASHADE
  6
Continuous
 62
     7
100
AcDbText
 10
0.0
 20
-0.2850000000000001
 30
0.0
 40
0.01
  1
10.0
100
AcDbAttributeDefinition
280
     0
  3
Cone Angle
  2
CONEAN
 70
     1
280
     0
  0
ATTDEF
  5
72
330
5F
100
AcDbEntity
  8
ASHADE
  6
Continuous
 62
     7
100
AcDbText
 10
0.0
 20
-0.27
 30
0.0
 40
0.01
  1
-1
100
AcDbAttributeDefinition
280
     0
  3
*not used*
  2
BIASMAX
 70
     1
280
     0
  0
ATTDEF
  5
73
330
5F
100
AcDbEntity
  8
ASHADE
  6
Continuous
 62
     7
100
AcDbText
 10
0.0
 20
-0.255
 30
0.0
 40
0.01
  1
-1
100
AcDbAttributeDefinition
280
     0
  3
*not used*
  2
BIASMIN
 70
     1
280
     0
  0
ATTDEF
  5
74
330
5F
100
AcDbEntity
  8
ASHADE
  6
Continuous
 62
     7
100
AcDbText
 10
0.0
 20
-0.225
 30
0.0
 40
0.01
  1
1,1,1
100
AcDbAttributeDefinition
280
     0
  3
Light Color (RGB)
  2
COLOR
 70
     1
280
     0
  0
ATTDEF
  5
75
330
5F
100
AcDbEntity
  8
ASHADE
  6
Continuous
 62
     7
100
AcDbText
 10
0.0
 20
-0.21
 30
0.0
 40
0.01
  1
1
100
AcDbAttributeDefinition
280
     0
  3
Light Intensity
  2
INTENSITY
 70
     1
280
     0
  0
ATTDEF
  5
76
330
5F
100
AcDbEntity
  8
ASHADE
  6
Continuous
 62
     7
100
AcDbText
 10
0.0
 20
-0.15
 30
0.0
 40
0.01
  1

100
AcDbAttributeDefinition
280
     0
  3

  2
GNAME
 70
     1
280
     0
  0
ATTDEF
  5
77
330
5F
100
AcDbEntity
  8
ASHADE
  6
Continuous
 62
     7
100
AcDbText
 10
0.0
 20
-0.195
 30
0.0
 40
0.01
  1

100
AcDbAttributeDefinition
280
     0
  3
Look-at Z
  2
LAZ
 70
     1
280
     0
  0
ATTDEF
  5
78
330
5F
100
AcDbEntity
  8
ASHADE
  6
Continuous
 62
     7
100
AcDbText
 10
0.0
 20
-0.18
 30
0.0
 40
0.01
  1

100
AcDbAttributeDefinition
280
     0
  3
Look-at Y
  2
LAY
 70
     1
280
     0
  0
ATTDEF
  5
79
330
5F
100
AcDbEntity
  8
ASHADE
  6
Continuous
 62
     7
100
AcDbText
 10
0.0
 20
-0.165
 30
0.0
 40
0.01
  1

100
AcDbAttributeDefinition
280
     0
  3
Look-at X
  2
LAX
 70
     1
280
     0
  0
LINE
  5
7A
330
5F
100
AcDbEntity
  8
ASHADE
  6
Continuous
 62
     7
100
AcDbLine
 10
0.25
 20
-0.3399999999999999
 30
0.0
 11
0.25
 21
-0.13
 31
0.0
  0
LINE
  5
7B
330
5F
100
AcDbEntity
  8
ASHADE
  6
Continuous
 62
     7
100
AcDbLine
 10
0.25
 20
-0.18
 30
0.0
 11
0.29
 21
-0.18
 31
0.0
  0
LINE
  5
7C
330
5F
100
AcDbEntity
  8
ASHADE
  6
Continuous
 62
     7
100
AcDbLine
 10
0.29
 20
-0.22
 30
0.0
 11
0.25
 21
-0.22
 31
0.0
  0
LINE
  5
7D
330
5F
100
AcDbEntity
  8
ASHADE
  6
Continuous
 62
     7
100
AcDbLine
 10
0.29
 20
-0.18
 30
0.0
 11
0.29
 21
-0.22
 31
0.0
  0
LINE
  5
7E
330
5F
100
AcDbEntity
  8
ASHADE
  6
Continuous
 62
     7
100
AcDbLine
 10
0.21
 20
0.26
 30
0.0
 11
0.301304347826087
 21
0.46
 31
0.0
  0
LINE
  5
7F
330
5F
100
AcDbEntity
  8
ASHADE
  6
Continuous
 62
     7
100
AcDbLine
 10
0.1045454545454545
 20
0.26
 30
0.0
 11
0.15
 21
0.46
 31
0.0
  0
LINE
  5
80
330
5F
100
AcDbEntity
  8
ASHADE
  6
Continuous
 62
     7
100
AcDbLine
 10
0.0
 20
0.26
 30
0.0
 11
0.0
 21
0.46
 31
0.0
  0
LINE
  5
81
330
5F
100
AcDbEntity
  8
ASHADE
  6
Continuous
 62
     7
100
AcDbLine
 10
0.25
 20
0.13
 30
0.0
 11
0.25
 21
0.26
 31
0.0
  0
LINE
  5
82
330
5F
100
AcDbEntity
  8
ASHADE
  6
Continuous
 62
     7
100
AcDbLine
 10
0.25
 20
0.22
 30
0.0
 11
0.29
 21
0.22
 31
0.0
  0
LINE
  5
83
330
5F
100
AcDbEntity
  8
ASHADE
  6
Continuous
 62
     7
100
AcDbLine
 10
0.29
 20
0.1799999999999999
 30
0.0
 11
0.25
 21
0.1799999999999999
 31
0.0
  0
LINE
  5
84
330
5F
100
AcDbEntity
  8
ASHADE
  6
Continuous
 62
     7
100
AcDbLine
 10
0.29
 20
0.22
 30
0.0
 11
0.29
 21
0.1799999999999999
 31
0.0
  0
ENDBLK
  5
86
330
5F
100
AcDbEntity
  8
0
100
AcDbBlockEnd
  0
BLOCK
  5
92
330
91
100
AcDbEntity
  8
ASHADE
100
AcDbBlockBegin
  2
AVE_RENDER
 70
     0
 10
0.0
 20
0.0
 30
0.0
  3
AVE_RENDER
  1
AVE_RENDER
  0
ENDBLK
  5
93
330
91
100
AcDbEntity
  8
0
100
AcDbBlockEnd
  0
BLOCK
  5
A0
330
9F
100
AcDbEntity
  8
ASHADE
100
AcDbBlockBegin
  2
AVE_GLOBAL
 70
     0
 10
0.0
 20
0.0
 30
0.0
  3
AVE_GLOBAL
  1
AVE_GLOBAL
  0
ENDBLK
  5
A1
330
9F
100
AcDbEntity
  8
0
100
AcDbBlockEnd
  0
ENDSEC
  0
SECTION
  2
ENTITIES
  0
INSERT
  5
94
330
1F
100
AcDbEntity
  8
ASHADE
 62
     1
100
AcDbBlockReference
  2
AVE_RENDER
 10
0.0
 20
0.0
 30
0.0
1001
AVE_RENDER
1002
{
1070
     7
1000
Pref
1070
    30
1070
    20
1070
     1
1070
     0
1000

1070
    10
1070
     1
1070
    10
1040
1.0
1070
     1
1040
0.3
1040
0.7
1040
0.0
1040
10.0
1010
-1.0
1020
-1.0
1030
-1.0
1040
0.3
1070
    49
1070
     0
1070
     0
1010
1.0
1020
1.0
1030
1.0
1040
45.0
1070
     1
1070
     0
1000
WCS
1040
0.0
1070
     0
1040
10.0
1002
}
  0
INSERT
  5
95
330
1F
100
AcDbEntity
  8
ASHADE
 62
     3
100
AcDbBlockReference
  2
AVE_RENDER
 10
0.0
 20
0.0
 30
0.0
1001
AVE_RENDER
1002
{
1070
     0
1000
Full Opt
1070
     0
1070
     1
1070
     1
1070
     1
1070
     0
1070
     0
1070
     0
1070
     1
1070
     1
1040
0.0001
1040
0.0001
1002
}
  0
INSERT
  5
96
330
1F
100
AcDbEntity
  8
ASHADE
 62
     4
100
AcDbBlockReference
  2
AVE_RENDER
 10
0.0
 20
0.0
 30
0.0
1001
AVE_RENDER
1002
{
1070
     0
1000
Quick Opt
1070
     0
1070
     1
1070
     1
1070
     1
1070
     0
1070
     0
1070
     1
1002
}
  0
INSERT
  5
97
330
1F
100
AcDbEntity
  8
ASHADE
 62
     5
100
AcDbBlockReference
  2
AVE_RENDER
 10
0.0
 20
0.0
 30
0.0
1001
AVE_RENDER
1002
{
1070
     1
1000
Scanl Opt
1070
     2
1070
     0
1070
     2
1040
2.0
1040
4.0
1070
     0
1070
     1
1070
     0
1040
0.03
1002
}
  0
INSERT
  5
98
330
1F
100
AcDbEntity
  8
ASHADE
 62
     6
100
AcDbBlockReference
  2
AVE_RENDER
 10
0.0
 20
0.0
 30
0.0
1001
AVE_RENDER
1002
{
1070
     2
1000
Raytr Opt
1070
     2
1070
     0
1070
     2
1040
2.0
1040
4.0
1070
     0
1070
     1
1070
     1
1040
0.03
1070
     3
1040
0.03
1002
}
  0
INSERT
  5
99
330
1F
100
AcDbEntity
  8
ASHADE
 62
     7
100
AcDbBlockReference
  2
AVE_RENDER
 10
0.0
 20
0.0
 30
0.0
1001
AVE_RENDER
1002
{
1070
     0
1000
RFile Opt
1070
     1
1070
   640
1070
   480
1070
 10000
1070
     1
1070
     8
1070
     8
1070
     0
1070
     0
1070
     0
1070
     0
1070
     0
1070
     0
1070
     0
1002
}
  0
INSERT
  5
9A
330
1F
100
AcDbEntity
  8
ASHADE
 62
     8
100
AcDbBlockReference
  2
AVE_RENDER
 10
0.0
 20
0.0
 30
0.0
1001
AVE_RENDER
1002
{
1070
     0
1000
Fog Opt
1070
     0
1070
     0
1040
0.0
1040
1.0
1040
0.0
1040
1.0
1010
0.5
1020
0.5
1030
0.5
1002
}
  0
INSERT
  5
9B
330
1F
100
AcDbEntity
  8
ASHADE
 62
     9
100
AcDbBlockReference
  2
AVE_RENDER
 10
0.0
 20
0.0
 30
0.0
1001
AVE_RENDER
1002
{
1070
     0
1000
BG Opt
1070
     0
1070
     1
1010
0.0
1020
0.0
1030
0.0
1010
1.0
1020
0.0
1030
0.0
1010
0.0
1020
1.0
1030
0.0
1010
0.0
1020
0.0
1030
1.0
1040
0.5
1040
0.33
1040
0.0
1000

1070
     1
1000

1070
     1
1070
     1
1040
1.0
1040
1.0
1040
0.0
1040
0.0
1070
     0
1002
}
  0
INSERT
  5
A2
330
1F
100
AcDbEntity
  8
ASHADE
 62
     1
100
AcDbBlockReference
  2
AVE_GLOBAL
 10
0.0
 20
0.0
 30
0.0
1001
AVE_MATERIAL
1002
{
1000
*GLOBAL*
1000
2
1000
Global finish.
1002
{
1002
}
1002
{
1070
    63
1002
{
1002
{
1010
-1.0
1020
-1.0
1030
-1.0
1002
}
1040
0.1000000014901161
1000

1040
0.0
1002
{
1002
}
1040
0.0
1002
{
1002
}
1040
0.0
1002
}
1002
{
1002
{
1010
-1.0
1020
-1.0
1030
-1.0
1002
}
1040
0.6999999880790711
1000

1040
0.0
1002
{
1002
}
1040
0.0
1002
{
1002
}
1040
0.0
1002
}
1002
{
1002
{
1010
-1.0
1020
-1.0
1030
-1.0
1002
}
1040
0.2000000029802322
1000

1040
0.0
1002
{
1002
}
1040
0.0
1002
{
1002
}
1040
0.0
1002
}
1002
{
1070
     0
1002
{
1070
     1
1002
{
1040
1.0
1040
1.0
1000

1040
0.0
1002
{
1002
}
1040
0.0
1002
{
1002
}
1040
0.0
1002
}
1002
}
1040
1.0
1040
0.0
1040
0.0
1002
}
1002
{
1040
1.0
1040
1.0
1000

1040
0.0
1002
{
1002
}
1040
0.0
1002
{
1002
}
1040
0.0
1002
}
1002
{
1040
0.5
1040
1.0
1000

1040
0.0
1002
{
1002
}
1040
0.0
1002
{
1002
}
1040
0.0
1002
}
1002
{
1070
     0
1040
0.0
1002
{
1002
}
1040
1.0
1002
{
1002
}
1040
0.0
1002
}
1002
{
1040
0.0
1002
{
1002
{
1010
0.0
1020
0.0
1030
0.0
1002
}
1040
1.0
1000

1040
0.0
1002
{
1002
}
1040
0.0
1002
{
1002
}
1040
0.0
1002
}
1002
}
1002
{
1002
{
1070
     1
1002
{
1040
0.0
1040
1.0
1000

1040
0.0
1002
{
1002
}
1040
0.0
1002
{
1002
}
1040
0.0
1002
}
1002
}
1040
0.0
1002
{
1002
}
1010
1.0
1020
0.0
1030
0.0
1010
0.0
1020
1.0
1030
0.0
1010
0.0
1020
0.0
1030
1.0
1070
     0
1002
}
1002
{
1002
{
1040
1.0
1040
1.0
1002
{
1070
     1
1002
{
1040
1.0
1040
1.0
1000

1040
0.0
1002
{
1002
}
1040
0.0
1002
{
1002
}
1040
0.0
1002
}
1002
}
1002
}
1070
     0
1040
0.0
1002
{
1002
}
1002
}
1002
{
1002
}
1002
}
1002
{
1071
        3
1070
     3
1070
     0
1002
{
1070
     2
1070
     0
1070
     0
1040
0.0
1002
}
1070
     0
1070
     2
1002
{
1002
}
1002
}
1002
{
1040
8030.0
1040
190.3000030517578
1040
0.3050000071525574
1040
228.0
1040
545.0
1040
14.0
1040
17.39999961853027
1040
0.4560000002384186
1002
}
1002
}
  0
MESH
  5
F9
330
1F
100
AcDbEntity
  8
OracDecor_cornice_mouldings
 62
   114
420
  1814872
160
             40760
310
389F00006C0400000C00000013000000020000003C00000006000000020000000000000000408FC0000000C08C5A5AC000000000000E9FBF0000000000408FC000000080217F5CC000000000008A9EBF0C000000130000000A0000003C00000006000000020000000000000000408FC000000080217F5CC000000000008A9E
310
BF000000E0FF3F8F40000000A0247F5CC000000000008C9EBF0C00000013000000120000003C0000000600000002000000000000E0FF3F8F4000000000905A5AC000000000000E9FBF000000E0FF3F8F40000000A0247F5CC000000000008C9EBF0C000000130000001A0000003C0000000600000002000000000000000040
310
8FC0000000C08C5A5AC000000000000E9FBF000000E0FF3F8F4000000000905A5AC000000000000E9FBF0C00000013000000220000003C00000006000000020000000000000000408FC0000000A02B7F5CC000000000E46D25C00000000000408FC000000080217F5CC000000000008A9EBF0C000000130000002A0000003C
310
00000006000000020000000000000000408FC0000000A02B7F5CC000000000E46D25C0000000E0FF3F8F40000000C02E7F5CC000000000E36D25C00C00000013000000320000003C0000000600000002000000000000E0FF3F8F40000000C02E7F5CC000000000E36D25C0000000E0FF3F8F40000000A0247F5CC000000000
310
008C9EBF0C000000130000003A0000003C00000006000000020000000000000000408FC0000000A02B7F5CC000000000E46D25C00000000000408FC0000000003A2A5AC0000000002C6E25C00C00000013000000420000003C0000000600000002000000000000E0FF3F8F40000000403D2A5AC0000000002B6E25C0000000
310
0000408FC0000000003A2A5AC0000000002C6E25C00C000000130000004A0000003C0000000600000002000000000000E0FF3F8F40000000C02E7F5CC000000000E36D25C0000000E0FF3F8F40000000403D2A5AC0000000002B6E25C00C00000013000000520000003C00000006000000020000000000000000408FC00000
310
00003A2A5AC0000000002C6E25C00000000000408FC000000000412A5AC000000000A0D631C00C000000130000005A0000003C0000000600000002000000000000E0FF3F8F4000000020442A5AC000000000A0D631C00000000000408FC000000000412A5AC000000000A0D631C00C00000013000000620000003C00000006
310
00000002000000000000E0FF3F8F40000000403D2A5AC0000000002B6E25C0000000E0FF3F8F4000000020442A5AC000000000A0D631C00C000000130000006A0000003C00000006000000020000000000000000408FC000000000412A5AC000000000A0D631C00000000000408FC0000000C0FB9257C000000080C7D631C0
310
0C00000013000000720000003C0000000600000002000000000000E0FF3F8F4000000000FF9257C000000080C7D631C00000000000408FC0000000C0FB9257C000000080C7D631C00C000000130000007A0000003C0000000600000002000000000000E0FF3F8F4000000020442A5AC000000000A0D631C0000000E0FF3F8F
310
4000000000FF9257C000000080C7D631C00C00000013000000820000003C00000006000000020000000000000000408FC0000000C0FB9257C000000080C7D631C00000000000408FC0000000004A7356C000000000883632C00C000000130000008A0000003C00000006000000020000000000000000408FC0000000004A73
310
56C000000000883632C0000000E0FF3F8F40000000404D7356C000000000883632C00C00000013000000920000003C0000000600000002000000000000E0FF3F8F4000000000FF9257C000000080C7D631C0000000E0FF3F8F40000000404D7356C000000000883632C00C000000130000009A0000003C0000000600000002
310
0000000000000000408FC0000000A0318055C000000080A74B33C00000000000408FC0000000004A7356C000000000883632C00C00000013000000A20000003C00000006000000020000000000000000408FC0000000A0318055C000000080A74B33C0000000E0FF3F8F40000000C0348055C000000080A74B33C00C000000
310
13000000AA0000003C0000000600000002000000000000E0FF3F8F40000000404D7356C000000000883632C0000000E0FF3F8F40000000C0348055C000000080A74B33C00C00000013000000B20000003C00000006000000020000000000000000408FC00000008024B654C0000000802C0935C00000000000408FC0000000
310
A0318055C000000080A74B33C00C00000013000000BA0000003C00000006000000020000000000000000408FC00000008024B654C0000000802C0935C0000000E0FF3F8F40000000A027B654C0000000802C0935C00C00000013000000C20000003C0000000600000002000000000000E0FF3F8F40000000C0348055C00000
310
0080A74B33C0000000E0FF3F8F40000000A027B654C0000000802C0935C00C00000013000000CA0000003C00000006000000020000000000000000408FC0000000C0310C54C000000080718037C00000000000408FC00000008024B654C0000000802C0935C00C00000013000000D20000003C000000060000000200000000
310
00000000408FC0000000C0310C54C000000080718037C0000000E0FF3F8F40000000E0340C54C000000080718037C00C00000013000000DA0000003C0000000600000002000000000000E0FF3F8F40000000A027B654C0000000802C0935C0000000E0FF3F8F40000000E0340C54C000000080718037C00C00000013000000
310
E20000003C00000006000000020000000000000000408FC000000080B48053C00000008065D73AC00000000000408FC0000000C0310C54C000000080718037C00C00000013000000EA0000003C00000006000000020000000000000000408FC000000080B48053C00000008065D73AC0000000E0FF3F8F40000000A0B78053
310
C00000008065D73AC00C00000013000000F20000003C0000000600000002000000000000E0FF3F8F40000000E0340C54C000000080718037C0000000E0FF3F8F40000000A0B78053C00000008065D73AC00C00000013000000FA0000003C00000006000000020000000000000000408FC0000000C0164953C00000008019D8
310
3CC00000000000408FC000000080B48053C00000008065D73AC00C00000013000000020100003C00000006000000020000000000000000408FC0000000C0164953C00000008019D83CC0000000E0FF3F8F40000000001A4953C00000008019D83CC00C000000130000000A0100003C0000000600000002000000000000E0FF
310
3F8F40000000A0B78053C00000008065D73AC0000000E0FF3F8F40000000001A4953C00000008019D83CC00C00000013000000120100003C00000006000000020000000000000000408FC000000020E41A53C0000000809F113FC00000000000408FC0000000C0164953C00000008019D83CC00C000000130000001A010000
310
3C00000006000000020000000000000000408FC000000020E41A53C0000000809F113FC0000000E0FF3F8F4000000040E71A53C0000000809F113FC00C00000013000000220100003C0000000600000002000000000000E0FF3F8F40000000001A4953C00000008019D83CC0000000E0FF3F8F4000000040E71A53C0000000
310
809F113FC00C000000130000002A0100003C00000006000000020000000000000000408FC000000020E41A53C0000000809F113FC00000000000408FC0000000C017AE51C000000080B5113FC00C00000013000000320100003C0000000600000002000000000000E0FF3F8F40000000001BAE51C000000080B5113FC00000
310
000000408FC0000000C017AE51C000000080B5113FC00C000000130000003A0100003C0000000600000002000000000000E0FF3F8F4000000040E71A53C0000000809F113FC0000000E0FF3F8F40000000001BAE51C000000080B5113FC00C00000013000000420100003C00000006000000020000000000000000408FC000
310
0000C017AE51C000000080B5113FC00000000000408FC000000080508051C000000040475D42C00C000000130000004A0100003C00000006000000020000000000000000408FC000000080508051C000000040475D42C0000000E0FF3F8F40000000A0538051C000000040475D42C00C00000013000000520100003C000000
310
0600000002000000000000E0FF3F8F40000000001BAE51C000000080B5113FC0000000E0FF3F8F40000000A0538051C000000040475D42C00C000000130000005A0100003C00000006000000020000000000000000408FC000000080EC1451C000000080C37445C00000000000408FC000000080508051C000000040475D42
310
C00C00000013000000620100003C00000006000000020000000000000000408FC000000080EC1451C000000080C37445C0000000E0FF3F8F40000000A0EF1451C000000040C37445C00C000000130000006A0100003C0000000600000002000000000000E0FF3F8F40000000A0538051C000000040475D42C0000000E0FF3F
310
8F40000000A0EF1451C000000040C37445C00C00000013000000720100003C00000006000000020000000000000000408FC00000008055CB50C000000040AF0A47C00000000000408FC000000080EC1451C000000080C37445C00C000000130000007A0100003C00000006000000020000000000000000408FC00000008055
310
CB50C000000040AF0A47C0000000E0FF3F8F40000000C058CB50C000000040AF0A47C00C00000013000000820100003C0000000600000002000000000000E0FF3F8F40000000A0EF1451C000000040C37445C0000000E0FF3F8F40000000C058CB50C000000040AF0A47C00C000000130000008A0100003C00000006000000
310
020000000000000000408FC000000060617550C0000000005BA648C00000000000408FC00000008055CB50C000000040AF0A47C00C00000013000000920100003C00000006000000020000000000000000408FC000000060617550C0000000005BA648C0000000E0FF3F8F4000000080647550C0000000C05AA648C00C0000
310
00130000009A0100003C0000000600000002000000000000E0FF3F8F40000000C058CB50C000000040AF0A47C0000000E0FF3F8F4000000080647550C0000000C05AA648C00C00000013000000A20100003C00000006000000020000000000000000408FC000000040B81050C000000000A02C4AC00000000000408FC00000
310
0060617550C0000000005BA648C00C00000013000000AA0100003C00000006000000020000000000000000408FC000000040B81050C000000000A02C4AC0000000E0FF3F8F4000000080BB1050C000000000A02C4AC00C00000013000000B20100003C0000000600000002000000000000E0FF3F8F4000000080647550C000
310
0000C05AA648C0000000E0FF3F8F4000000080BB1050C000000000A02C4AC00C00000013000000BA0100003C00000006000000020000000000000000408FC000000020053A4FC0000000C062994BC00000000000408FC000000040B81050C000000000A02C4AC00C00000013000000C20100003C0000000600000002000000
310
0000000000408FC000000020053A4FC0000000C062994BC0000000E0FF3F8F40000000800B3A4FC0000000A062994BC00C00000013000000CA0100003C0000000600000002000000000000E0FF3F8F4000000080BB1050C000000000A02C4AC0000000E0FF3F8F40000000800B3A4FC0000000A062994BC00C000000130000
310
00D20100003C00000006000000020000000000000000408FC0000000A0B0344EC0000000A01BEC4CC00000000000408FC000000020053A4FC0000000C062994BC00C00000013000000DA0100003C00000006000000020000000000000000408FC0000000A0B0344EC0000000A01BEC4CC0000000E0FF3F8F4000000000B734
310
4EC0000000C01BEC4CC00C00000013000000E20100003C0000000600000002000000000000E0FF3F8F40000000800B3A4FC0000000A062994BC0000000E0FF3F8F4000000000B7344EC0000000C01BEC4CC00C00000013000000EA0100003C00000006000000020000000000000000408FC0000000809B104DC0000000804E
310
234EC00000000000408FC0000000A0B0344EC0000000A01BEC4CC00C00000013000000F20100003C00000006000000020000000000000000408FC0000000809B104DC0000000804E234EC0000000E0FF3F8F40000000E0A1104DC0000000804E234EC00C00000013000000FA0100003C0000000600000002000000000000E0
310
FF3F8F4000000000B7344EC0000000C01BEC4CC0000000E0FF3F8F40000000E0A1104DC0000000804E234EC00C00000013000000020200003C00000006000000020000000000000000408FC0000000A00FCF4BC000000000753C4FC00000000000408FC0000000809B104DC0000000804E234EC00C000000130000000A0200
310
003C00000006000000020000000000000000408FC0000000A00FCF4BC000000000753C4FC0000000E0FF3F8F400000000016CF4BC0000000E0743C4FC00C00000013000000120200003C0000000600000002000000000000E0FF3F8F40000000E0A1104DC0000000804E234EC0000000E0FF3F8F400000000016CF4BC00000
310
00E0743C4FC00C000000130000001A0200003C00000006000000020000000000000000408FC000000040936E4AC000000040B91850C00000000000408FC0000000A00FCF4BC000000000753C4FC00C00000013000000220200003C00000006000000020000000000000000408FC000000040936E4AC000000040B91850C000
310
0000E0FF3F8F4000000080996E4AC000000040B91850C00C000000130000002A0200003C0000000600000002000000000000E0FF3F8F400000000016CF4BC0000000E0743C4FC0000000E0FF3F8F4000000080996E4AC000000040B91850C00C00000013000000320200003C00000006000000020000000000000000408FC0
310
0000008086F248C000000080E28150C00000000000408FC000000040936E4AC000000040B91850C00C000000130000003A0200003C00000006000000020000000000000000408FC00000008086F248C000000080E28150C0000000E0FF3F8F40000000C08CF248C000000080E28150C00C00000013000000420200003C0000
310
000600000002000000000000E0FF3F8F4000000080996E4AC000000040B91850C0000000E0FF3F8F40000000C08CF248C000000080E28150C00C000000130000004A0200003C00000006000000020000000000000000408FC0000000403A6E47C000000020EDD850C00000000000408FC00000008086F248C000000080E281
310
50C00C00000013000000520200003C00000006000000020000000000000000408FC0000000403A6E47C000000020EDD850C0000000E0FF3F8F40000000A0406E47C000000040EDD850C00C000000130000005A0200003C0000000600000002000000000000E0FF3F8F40000000C08CF248C000000080E28150C0000000E0FF
310
3F8F40000000A0406E47C000000040EDD850C00C00000013000000620200003C00000006000000020000000000000000408FC0000000E0234C44C0000000A0F05251C00000000000408FC0000000403A6E47C000000020EDD850C00C000000130000006A0200003C00000006000000020000000000000000408FC0000000E0
310
234C44C0000000A0F05251C0000000E0FF3F8F40000000202A4C44C000000080F05251C00C00000013000000720200003C0000000600000002000000000000E0FF3F8F40000000A0406E47C000000040EDD850C0000000E0FF3F8F40000000202A4C44C000000080F05251C00C000000130000007A0200003C000000060000
310
00020000000000000000408FC0000000C06C1841C000000060EE8F51C00000000000408FC0000000E0234C44C0000000A0F05251C00C00000013000000820200003C00000006000000020000000000000000408FC0000000C06C1841C000000060EE8F51C0000000E0FF3F8F4000000020731841C000000040EE8F51C00C00
310
0000130000008A0200003C0000000600000002000000000000E0FF3F8F40000000202A4C44C000000080F05251C0000000E0FF3F8F4000000020731841C000000040EE8F51C00C00000013000000920200003C00000006000000020000000000000000408FC0000000C06C1841C000000060EE8F51C00000000000408FC000
310
0000607B1841C000000020617853C00C000000130000009A0200003C0000000600000002000000000000E0FF3F8F40000000C0811841C000000000617853C00000000000408FC0000000607B1841C000000020617853C00C00000013000000A20200003C0000000600000002000000000000E0FF3F8F4000000020731841C0
310
00000040EE8F51C0000000E0FF3F8F40000000C0811841C000000000617853C00C00000013000000AA0200003C00000006000000020000000000000000408FC0000000607B1841C000000020617853C00000000000408FC00000000031DD38C0000000206A7853C00C00000013000000B20200003C00000006000000020000
310
00000000E0FF3F8F40000000A03DDD38C0000000006A7853C00000000000408FC00000000031DD38C0000000206A7853C00C00000013000000BA0200003C0000000600000002000000000000E0FF3F8F40000000C0811841C000000000617853C0000000E0FF3F8F40000000A03DDD38C0000000006A7853C00C0000001300
310
0000C20200003C00000006000000020000000000000000408FC00000000031DD38C0000000206A7853C00000000000408FC0000000C061DD38C0000000A07EA656C00C00000013000000CA0200003C0000000600000002000000000000E0FF3F8F40000000A06EDD38C0000000807EA656C00000000000408FC0000000C061
310
DD38C0000000A07EA656C00C00000013000000D20200003C0000000600000002000000000000E0FF3F8F40000000A03DDD38C0000000006A7853C0000000E0FF3F8F40000000A06EDD38C0000000807EA656C00C00000013000000DA0200003C00000006000000020000000000000000408FC0000000C061DD38C0000000A0
310
7EA656C00000000000408FC000000040921731C00000002086A656C00C00000013000000E20200003C0000000600000002000000000000E0FF3F8F40000000009F1731C00000002086A656C00000000000408FC000000040921731C00000002086A656C00C00000013000000EA0200003C0000000600000002000000000000
310
E0FF3F8F40000000A06EDD38C0000000807EA656C0000000E0FF3F8F40000000009F1731C00000002086A656C00C00000013000000F20200003C00000006000000020000000000000000408FC000000040921731C00000002086A656C00000000000408FC0000000009A1831C0000000A036DF63C00C00000013000000FA02
310
00003C0000000600000002000000000000E0FF3F8F40000000A0A61831C00000008036DF63C00000000000408FC0000000009A1831C0000000A036DF63C00C00000013000000020300003C0000000600000002000000000000E0FF3F8F40000000009F1731C00000002086A656C0000000E0FF3F8F40000000A0A61831C000
310
00008036DF63C00C000000130000000A0300003C00000006000000020000000000000000408FC0000000009A1831C0000000A036DF63C00000000000408FC0000000006DFA3BC0000000E05A9C64C00C00000013000000120300003C0000000600000002000000000000E0FF3F8F40000000C079FA3BC0000000E05A9C64C0
310
0000000000408FC0000000006DFA3BC0000000E05A9C64C00C000000130000001A0300003C0000000600000002000000000000E0FF3F8F40000000A0A61831C00000008036DF63C0000000E0FF3F8F40000000C079FA3BC0000000E05A9C64C00C00000013000000220300003C00000006000000020000000000000000408F
310
C0000000006DFA3BC0000000E05A9C64C00000000000408FC000000020A0FA3BC000000040AD4366C00C000000130000002A0300003C0000000600000002000000000000E0FF3F8F40000000E0ACFA3BC000000040AD4366C00000000000408FC000000020A0FA3BC000000040AD4366C00C00000013000000320300003C00
310
00000600000002000000000000E0FF3F8F40000000C079FA3BC0000000E05A9C64C0000000E0FF3F8F40000000E0ACFA3BC000000040AD4366C00C000000130000003A0300003C00000006000000020000000000000000408FC000000020A0FA3BC000000040AD4366C00000000000408FC000000000F7853EC0000000003F
310
7166C00C00000013000000420300003C00000006000000020000000000000000408FC000000000F7853EC0000000003F7166C0000000E0FF3F8F40000000C003863EC0000000003F7166C00C000000130000004A0300003C0000000600000002000000000000E0FF3F8F40000000E0ACFA3BC000000040AD4366C0000000E0
310
FF3F8F40000000C003863EC0000000003F7166C00C00000013000000520300003C00000006000000020000000000000000408FC0000000C0417340C0000000A0BDA166C00000000000408FC000000000F7853EC0000000003F7166C00C000000130000005A0300003C00000006000000020000000000000000408FC0000000
310
C0417340C0000000A0BDA166C0000000E0FF3F8F4000000020487340C000000080BDA166C00C00000013000000620300003C0000000600000002000000000000E0FF3F8F40000000C003863EC0000000003F7166C0000000E0FF3F8F4000000020487340C000000080BDA166C00C000000130000006A0300003C0000000600
310
0000020000000000000000408FC000000000917A41C000000040A9D766C00000000000408FC0000000C0417340C0000000A0BDA166C00C00000013000000720300003C00000006000000020000000000000000408FC000000000917A41C000000040A9D766C0000000E0FF3F8F4000000040977A41C000000040A9D766C00C
310
000000130000007A0300003C0000000600000002000000000000E0FF3F8F4000000020487340C000000080BDA166C0000000E0FF3F8F4000000040977A41C000000040A9D766C00C00000013000000820300003C00000006000000020000000000000000408FC000000040EB4742C000000040451567C00000000000408FC0
310
00000000917A41C000000040A9D766C00C000000130000008A0300003C00000006000000020000000000000000408FC000000040EB4742C000000040451567C0000000E0FF3F8F40000000A0F14742C000000040451567C00C00000013000000920300003C0000000600000002000000000000E0FF3F8F4000000040977A41
310
C000000040A9D766C0000000E0FF3F8F40000000A0F14742C000000040451567C00C000000130000009A0300003C00000006000000020000000000000000408FC00000004081D142C0000000C0DB5B67C00000000000408FC000000040EB4742C000000040451567C00C00000013000000A20300003C000000060000000200
310
00000000000000408FC00000004081D142C0000000C0DB5B67C0000000E0FF3F8F400000008087D142C0000000C0DB5B67C00C00000013000000AA0300003C0000000600000002000000000000E0FF3F8F40000000A0F14742C000000040451567C0000000E0FF3F8F400000008087D142C0000000C0DB5B67C00C00000013
310
000000B20300003C00000006000000020000000000000000408FC0000000A0EB1543C00000004052AB67C00000000000408FC00000004081D142C0000000C0DB5B67C00C00000013000000BA0300003C00000006000000020000000000000000408FC0000000A0EB1543C00000004052AB67C0000000E0FF3F8F4000000000
310
F21543C00000004052AB67C00C00000013000000C20300003C0000000600000002000000000000E0FF3F8F400000008087D142C0000000C0DB5B67C0000000E0FF3F8F4000000000F21543C00000004052AB67C00C00000013000000CA0300003C00000006000000020000000000000000408FC0000000A0AB1843C0000000
310
E0470168C00000000000408FC0000000A0EB1543C00000004052AB67C00C00000013000000D20300003C00000006000000020000000000000000408FC0000000A0AB1843C0000000E0470168C0000000E0FF3F8F4000000000B21843C0000000C0470168C00C00000013000000DA0300003C00000006000000020000000000
310
00E0FF3F8F4000000000F21543C00000004052AB67C0000000E0FF3F8F4000000000B21843C0000000C0470168C00C00000013000000E20300003C00000006000000020000000000000000408FC0000000C0D9D542C000000040A65A68C00000000000408FC0000000A0AB1843C0000000E0470168C00C00000013000000EA
310
0300003C00000006000000020000000000000000408FC0000000C0D9D542C000000040A65A68C0000000E0FF3F8F4000000020E0D542C000000040A65A68C00C00000013000000F20300003C0000000600000002000000000000E0FF3F8F4000000000B21843C0000000C0470168C0000000E0FF3F8F4000000020E0D542C0
310
00000040A65A68C00C00000013000000FA0300003C00000006000000020000000000000000408FC000000040D64142C0000000200FB368C00000000000408FC0000000C0D9D542C000000040A65A68C00C00000013000000020400003C00000006000000020000000000000000408FC000000040D64142C0000000200FB368
310
C0000000E0FF3F8F40000000A0DC4142C0000000200FB368C00C000000130000000A0400003C0000000600000002000000000000E0FF3F8F4000000020E0D542C000000040A65A68C0000000E0FF3F8F40000000A0DC4142C0000000200FB368C00C00000013000000120400003C0000000600000002000000000000000040
310
8FC0000000E0DE0341C0000000A0641869C00000000000408FC000000040D64142C0000000200FB368C00C000000130000001A0400003C00000006000000020000000000000000408FC0000000E0DE0341C0000000A0641869C0000000E0FF3F8F4000000040E50341C0000000A0641869C00C00000013000000220400003C
310
0000000600000002000000000000E0FF3F8F40000000A0DC4142C0000000200FB368C0000000E0FF3F8F4000000040E50341C0000000A0641869C00C000000130000002A0400003C00000006000000020000000000000000408FC0000000403F3D3FC0000000800D6169C00000000000408FC0000000E0DE0341C0000000A0
310
641869C00C00000013000000320400003C00000006000000020000000000000000408FC0000000403F3D3FC0000000800D6169C0000000E0FF3F8F40000000004C3D3FC0000000800D6169C00C000000130000003A0400003C0000000600000002000000000000E0FF3F8F4000000040E50341C0000000A0641869C0000000
310
E0FF3F8F40000000004C3D3FC0000000800D6169C00C00000013000000420400003C00000006000000020000000000000000408FC00000008076DE3BC000000080E3A769C00000000000408FC0000000403F3D3FC0000000800D6169C00C000000130000004A0400003C00000006000000020000000000000000408FC00000
310
008076DE3BC000000080E3A769C0000000E0FF3F8F400000004083DE3BC000000080E3A769C00C00000013000000520400003C0000000600000002000000000000E0FF3F8F40000000004C3D3FC0000000800D6169C0000000E0FF3F8F400000004083DE3BC000000080E3A769C00C000000130000005A0400003C00000006
310
000000020000000000000000408FC0000000C0A94538C0000000E078F469C00000000000408FC00000008076DE3BC000000080E3A769C00C00000013000000620400003C00000006000000020000000000000000408FC0000000C0A94538C0000000E078F469C0000000E0FF3F8F4000000080B64538C0000000E078F469C0
310
0C000000130000006A0400003C0000000600000002000000000000E0FF3F8F400000004083DE3BC000000080E3A769C0000000E0FF3F8F4000000080B64538C0000000E078F469C00C00000013000000720400003C00000006000000020000000000000000408FC0000000404FD534C0000000002D4C6AC00000000000408F
310
C0000000C0A94538C0000000E078F469C00C000000130000007A0400003C00000006000000020000000000000000408FC0000000404FD534C0000000002D4C6AC0000000E0FF3F8F40000000E05BD534C0000000002D4C6AC00C00000013000000820400003C0000000600000002000000000000E0FF3F8F4000000080B645
310
38C0000000E078F469C0000000E0FF3F8F40000000E05BD534C0000000002D4C6AC00C000000130000008A0400003C00000006000000020000000000000000408FC0000000209DDE31C0000000C06CB16AC00000000000408FC0000000404FD534C0000000002D4C6AC00C00000013000000920400003C0000000600000002
310
0000000000000000408FC0000000209DDE31C0000000C06CB16AC0000000E0FF3F8F40000000C0A9DE31C0000000C06CB16AC00C000000130000009A0400003C0000000600000002000000000000E0FF3F8F40000000E05BD534C0000000002D4C6AC0000000E0FF3F8F40000000C0A9DE31C0000000C06CB16AC00C000000
310
13000000A20400003C00000006000000020000000000000000408FC000000040B7482FC0000000207D216BC00000000000408FC0000000209DDE31C0000000C06CB16AC00C00000013000000AA0400003C00000006000000020000000000000000408FC000000040B7482FC0000000207D216BC0000000E0FF3F8F40000000
310
80D0482FC0000000007D216BC00C00000013000000B20400003C0000000600000002000000000000E0FF3F8F40000000C0A9DE31C0000000C06CB16AC0000000E0FF3F8F4000000080D0482FC0000000007D216BC00C00000013000000BA0400003C00000006000000020000000000000000408FC0000000007F042DC00000
310
0000CB7A6BC00000000000408FC000000040B7482FC0000000207D216BC00C00000013000000C20400003C00000006000000020000000000000000408FC0000000007F042DC000000000CB7A6BC0000000E0FF3F8F40000000C098042DC000000000CB7A6BC00C00000013000000CA0400003C000000060000000200000000
310
0000E0FF3F8F4000000080D0482FC0000000007D216BC0000000E0FF3F8F40000000C098042DC000000000CB7A6BC00C00000013000000D20400003C00000006000000020000000000000000408FC0000000007F042DC000000000CB7A6BC00000000000408FC000000080B8B023C000000060CD7A6BC00C00000013000000
310
DA0400003C0000000600000002000000000000E0FF3F8F4000000040D2B023C000000040CD7A6BC00000000000408FC000000080B8B023C000000060CD7A6BC00C00000013000000E20400003C0000000600000002000000000000E0FF3F8F40000000C098042DC000000000CB7A6BC0000000E0FF3F8F4000000040D2B023
310
C000000040CD7A6BC00C00000013000000EA0400003C00000006000000020000000000000000408FC000000080B8B023C000000060CD7A6BC00000000000408FC00000000007B123C0000000206FC06CC00C00000013000000F20400003C0000000600000002000000000000E0FF3F8F400000008020B123C0000000206FC0
310
6CC00000000000408FC00000000007B123C0000000206FC06CC00C00000013000000FA0400003C0000000600000002000000000000E0FF3F8F4000000040D2B023C000000040CD7A6BC0000000E0FF3F8F400000008020B123C0000000206FC06CC00C00000013000000020500003C00000006000000020000000000000000
310
408FC00000000007B123C0000000206FC06CC00000000000408FC00000000000C035BF0000000074C06CC00C000000130000000A0500003C00000006000000020000000000000000408FC00000000000C035BF0000000074C06CC0000000E0FF3F8F4000000000004041BF0000000074C06CC00C0000001300000012050000
310
3C0000000600000002000000000000E0FF3F8F400000008020B123C0000000206FC06CC0000000E0FF3F8F4000000000004041BF0000000074C06CC00C000000130000001A0500003C00000006000000020000000000000000408FC0000000000080243F000000C020B36BC00000000000408FC00000000000C035BF000000
310
0074C06CC00C00000013000000220500003C00000006000000020000000000000000408FC0000000000080243F000000C020B36BC0000000E0FF3F8F4000000000000004BF000000C020B36BC00C000000130000002A0500003C0000000600000002000000000000E0FF3F8F4000000000000004BF000000C020B36BC00000
310
00E0FF3F8F4000000000004041BF0000000074C06CC00C00000013000000320500003C00000006000000020000000000000000408FC00000000038CAE4BF0000004082A86BC00000000000408FC0000000000080243F000000C020B36BC00C000000130000003A0500003C00000006000000020000000000000000408FC000
310
00000038CAE4BF0000004082A86BC0000000E0FF3F8F4000000000D0CBE4BF0000004082A86BC00C00000013000000420500003C0000000600000002000000000000E0FF3F8F4000000000000004BF000000C020B36BC0000000E0FF3F8F4000000000D0CBE4BF0000004082A86BC00C000000130000004A0500003C000000
310
06000000020000000000000000408FC000000000ECD4F1BF000000800D976BC00000000000408FC00000000038CAE4BF0000004082A86BC00C00000013000000520500003C00000006000000020000000000000000408FC000000000ECD4F1BF000000800D976BC0000000E0FF3F8F4000000000B8D5F1BF000000800D976B
310
C00C000000130000005A0500003C0000000600000002000000000000E0FF3F8F4000000000D0CBE4BF0000004082A86BC0000000E0FF3F8F4000000000B8D5F1BF000000800D976BC00C00000013000000620500003C00000006000000020000000000000000408FC0000000000055F5BF000000805B816BC0000000000040
310
8FC000000000ECD4F1BF000000800D976BC00C000000130000006A0500003C00000006000000020000000000000000408FC0000000000055F5BF000000805B816BC0000000E0FF3F8F4000000000C855F5BF000000805B816BC00C00000013000000720500003C0000000600000002000000000000E0FF3F8F4000000000B8
310
D5F1BF000000800D976BC0000000E0FF3F8F4000000000C855F5BF000000805B816BC00C000000130000007A0500003C00000006000000020000000000000000408FC000000000BC5EF4BF00000080AD6A6BC00000000000408FC0000000000055F5BF000000805B816BC00C00000013000000820500003C00000006000000
310
020000000000000000408FC000000000BC5EF4BF00000080AD6A6BC0000000E0FF3F8F4000000000885FF4BF00000080AD6A6BC00C000000130000008A0500003C0000000600000002000000000000E0FF3F8F4000000000C855F5BF000000805B816BC0000000E0FF3F8F4000000000885FF4BF00000080AD6A6BC00C0000
310
0013000000920500003C00000006000000020000000000000000408FC000000000A02EEEBF000000806A566BC00000000000408FC000000000BC5EF4BF00000080AD6A6BC00C000000130000009A0500003C00000006000000020000000000000000408FC000000000A02EEEBF000000806A566BC0000000E0FF3F8F400000
310
00003030EEBF000000806A566BC00C00000013000000A20500003C0000000600000002000000000000E0FF3F8F4000000000885FF4BF00000080AD6A6BC0000000E0FF3F8F40000000003030EEBF000000806A566BC00C00000013000000AA0500003C00000006000000020000000000000000408FC000000000F09BD8BF00
310
00004088476BC00000000000408FC000000000A02EEEBF000000806A566BC00C00000013000000B20500003C00000006000000020000000000000000408FC000000000F09BD8BF0000004088476BC0000000E0FF3F8F4000000000209FD8BF0000004088476BC00C00000013000000BA0500003C0000000600000002000000
310
000000E0FF3F8F4000000000209FD8BF0000004088476BC0000000E0FF3F8F40000000003030EEBF000000806A566BC00C00000013000000C20500003C00000006000000020000000000000000408FC0000000000040383F000000A0D7406BC00000000000408FC000000000F09BD8BF0000004088476BC00C000000130000
310
00CA0500003C00000006000000020000000000000000408FC0000000000040383F000000A0D7406BC0000000E0FF3F8F40000000000000273F000000A0D7406BC00C00000013000000D20500003C0000000600000002000000000000E0FF3F8F4000000000209FD8BF0000004088476BC0000000E0FF3F8F40000000000000
310
273F000000A0D7406BC00C00000013000000DA0500003C00000006000000020000000000000000408FC00000000000404C3F0000006030356AC00000000000408FC0000000000040383F000000A0D7406BC00C00000013000000E20500003C00000006000000020000000000000000408FC00000000000404C3F0000006030
310
356AC0000000E0FF3F8F400000000000C0453F0000004030356AC00C00000013000000EA0500003C0000000600000002000000000000E0FF3F8F400000000000C0453F0000004030356AC0000000E0FF3F8F40000000000000273F000000A0D7406BC00C00000013000000F20500003C000000060000000200000000000000
310
00408FC000000080E6E320C00000004074A169C00000000000408FC00000000000404C3F0000006030356AC00C00000013000000FA0500003C00000006000000020000000000000000408FC000000080E6E320C00000004074A169C0000000E0FF3F8F400000000000E420C00000004074A169C00C00000013000000020600
310
003C0000000600000002000000000000E0FF3F8F400000000000C0453F0000004030356AC0000000E0FF3F8F400000000000E420C00000004074A169C00C000000130000000A0600003C00000006000000020000000000000000408FC000000080E6E320C00000004074A169C00000000000408FC00000008094DF23C00000
310
00C0097D69C00C00000013000000120600003C0000000600000002000000000000E0FF3F8F4000000080ADDF23C0000000C0097D69C00000000000408FC00000008094DF23C0000000C0097D69C00C000000130000001A0600003C0000000600000002000000000000E0FF3F8F400000000000E420C00000004074A169C000
310
0000E0FF3F8F4000000080ADDF23C0000000C0097D69C00C00000013000000220600003C00000006000000020000000000000000408FC0000000800E0626C0000000603D4C69C00000000000408FC00000008094DF23C0000000C0097D69C00C000000130000002A0600003C00000006000000020000000000000000408FC0
310
000000800E0626C0000000603D4C69C0000000E0FF3F8F4000000000280626C0000000403D4C69C00C00000013000000320600003C0000000600000002000000000000E0FF3F8F4000000000280626C0000000403D4C69C0000000E0FF3F8F4000000080ADDF23C0000000C0097D69C00C000000130000003A0600003C0000
310
0006000000020000000000000000408FC000000000E4A427C000000080ED1769C00000000000408FC0000000800E0626C0000000603D4C69C00C00000013000000420600003C00000006000000020000000000000000408FC000000000E4A427C000000080ED1769C0000000E0FF3F8F4000000040FDA427C000000080ED17
310
69C00C000000130000004A0600003C0000000600000002000000000000E0FF3F8F4000000000280626C0000000403D4C69C0000000E0FF3F8F4000000040FDA427C000000080ED1769C00C00000013000000520600003C00000006000000020000000000000000408FC000000000E4A427C000000080ED1769C00000000000
310
408FC00000008026BF29C000000000EAE768C00C000000130000005A0600003C0000000600000002000000000000E0FF3F8F400000000040BF29C000000000EAE768C00000000000408FC00000008026BF29C000000000EAE768C00C00000013000000620600003C0000000600000002000000000000E0FF3F8F4000000040
310
FDA427C000000080ED1769C0000000E0FF3F8F400000000040BF29C000000000EAE768C00C000000130000006A0600003C00000006000000020000000000000000408FC00000000039A82CC0000000C0C7C368C00000000000408FC00000008026BF29C000000000EAE768C00C00000013000000720600003C000000060000
310
0002000000000000E0FF3F8F400000004052A82CC0000000C0C7C368C00000000000408FC00000000039A82CC0000000C0C7C368C00C000000130000007A0600003C0000000600000002000000000000E0FF3F8F400000000040BF29C000000000EAE768C0000000E0FF3F8F400000004052A82CC0000000C0C7C368C00C00
310
000013000000820600003C00000006000000020000000000000000408FC0000000802B9430C00000000031AB68C00000000000408FC00000000039A82CC0000000C0C7C368C00C000000130000008A0600003C00000006000000020000000000000000408FC0000000802B9430C00000000031AB68C0000000E0FF3F8F4000
310
000040389430C00000000031AB68C00C00000013000000920600003C0000000600000002000000000000E0FF3F8F4000000040389430C00000000031AB68C0000000E0FF3F8F400000004052A82CC0000000C0C7C368C00C000000130000009A0600003C00000006000000020000000000000000408FC0000000802B9430C0
310
0000000031AB68C00000000000408FC000000060725133C0000000001D9368C00C00000013000000A20600003C0000000600000002000000000000E0FF3F8F40000000007F5133C0000000001D9368C00000000000408FC000000060725133C0000000001D9368C00C00000013000000AA0600003C00000006000000020000
310
00000000E0FF3F8F4000000040389430C00000000031AB68C0000000E0FF3F8F40000000007F5133C0000000001D9368C00C00000013000000B20600003C00000006000000020000000000000000408FC0000000C000BB35C000000020EA7168C00000000000408FC000000060725133C0000000001D9368C00C0000001300
310
0000BA0600003C0000000600000002000000000000E0FF3F8F40000000800DBB35C000000000EA7168C00000000000408FC0000000C000BB35C000000020EA7168C00C00000013000000C20600003C0000000600000002000000000000E0FF3F8F40000000007F5133C0000000001D9368C0000000E0FF3F8F40000000800D
310
BB35C000000000EA7168C00C00000013000000CA0600003C00000006000000020000000000000000408FC000000040901537C000000000E74F68C00000000000408FC0000000C000BB35C000000020EA7168C00C00000013000000D20600003C0000000600000002000000000000E0FF3F8F40000000E09C1537C000000000
310
E74F68C00000000000408FC000000040901537C000000000E74F68C00C00000013000000DA0600003C0000000600000002000000000000E0FF3F8F40000000800DBB35C000000000EA7168C0000000E0FF3F8F40000000E09C1537C000000000E74F68C00C00000013000000E20600003C0000000600000002000000000000
310
0000408FC0000000007F0B38C000000040702368C00000000000408FC000000040901537C000000000E74F68C00C00000013000000EA0600003C0000000600000002000000000000E0FF3F8F40000000C08B0B38C000000040702368C00000000000408FC0000000007F0B38C000000040702368C00C00000013000000F206
310
00003C0000000600000002000000000000E0FF3F8F40000000E09C1537C000000000E74F68C0000000E0FF3F8F40000000C08B0B38C000000040702368C00C00000013000000FA0600003C00000006000000020000000000000000408FC000000000E27E38C0000000003FF067C00000000000408FC0000000007F0B38C000
310
000040702368C00C00000013000000020700003C0000000600000002000000000000E0FF3F8F40000000C0EE7E38C0000000003FF067C00000000000408FC000000000E27E38C0000000003FF067C00C000000130000000A0700003C0000000600000002000000000000E0FF3F8F40000000C08B0B38C000000040702368C0
310
000000E0FF3F8F40000000C0EE7E38C0000000003FF067C00C00000013000000120700003C00000006000000020000000000000000408FC000000080F28338C0000000C0FCBC67C00000000000408FC000000000E27E38C0000000003FF067C00C000000130000001A0700003C0000000600000002000000000000E0FF3F8F
310
4000000060FF8338C0000000C0FCBC67C00000000000408FC000000080F28338C0000000C0FCBC67C00C00000013000000220700003C0000000600000002000000000000E0FF3F8F40000000C0EE7E38C0000000003FF067C0000000E0FF3F8F4000000060FF8338C0000000C0FCBC67C00C000000130000002A0700003C00
310
000006000000020000000000000000408FC000000080981C38C0000000C06D8C67C00000000000408FC000000080F28338C0000000C0FCBC67C00C00000013000000320700003C0000000600000002000000000000E0FF3F8F4000000020A51C38C0000000C06D8C67C00000000000408FC000000080981C38C0000000C06D
310
8C67C00C000000130000003A0700003C0000000600000002000000000000E0FF3F8F4000000060FF8338C0000000C0FCBC67C0000000E0FF3F8F4000000020A51C38C0000000C06D8C67C00C00000013000000420700003C00000006000000020000000000000000408FC0000000C09A4637C0000000A0916067C000000000
310
00408FC000000080981C38C0000000C06D8C67C00C000000130000004A0700003C0000000600000002000000000000E0FF3F8F40000000A0A74637C0000000A0916067C00000000000408FC0000000C09A4637C0000000A0916067C00C00000013000000520700003C0000000600000002000000000000E0FF3F8F40000000
310
20A51C38C0000000C06D8C67C0000000E0FF3F8F40000000A0A74637C0000000A0916067C00C000000130000005A0700003C00000006000000020000000000000000408FC0000000C00EEC34C000000040851E67C00000000000408FC0000000C09A4637C0000000A0916067C00C00000013000000620700003C0000000600
310
000002000000000000E0FF3F8F40000000601BEC34C000000040851E67C00000000000408FC0000000C00EEC34C000000040851E67C00C000000130000006A0700003C0000000600000002000000000000E0FF3F8F40000000A0A74637C0000000A0916067C0000000E0FF3F8F40000000601BEC34C000000040851E67C00C
310
00000013000000720700003C00000006000000020000000000000000408FC00000008042D132C0000000E08FE566C00000000000408FC0000000C00EEC34C000000040851E67C00C000000130000007A0700003C0000000600000002000000000000E0FF3F8F40000000404FD132C0000000C08FE566C00000000000408FC0
310
0000008042D132C0000000E08FE566C00C00000013000000820700003C0000000600000002000000000000E0FF3F8F40000000601BEC34C000000040851E67C0000000E0FF3F8F40000000404FD132C0000000C08FE566C00C000000130000008A0700003C00000006000000020000000000000000408FC000000080A31332
310
C00000008050C466C00000000000408FC00000008042D132C0000000E08FE566C00C00000013000000920700003C0000000600000002000000000000E0FF3F8F4000000020B01332C00000008050C466C00000000000408FC000000080A31332C00000008050C466C00C000000130000009A0700003C000000060000000200
310
0000000000E0FF3F8F40000000404FD132C0000000C08FE566C0000000E0FF3F8F4000000020B01332C00000008050C466C00C00000013000000A20700003C00000006000000020000000000000000408FC0000000804B8B31C0000000802A9466C00000000000408FC000000080A31332C00000008050C466C00C00000013
310
000000AA0700003C0000000600000002000000000000E0FF3F8F4000000020588B31C0000000802A9466C00000000000408FC0000000804B8B31C0000000802A9466C00C00000013000000B20700003C0000000600000002000000000000E0FF3F8F4000000020B01332C00000008050C466C0000000E0FF3F8F4000000020
310
588B31C0000000802A9466C00C00000013000000BA0700003C00000006000000020000000000000000408FC0000000A0606931C000000080E94766C00000000000408FC0000000804B8B31C0000000802A9466C00C00000013000000C20700003C0000000600000002000000000000E0FF3F8F40000000606D6931C0000000
310
80E94766C00000000000408FC0000000A0606931C000000080E94766C00C00000013000000CA0700003C0000000600000002000000000000E0FF3F8F4000000020588B31C0000000802A9466C0000000E0FF3F8F40000000606D6931C000000080E94766C00C00000013000000D20700003C00000006000000020000000000
310
000000408FC0000000801A5831C0000000C0F7F865C00000000000408FC0000000A0606931C000000080E94766C00C00000013000000DA0700003C0000000600000002000000000000E0FF3F8F4000000040275831C0000000C0F7F865C00000000000408FC0000000801A5831C0000000C0F7F865C00C00000013000000E2
310
0700003C0000000600000002000000000000E0FF3F8F40000000606D6931C000000080E94766C0000000E0FF3F8F4000000040275831C0000000C0F7F865C00C00000013000000EA0700003C00000006000000020000000000000000408FC000000020D7CA30C00000004059B965C00000000000408FC0000000801A5831C0
310
000000C0F7F865C00C00000013000000F20700003C0000000600000002000000000000E0FF3F8F40000000C0E3CA30C00000004059B965C00000000000408FC000000020D7CA30C00000004059B965C00C00000013000000FA0700003C0000000600000002000000000000E0FF3F8F4000000040275831C0000000C0F7F865
310
C0000000E0FF3F8F40000000C0E3CA30C00000004059B965C00C00000013000000020800003C00000006000000020000000000000000408FC00000000083902FC000000080F18A65C00000000000408FC000000020D7CA30C00000004059B965C00C000000130000000A0800003C0000000600000002000000000000E0FF3F
310
8F40000000809C902FC000000080F18A65C00000000000408FC00000000083902FC000000080F18A65C00C00000013000000120800003C0000000600000002000000000000E0FF3F8F40000000C0E3CA30C00000004059B965C0000000E0FF3F8F40000000809C902FC000000080F18A65C00C000000130000001A0800003C
310
00000006000000020000000000000000408FC000000000E0E82AC000000080674965C00000000000408FC00000000083902FC000000080F18A65C00C00000013000000220800003C0000000600000002000000000000E0FF3F8F4000000080F9E82AC000000080674965C00000000000408FC000000000E0E82AC000000080
310
674965C00C000000130000002A0800003C0000000600000002000000000000E0FF3F8F40000000809C902FC000000080F18A65C0000000E0FF3F8F4000000080F9E82AC000000080674965C00C00000013000000320800003C00000006000000020000000000000000408FC00000000021A425C0000000402E0265C0000000
310
0000408FC000000000E0E82AC000000080674965C00C000000130000003A0800003C0000000600000002000000000000E0FF3F8F40000000003AA425C0000000402E0265C00000000000408FC00000000021A425C0000000402E0265C00C00000013000000420800003C0000000600000002000000000000E0FF3F8F400000
310
0080F9E82AC000000080674965C0000000E0FF3F8F40000000003AA425C0000000402E0265C00C000000130000004A0800003C00000006000000020000000000000000408FC0000000003C5622C0000000E038C964C00000000000408FC00000000021A425C0000000402E0265C00C00000013000000520800003C00000006
310
00000002000000000000E0FF3F8F4000000040555622C0000000C038C964C00000000000408FC0000000003C5622C0000000E038C964C00C000000130000005A0800003C0000000600000002000000000000E0FF3F8F40000000003AA425C0000000402E0265C0000000E0FF3F8F4000000040555622C0000000C038C964C0
310
0C00000013000000620800003C00000006000000020000000000000000408FC0000000005E4A1FC0000000408F8364C00000000000408FC0000000003C5622C0000000E038C964C00C000000130000006A0800003C0000000600000002000000000000E0FF3F8F4000000000904A1FC0000000408F8364C00000000000408F
310
C0000000005E4A1FC0000000408F8364C00C00000013000000720800003C0000000600000002000000000000E0FF3F8F4000000040555622C0000000C038C964C0000000E0FF3F8F4000000000904A1FC0000000408F8364C00C000000130000007A0800003C00000006000000020000000000000000408FC000000000B7EF
310
1BC0000000E0862C64C00000000000408FC0000000005E4A1FC0000000408F8364C00C00000013000000820800003C0000000600000002000000000000E0FF3F8F4000000000EAEF1BC0000000C0862C64C00000000000408FC000000000B7EF1BC0000000E0862C64C00C000000130000008A0800003C0000000600000002
310
000000000000E0FF3F8F4000000000904A1FC0000000408F8364C0000000E0FF3F8F4000000000EAEF1BC0000000C0862C64C00C00000013000000920800003C00000006000000020000000000000000408FC00000000015EE1AC00000004010DF63C00000000000408FC000000000B7EF1BC0000000E0862C64C00C000000
310
130000009A0800003C00000006000000020000000000000000408FC00000000015EE1AC00000004010DF63C0000000E0FF3F8F400000000047EE1AC00000004010DF63C00C00000013000000A20800003C0000000600000002000000000000E0FF3F8F400000000047EE1AC00000004010DF63C0000000E0FF3F8F40000000
310
00EAEF1BC0000000C0862C64C00C00000013000000AA0800003C00000006000000020000000000000000408FC00000000031EB1AC0000000C066C75BC00000000000408FC00000000015EE1AC00000004010DF63C00C00000013000000B20800003C00000006000000020000000000000000408FC00000000031EB1AC00000
310
00C066C75BC0000000E0FF3F8F400000000064EB1AC0000000C066C75BC00C00000013000000BA0800003C0000000600000002000000000000E0FF3F8F400000000047EE1AC00000004010DF63C0000000E0FF3F8F400000000064EB1AC0000000C066C75BC00C00000013000000C20800003C000000060000000200000000
310
00000000408FC00000000031EB1AC0000000C066C75BC00000000000408FC0000000008C0A1AC0000000408B605BC00C00000013000000CA0800003C0000000600000002000000000000E0FF3F8F4000000000BE0A1AC0000000408B605BC00000000000408FC0000000008C0A1AC0000000408B605BC00C00000013000000
310
D20800003C0000000600000002000000000000E0FF3F8F400000000064EB1AC0000000C066C75BC0000000E0FF3F8F4000000000BE0A1AC0000000408B605BC00C00000013000000DA0800003C00000006000000020000000000000000408FC000000000A17817C000000060F1005BC00000000000408FC0000000008C0A1A
310
C0000000408B605BC00C00000013000000E20800003C0000000600000002000000000000E0FF3F8F4000000000D47817C000000040F1005BC00000000000408FC000000000A17817C000000060F1005BC00C00000013000000EA0800003C0000000600000002000000000000E0FF3F8F4000000000BE0A1AC0000000408B60
310
5BC0000000E0FF3F8F4000000000D47817C000000040F1005BC00C00000013000000F20800003C00000006000000020000000000000000408FC000000000DD6313C00000006057AF5AC00000000000408FC000000000A17817C000000060F1005BC00C00000013000000FA0800003C0000000600000002000000000000E0FF
310
3F8F40000000000F6413C00000004057AF5AC00000000000408FC000000000DD6313C00000006057AF5AC00C00000013000000020900003C0000000600000002000000000000E0FF3F8F4000000000D47817C000000040F1005BC0000000E0FF3F8F40000000000F6413C00000004057AF5AC00C000000130000000A090000
310
3C00000006000000020000000000000000408FC000000000D62B0CC0000000807E715AC00000000000408FC000000000DD6313C00000006057AF5AC00C00000013000000120900003C00000006000000020000000000000000408FC000000000D62B0CC0000000807E715AC0000000E0FF3F8F40000000003C2C0CC0000000
310
807E715AC00C000000130000001A0900003C0000000600000002000000000000E0FF3F8F40000000003C2C0CC0000000807E715AC0000000E0FF3F8F40000000000F6413C00000004057AF5AC00C00000013000000220900003C00000006000000020000000000000000408FC00000000000087D3F00000060D6F659C00000
310
000000408FC000000000D62B0CC0000000807E715AC00C000000130000002A0900003C00000006000000020000000000000000408FC00000000000087D3F00000060D6F659C0000000E0FF3F8F4000000000003C7C3F00000060D6F659C00C00000013000000320900003C0000000600000002000000000000E0FF3F8F4000
310
0000003C2C0CC0000000807E715AC0000000E0FF3F8F4000000000003C7C3F00000060D6F659C00C000000130000003A0900003C00000006000000020000000000000000408FC00000000000087D3F00000060D6F659C00000000000408FC00000000000747E3F000000C0667D58C00C00000013000000420900003C000000
310
06000000020000000000000000408FC00000000000747E3F000000C0667D58C0000000E0FF3F8F400000000000A87D3F000000C0667D58C00C000000130000004A0900003C0000000600000002000000000000E0FF3F8F4000000000003C7C3F00000060D6F659C0000000E0FF3F8F400000000000A87D3F000000C0667D58
310
C00C00000013000000520900003C00000006000000020000000000000000408FC000000000A88EE4BF000000002A6858C00000000000408FC00000000000747E3F000000C0667D58C00C000000130000005A0900003C00000006000000020000000000000000408FC000000000A88EE4BF000000002A6858C0000000E0FF3F
310
8F40000000004090E4BF000000002A6858C00C00000013000000620900003C0000000600000002000000000000E0FF3F8F400000000000A87D3F000000C0667D58C0000000E0FF3F8F40000000004090E4BF000000002A6858C00C000000130000006A0900003C00000006000000020000000000000000408FC00000000020
310
B7F1BF00000040404558C00000000000408FC000000000A88EE4BF000000002A6858C00C00000013000000720900003C00000006000000020000000000000000408FC00000000020B7F1BF00000040404558C0000000E0FF3F8F4000000000E8B7F1BF00000040404558C00C000000130000007A0900003C00000006000000
310
02000000000000E0FF3F8F40000000004090E4BF000000002A6858C0000000E0FF3F8F4000000000E8B7F1BF00000040404558C00C00000013000000820900003C00000006000000020000000000000000408FC0000000003837F5BF00000080DC1958C00000000000408FC00000000020B7F1BF00000040404558C00C0000
310
00130000008A0900003C00000006000000020000000000000000408FC0000000003837F5BF00000080DC1958C0000000E0FF3F8F40000000000038F5BF00000080DC1958C00C00000013000000920900003C0000000600000002000000000000E0FF3F8F4000000000E8B7F1BF00000040404558C0000000E0FF3F8F400000
310
00000038F5BF00000080DC1958C00C000000130000009A0900003C00000006000000020000000000000000408FC000000000F040F4BF000000A080EC57C00000000000408FC0000000003837F5BF00000080DC1958C00C00000013000000A20900003C00000006000000020000000000000000408FC000000000F040F4BF00
310
0000A080EC57C0000000E0FF3F8F4000000000B841F4BF0000008080EC57C00C00000013000000AA0900003C0000000600000002000000000000E0FF3F8F40000000000038F5BF00000080DC1958C0000000E0FF3F8F4000000000B841F4BF0000008080EC57C00C00000013000000B20900003C0000000600000002000000
310
0000000000408FC00000000000F3EDBF000000A0FAC357C00000000000408FC000000000F040F4BF000000A080EC57C00C00000013000000BA0900003C00000006000000020000000000000000408FC00000000000F3EDBF000000A0FAC357C0000000E0FF3F8F400000000090F4EDBF000000A0FAC357C00C000000130000
310
00C20900003C0000000600000002000000000000E0FF3F8F4000000000B841F4BF0000008080EC57C0000000E0FF3F8F400000000090F4EDBF000000A0FAC357C00C00000013000000CA0900003C00000006000000020000000000000000408FC000000000D024D8BF000000C035A657C00000000000408FC00000000000F3
310
EDBF000000A0FAC357C00C00000013000000D20900003C00000006000000020000000000000000408FC000000000D024D8BF000000C035A657C0000000E0FF3F8F40000000000028D8BF000000C035A657C00C00000013000000DA0900003C0000000600000002000000000000E0FF3F8F40000000000028D8BF000000C035
310
A657C0000000E0FF3F8F400000000090F4EDBF000000A0FAC357C00C00000013000000E20900003C00000006000000020000000000000000408FC00000000000507F3F000000A0D49857C00000000000408FC000000000D024D8BF000000C035A657C00C00000013000000EA0900003C000000060000000200000000000000
310
00408FC00000000000507F3F000000A0D49857C0000000E0FF3F8F400000000000807E3F000000A0D49857C00C00000013000000F20900003C0000000600000002000000000000E0FF3F8F40000000000028D8BF000000C035A657C0000000E0FF3F8F400000000000807E3F000000A0D49857C00C00000013000000FA0900
310
003C00000006000000020000000000000000408FC000000000005A803F00000000F12556C00000000000408FC00000000000507F3F000000A0D49857C00C00000013000000020A00003C00000006000000020000000000000000408FC000000000005A803F00000000F12556C0000000E0FF3F8F400000000000E87F3F0000
310
0000F12556C00C000000130000000A0A00003C0000000600000002000000000000E0FF3F8F400000000000E87F3F00000000F12556C0000000E0FF3F8F400000000000807E3F000000A0D49857C00C00000013000000120A00003C00000006000000020000000000000000408FC0000000C0E73836C0000000208A7950C000
310
00000000408FC000000000005A803F00000000F12556C00C000000130000001A0A00003C00000006000000020000000000000000408FC0000000C0E73836C0000000208A7950C0000000E0FF3F8F4000000080F43836C0000000008A7950C00C00000013000000220A00003C0000000600000002000000000000E0FF3F8F40
310
0000000000E87F3F00000000F12556C0000000E0FF3F8F4000000080F43836C0000000008A7950C00C000000130000002A0A00003C00000006000000020000000000000000408FC0000000C0E73836C0000000208A7950C00000000000408FC000000000D0FF39C0000000C0EB6D4FC00C00000013000000320A00003C0000
310
000600000002000000000000E0FF3F8F4000000080DCFF39C0000000C0EB6D4FC00000000000408FC000000000D0FF39C0000000C0EB6D4FC00C000000130000003A0A00003C0000000600000002000000000000E0FF3F8F4000000080F43836C0000000008A7950C0000000E0FF3F8F4000000080DCFF39C0000000C0EB6D
310
4FC00C00000013000000420A00003C00000006000000020000000000000000408FC00000008049653EC0000000E092624EC00000000000408FC000000000D0FF39C0000000C0EB6D4FC00C000000130000004A0A00003C00000006000000020000000000000000408FC00000008049653EC0000000E092624EC0000000E0FF
310
3F8F400000004056653EC0000000E092624EC00C00000013000000520A00003C0000000600000002000000000000E0FF3F8F400000004056653EC0000000E092624EC0000000E0FF3F8F4000000080DCFF39C0000000C0EB6D4FC00C000000130000005A0A00003C00000006000000020000000000000000408FC000000000
310
7B9145C0000000C0A1394CC00000000000408FC00000008049653EC0000000E092624EC00C00000013000000620A00003C00000006000000020000000000000000408FC0000000007B9145C0000000C0A1394CC0000000E0FF3F8F4000000060819145C0000000C0A1394CC00C000000130000006A0A00003C000000060000
310
0002000000000000E0FF3F8F400000004056653EC0000000E092624EC0000000E0FF3F8F4000000060819145C0000000C0A1394CC00C00000013000000720A00003C00000006000000020000000000000000408FC0000000007B9145C0000000C0A1394CC00000000000408FC000000000594B46C00000002071DE4BC00C00
310
0000130000007A0A00003C0000000600000002000000000000E0FF3F8F40000000605F4B46C0000000E070DE4BC00000000000408FC000000000594B46C00000002071DE4BC00C00000013000000820A00003C0000000600000002000000000000E0FF3F8F4000000060819145C0000000C0A1394CC0000000E0FF3F8F4000
310
0000605F4B46C0000000E070DE4BC00C000000130000008A0A00003C00000006000000020000000000000000408FC000000020D8E646C0000000E01E574BC00000000000408FC000000000594B46C00000002071DE4BC00C00000013000000920A00003C0000000600000002000000000000E0FF3F8F4000000080DEE646C0
310
000000001F574BC00000000000408FC000000020D8E646C0000000E01E574BC00C000000130000009A0A00003C0000000600000002000000000000E0FF3F8F40000000605F4B46C0000000E070DE4BC0000000E0FF3F8F4000000080DEE646C0000000001F574BC00C00000013000000A20A00003C00000006000000020000
310
000000000000408FC0000000805F5947C000000080E5AC4AC00000000000408FC000000020D8E646C0000000E01E574BC00C00000013000000AA0A00003C00000006000000020000000000000000408FC0000000805F5947C000000080E5AC4AC0000000E0FF3F8F40000000E0655947C000000080E5AC4AC00C0000001300
310
0000B20A00003C0000000600000002000000000000E0FF3F8F40000000E0655947C000000080E5AC4AC0000000E0FF3F8F4000000080DEE646C0000000001F574BC00C00000013000000BA0A00003C00000006000000020000000000000000408FC0000000C0EF3A4DC000000080639E3DC00000000000408FC0000000805F
310
5947C000000080E5AC4AC00C00000013000000C20A00003C00000006000000020000000000000000408FC0000000C0EF3A4DC000000080639E3DC0000000E0FF3F8F4000000000F63A4DC000000000639E3DC00C00000013000000CA0A00003C0000000600000002000000000000E0FF3F8F40000000E0655947C000000080
310
E5AC4AC0000000E0FF3F8F4000000000F63A4DC000000000639E3DC00C00000013000000D20A00003C00000006000000020000000000000000408FC0000000C0EF3A4DC000000080639E3DC00000000000408FC00000006001A44DC0000000802F3F3CC00C00000013000000DA0A00003C0000000600000002000000000000
310
0000408FC00000006001A44DC0000000802F3F3CC0000000E0FF3F8F40000000C007A44DC0000000802F3F3CC00C00000013000000E20A00003C0000000600000002000000000000E0FF3F8F4000000000F63A4DC000000000639E3DC0000000E0FF3F8F40000000C007A44DC0000000802F3F3CC00C00000013000000EA0A
310
00003C00000006000000020000000000000000408FC000000080A9274EC00000000070043BC00000000000408FC00000006001A44DC0000000802F3F3CC00C00000013000000F20A00003C00000006000000020000000000000000408FC000000080A9274EC00000000070043BC0000000E0FF3F8F40000000E0AF274EC000
310
00000070043BC00C00000013000000FA0A00003C0000000600000002000000000000E0FF3F8F40000000E0AF274EC00000000070043BC0000000E0FF3F8F40000000C007A44DC0000000802F3F3CC00C00000013000000020B00003C00000006000000020000000000000000408FC0000000005D8452C000000000BDF129C0
310
0000000000408FC000000080A9274EC00000000070043BC00C000000130000000A0B00003C00000006000000020000000000000000408FC0000000005D8452C000000000BDF129C0000000E0FF3F8F4000000040608452C000000000BDF129C00C00000013000000120B00003C0000000600000002000000000000E0FF3F8F
310
40000000E0AF274EC00000000070043BC0000000E0FF3F8F4000000040608452C000000000BDF129C00C000000130000001A0B00003C00000006000000020000000000000000408FC0000000005D8452C000000000BDF129C00000000000408FC0000000C0C2EE52C000000000103227C00C00000013000000220B00003C00
310
00000600000002000000000000E0FF3F8F4000000000C6EE52C000000000103227C00000000000408FC0000000C0C2EE52C000000000103227C00C000000130000002A0B00003C0000000600000002000000000000E0FF3F8F4000000040608452C000000000BDF129C0000000E0FF3F8F4000000000C6EE52C00000000010
310
3227C00C00000013000000320B00003C00000006000000020000000000000000408FC000000000806953C000000000253025C00000000000408FC0000000C0C2EE52C000000000103227C00C000000130000003A0B00003C0000000600000002000000000000E0FF3F8F4000000040836953C000000000253025C000000000
310
00408FC000000000806953C000000000253025C00C00000013000000420B00003C0000000600000002000000000000E0FF3F8F4000000000C6EE52C000000000103227C0000000E0FF3F8F4000000040836953C000000000253025C00C000000130000004A0B00003C00000006000000020000000000000000408FC0000000
310
202FEF53C000000000990224C00000000000408FC000000000806953C000000000253025C00C00000013000000520B00003C00000006000000020000000000000000408FC0000000202FEF53C000000000990224C0000000E0FF3F8F400000004032EF53C000000000990224C00C000000130000005A0B00003C0000000600
310
000002000000000000E0FF3F8F400000004032EF53C000000000990224C0000000E0FF3F8F4000000040836953C000000000253025C00C00000013000000620B00003C00000006000000020000000000000000408FC0000000C0C30756C000000000211B21C00000000000408FC0000000202FEF53C000000000990224C00C
310
000000130000006A0B00003C00000006000000020000000000000000408FC0000000C0C30756C000000000211B21C0000000E0FF3F8F40000000E0C60756C000000000211B21C00C00000013000000720B00003C0000000600000002000000000000E0FF3F8F400000004032EF53C000000000990224C0000000E0FF3F8F40
310
000000E0C60756C000000000211B21C00C000000130000007A0B00003C00000006000000020000000000000000408FC0000000C0C30756C000000000211B21C00000000000408FC000000040957156C000000000250C20C00C00000013000000820B00003C0000000600000002000000000000E0FF3F8F4000000060987156
310
C000000000250C20C00000000000408FC000000040957156C000000000250C20C00C000000130000008A0B00003C0000000600000002000000000000E0FF3F8F40000000E0C60756C000000000211B21C0000000E0FF3F8F4000000060987156C000000000250C20C00C00000013000000920B00003C000000060000000200
310
00000000000000408FC0000000A0F5CC56C000000000424C1CC00000000000408FC000000040957156C000000000250C20C00C000000130000009A0B00003C0000000600000002000000000000E0FF3F8F40000000C0F8CC56C000000000424C1CC00000000000408FC0000000A0F5CC56C000000000424C1CC00C00000013
310
000000A20B00003C0000000600000002000000000000E0FF3F8F4000000060987156C000000000250C20C0000000E0FF3F8F40000000C0F8CC56C000000000424C1CC00C00000013000000AA0B00003C00000006000000020000000000000000408FC0000000C0F51357C000000000C21A17C00000000000408FC0000000A0
310
F5CC56C000000000424C1CC00C00000013000000B20B00003C0000000600000002000000000000E0FF3F8F4000000000F91357C000000000C21A17C00000000000408FC0000000C0F51357C000000000C21A17C00C00000013000000BA0B00003C0000000600000002000000000000E0FF3F8F40000000C0F8CC56C0000000
310
00424C1CC0000000E0FF3F8F4000000000F91357C000000000C21A17C00C00000013000000C20B00003C00000006000000020000000000000000408FC000000040034157C00000000024EC10C00000000000408FC0000000C0F51357C000000000C21A17C00C00000013000000CA0B00003C00000006000000020000000000
310
00E0FF3F8F4000000080064157C00000000022EC10C00000000000408FC000000040034157C00000000024EC10C00C00000013000000D20B00003C0000000600000002000000000000E0FF3F8F4000000000F91357C000000000C21A17C0000000E0FF3F8F4000000080064157C00000000022EC10C00C00000013000000DA
310
0B00003C00000006000000020000000000000000408FC000000040995057C0000000009C5104C00000000000408FC000000040034157C00000000024EC10C00C00000013000000E20B00003C00000006000000020000000000000000408FC000000040995057C0000000009C5104C0000000E0FF3F8F40000000609C5057C0
310
000000009C5104C00C00000013000000EA0B00003C0000000600000002000000000000E0FF3F8F40000000609C5057C0000000009C5104C0000000E0FF3F8F4000000080064157C00000000022EC10C00C00000013000000F20B00003C00000006000000020000000000000000408FC0000000C0965057C00000000000C89F
310
BF0000000000408FC000000040995057C0000000009C5104C00C00000013000000FA0B00003C00000006000000020000000000000000408FC0000000C0965057C00000000000C89FBF000000E0FF3F8F40000000009A5057C00000000000CA9FBF0C00000013000000020C00003C0000000600000002000000000000E0FF3F
310
8F40000000609C5057C0000000009C5104C0000000E0FF3F8F40000000009A5057C00000000000CA9FBF0C000000130000000A0C00003C00000006000000020000000000000000408FC0000000C0060459C00000000000609FBF0000000000408FC0000000C0965057C00000000000C89FBF0C00000013000000120C00003C
310
00000006000000020000000000000000408FC0000000C0060459C00000000000609FBF000000E0FF3F8F40000000E0090459C00000000000629FBF0C000000130000001A0C00003C0000000600000002000000000000E0FF3F8F40000000E0090459C00000000000629FBF000000E0FF3F8F40000000009A5057C000000000
310
00CA9FBF0C00000013000000220C00003C00000006000000020000000000000000408FC0000000004EB959C0000000006055F3BF0000000000408FC0000000C0060459C00000000000609FBF0C000000130000002A0C00003C00000006000000020000000000000000408FC0000000004EB959C0000000006055F3BF000000
310
E0FF3F8F400000004051B959C0000000005855F3BF0C00000013000000320C00003C0000000600000002000000000000E0FF3F8F40000000E0090459C00000000000629FBF000000E0FF3F8F400000004051B959C0000000005855F3BF0C000000130000003A0C00003C00000006000000020000000000000000408FC00000
310
00004EB959C0000000006055F3BF0000000000408FC0000000C079EA59C00000000058A5F5BF0C00000013000000420C00003C00000006000000020000000000000000408FC0000000C079EA59C00000000058A5F5BF000000E0FF3F8F40000000E07CEA59C00000000058A5F5BF0C000000130000004A0C00003C00000006
310
00000002000000000000E0FF3F8F400000004051B959C0000000005855F3BF000000E0FF3F8F40000000E07CEA59C00000000058A5F5BF0C00000013000000520C00003C00000006000000020000000000000000408FC0000000802F1B5AC00000000070CEF2BF0000000000408FC0000000C079EA59C00000000058A5F5BF
310
0C000000130000005A0C00003C00000006000000020000000000000000408FC0000000802F1B5AC00000000070CEF2BF000000E0FF3F8F40000000A0321B5AC00000000068CEF2BF0C00000013000000620C00003C0000000600000002000000000000E0FF3F8F40000000E07CEA59C00000000058A5F5BF000000E0FF3F8F
310
40000000A0321B5AC00000000068CEF2BF0C000000130000006A0C00003C00000006000000020000000000000000408FC0000000C0DE425AC00000000090A0E6BF0000000000408FC0000000802F1B5AC00000000070CEF2BF0C00000013000000720C00003C00000006000000020000000000000000408FC0000000C0DE42
310
5AC00000000090A0E6BF000000E0FF3F8F4000000000E2425AC00000000090A0E6BF0C000000130000007A0C00003C0000000600000002000000000000E0FF3F8F40000000A0321B5AC00000000068CEF2BF000000E0FF3F8F4000000000E2425AC00000000090A0E6BF0C00000013000000820C00003C0000000600000002
310
0000000000000000408FC0000000C08C5A5AC000000000000E9FBF0000000000408FC0000000C0DE425AC00000000090A0E6BF0C000000130000008A0C00003C0000000600000002000000000000E0FF3F8F4000000000E2425AC00000000090A0E6BF000000E0FF3F8F4000000000905A5AC000000000000E9FBF0C000000
310
13000000920C00003C00000006000000020000000000000000408FC0000000A02B7F5CC000000000E46D25C00000000000408FC0000000802F1B5AC00000000070CEF2BF0C000000130000009A0C00003C00000006000000020000000000000000408FC0000000003A2A5AC0000000002C6E25C00000000000408FC0000000
310
C079EA59C00000000058A5F5BF0C00000013000000A20C00003C00000006000000020000000000000000408FC0000000A02B7F5CC000000000E46D25C00000000000408FC0000000C0DE425AC00000000090A0E6BF0C00000013000000AA0C00003C00000006000000020000000000000000408FC0000000004EB959C00000
310
00006055F3BF0000000000408FC000000040995057C0000000009C5104C00C00000013000000B20C00003C00000006000000020000000000000000408FC0000000003A2A5AC0000000002C6E25C00000000000408FC000000040034157C00000000024EC10C00C00000013000000BA0C00003C000000060000000200000000
310
00000000408FC000000000412A5AC000000000A0D631C00000000000408FC0000000C0F51357C000000000C21A17C00C00000013000000C20C00003C00000006000000020000000000000000408FC0000000C0FB9257C000000080C7D631C00000000000408FC0000000A0F5CC56C000000000424C1CC00C00000013000000
310
CA0C00003C00000006000000020000000000000000408FC0000000004A7356C000000000883632C00000000000408FC000000040957156C000000000250C20C00C00000013000000D20C00003C00000006000000020000000000000000408FC0000000004A7356C000000000883632C00000000000408FC0000000C0C30756
310
C000000000211B21C00C00000013000000DA0C00003C00000006000000020000000000000000408FC0000000A0318055C000000080A74B33C00000000000408FC0000000202FEF53C000000000990224C00C00000013000000E20C00003C00000006000000020000000000000000408FC00000008024B654C0000000802C09
310
35C00000000000408FC000000000806953C000000000253025C00C00000013000000EA0C00003C00000006000000020000000000000000408FC00000008024B654C0000000802C0935C00000000000408FC0000000C0C2EE52C000000000103227C00C00000013000000F20C00003C00000006000000020000000000000000
310
408FC0000000C0310C54C000000080718037C00000000000408FC0000000005D8452C000000000BDF129C00C00000013000000FA0C00003C00000006000000020000000000000000408FC000000080B48053C00000008065D73AC00000000000408FC0000000005D8452C000000000BDF129C00C00000013000000020D0000
310
3C00000006000000020000000000000000408FC0000000C0164953C00000008019D83CC00000000000408FC0000000005D8452C000000000BDF129C00C000000130000000A0D00003C00000006000000020000000000000000408FC000000020E41A53C0000000809F113FC00000000000408FC000000080A9274EC0000000
310
0070043BC00C00000013000000120D00003C00000006000000020000000000000000408FC0000000C017AE51C000000080B5113FC00000000000408FC00000006001A44DC0000000802F3F3CC00C000000130000001A0D00003C00000006000000020000000000000000408FC000000080508051C000000040475D42C00000
310
000000408FC0000000C0EF3A4DC000000080639E3DC00C00000013000000220D00003C00000006000000020000000000000000408FC000000080EC1451C000000080C37445C00000000000408FC0000000805F5947C000000080E5AC4AC00C000000130000002A0D00003C00000006000000020000000000000000408FC000
310
00008055CB50C000000040AF0A47C00000000000408FC0000000805F5947C000000080E5AC4AC00C00000013000000320D00003C00000006000000020000000000000000408FC000000040B81050C000000000A02C4AC00000000000408FC000000020D8E646C0000000E01E574BC00C000000130000003A0D00003C000000
310
06000000020000000000000000408FC000000060617550C0000000005BA648C00000000000408FC0000000805F5947C000000080E5AC4AC00C00000013000000420D00003C00000006000000020000000000000000408FC0000000809B104DC0000000804E234EC00000000000408FC000000000594B46C00000002071DE4B
310
C00C000000130000004A0D00003C00000006000000020000000000000000408FC0000000A0B0344EC0000000A01BEC4CC00000000000408FC000000020D8E646C0000000E01E574BC00C00000013000000520D00003C00000006000000020000000000000000408FC000000020053A4FC0000000C062994BC0000000000040
310
8FC000000020D8E646C0000000E01E574BC00C000000130000005A0D00003C00000006000000020000000000000000408FC0000000A00FCF4BC000000000753C4FC00000000000408FC000000000594B46C00000002071DE4BC00C00000013000000620D00003C00000006000000020000000000000000408FC00000004093
310
6E4AC000000040B91850C00000000000408FC000000000594B46C00000002071DE4BC00C000000130000006A0D00003C00000006000000020000000000000000408FC00000008086F248C000000080E28150C00000000000408FC0000000007B9145C0000000C0A1394CC00C00000013000000720D00003C00000006000000
310
020000000000000000408FC0000000E0234C44C0000000A0F05251C00000000000408FC0000000007B9145C0000000C0A1394CC00C000000130000007A0D00003C00000006000000020000000000000000408FC0000000403A6E47C000000020EDD850C00000000000408FC0000000007B9145C0000000C0A1394CC00C0000
310
0013000000820D00003C00000006000000020000000000000000408FC0000000C06C1841C000000060EE8F51C00000000000408FC00000008049653EC0000000E092624EC00C000000130000008A0D00003C00000006000000020000000000000000408FC0000000607B1841C000000020617853C00000000000408FC00000
310
0000D0FF39C0000000C0EB6D4FC00C00000013000000920D00003C00000006000000020000000000000000408FC00000000031DD38C0000000206A7853C00000000000408FC0000000C0E73836C0000000208A7950C00C000000130000009A0D00003C00000006000000020000000000000000408FC000000040921731C000
310
00002086A656C00000000000408FC000000000005A803F00000000F12556C00C00000013000000A20D00003C00000006000000020000000000000000408FC00000000031DD38C0000000206A7853C00000000000408FC000000040921731C00000002086A656C00C00000013000000AA0D00003C0000000600000002000000
310
0000000000408FC000000040921731C00000002086A656C00000000000408FC000000000D024D8BF000000C035A657C00C00000013000000B20D00003C00000006000000020000000000000000408FC000000040921731C00000002086A656C00000000000408FC000000000F040F4BF000000A080EC57C00C000000130000
310
00BA0D00003C00000006000000020000000000000000408FC000000040921731C00000002086A656C00000000000408FC00000000000F3EDBF000000A0FAC357C00C00000013000000C20D00003C00000006000000020000000000000000408FC00000000020B7F1BF00000040404558C00000000000408FC000000000DD63
310
13C00000006057AF5AC00C00000013000000CA0D00003C00000006000000020000000000000000408FC000000040921731C00000002086A656C00000000000408FC000000000DD6313C00000006057AF5AC00C00000013000000D20D00003C00000006000000020000000000000000408FC000000040921731C00000002086
310
A656C00000000000408FC0000000003837F5BF00000080DC1958C00C00000013000000DA0D00003C00000006000000020000000000000000408FC000000000D62B0CC0000000807E715AC00000000000408FC000000000A88EE4BF000000002A6858C00C00000013000000E20D00003C000000060000000200000000000000
310
00408FC000000040921731C00000002086A656C00000000000408FC000000000A17817C000000060F1005BC00C00000013000000EA0D00003C00000006000000020000000000000000408FC000000040921731C00000002086A656C00000000000408FC00000000031EB1AC0000000C066C75BC00C00000013000000F20D00
310
003C00000006000000020000000000000000408FC000000040921731C00000002086A656C00000000000408FC0000000008C0A1AC0000000408B605BC00C00000013000000FA0D00003C00000006000000020000000000000000408FC0000000009A1831C0000000A036DF63C00000000000408FC00000000015EE1AC00000
310
004010DF63C00C00000013000000020E00003C00000006000000020000000000000000408FC0000000009A1831C0000000A036DF63C00000000000408FC0000000005E4A1FC0000000408F8364C00C000000130000000A0E00003C00000006000000020000000000000000408FC0000000009A1831C0000000A036DF63C000
310
00000000408FC000000000B7EF1BC0000000E0862C64C00C00000013000000120E00003C00000006000000020000000000000000408FC0000000009A1831C0000000A036DF63C00000000000408FC0000000003C5622C0000000E038C964C00C000000130000001A0E00003C00000006000000020000000000000000408FC0
310
000000009A1831C0000000A036DF63C00000000000408FC00000000021A425C0000000402E0265C00C00000013000000220E00003C00000006000000020000000000000000408FC0000000006DFA3BC0000000E05A9C64C00000000000408FC000000000E0E82AC000000080674965C00C000000130000002A0E00003C0000
310
0006000000020000000000000000408FC0000000006DFA3BC0000000E05A9C64C00000000000408FC00000000083902FC000000080F18A65C00C00000013000000320E00003C00000006000000020000000000000000408FC0000000006DFA3BC0000000E05A9C64C00000000000408FC000000020D7CA30C00000004059B9
310
65C00C000000130000003A0E00003C00000006000000020000000000000000408FC000000000F7853EC0000000003F7166C00000000000408FC0000000804B8B31C0000000802A9466C00C00000013000000420E00003C00000006000000020000000000000000408FC000000020A0FA3BC000000040AD4366C00000000000
310
408FC0000000A0606931C000000080E94766C00C000000130000004A0E00003C00000006000000020000000000000000408FC0000000006DFA3BC0000000E05A9C64C00000000000408FC0000000801A5831C0000000C0F7F865C00C00000013000000520E00003C00000006000000020000000000000000408FC0000000C0
310
417340C0000000A0BDA166C00000000000408FC000000080A31332C00000008050C466C00C000000130000005A0E00003C00000006000000020000000000000000408FC000000000917A41C000000040A9D766C00000000000408FC00000008042D132C0000000E08FE566C00C00000013000000620E00003C000000060000
310
00020000000000000000408FC000000040EB4742C000000040451567C00000000000408FC0000000C00EEC34C000000040851E67C00C000000130000006A0E00003C00000006000000020000000000000000408FC00000004081D142C0000000C0DB5B67C00000000000408FC0000000C09A4637C0000000A0916067C00C00
310
000013000000720E00003C00000006000000020000000000000000408FC0000000A0EB1543C00000004052AB67C00000000000408FC000000080981C38C0000000C06D8C67C00C000000130000007A0E00003C00000006000000020000000000000000408FC0000000A0AB1843C0000000E0470168C00000000000408FC000
310
000080F28338C0000000C0FCBC67C00C00000013000000820E00003C00000006000000020000000000000000408FC0000000C0D9D542C000000040A65A68C00000000000408FC000000000E27E38C0000000003FF067C00C000000130000008A0E00003C00000006000000020000000000000000408FC000000040D64142C0
310
000000200FB368C00000000000408FC0000000007F0B38C000000040702368C00C00000013000000920E00003C00000006000000020000000000000000408FC0000000E0DE0341C0000000A0641869C00000000000408FC000000040901537C000000000E74F68C00C000000130000009A0E00003C00000006000000020000
310
000000000000408FC0000000403F3D3FC0000000800D6169C00000000000408FC0000000C000BB35C000000020EA7168C00C00000013000000A20E00003C00000006000000020000000000000000408FC00000008076DE3BC000000080E3A769C00000000000408FC000000060725133C0000000001D9368C00C0000001300
310
0000AA0E00003C00000006000000020000000000000000408FC0000000C0A94538C0000000E078F469C00000000000408FC0000000802B9430C00000000031AB68C00C00000013000000B20E00003C00000006000000020000000000000000408FC0000000C0A94538C0000000E078F469C00000000000408FC00000000039
310
A82CC0000000C0C7C368C00C00000013000000BA0E00003C00000006000000020000000000000000408FC0000000404FD534C0000000002D4C6AC00000000000408FC00000008026BF29C000000000EAE768C00C00000013000000C20E00003C00000006000000020000000000000000408FC000000080E6E320C000000040
310
74A169C00000000000408FC000000000F09BD8BF0000004088476BC00C00000013000000CA0E00003C00000006000000020000000000000000408FC00000000007B123C0000000206FC06CC00000000000408FC00000000038CAE4BF0000004082A86BC00C00000013000000D20E00003C0000000600000002000000000000
310
0000408FC00000000007B123C0000000206FC06CC00000000000408FC000000000ECD4F1BF000000800D976BC00C00000013000000DA0E00003C00000006000000020000000000000000408FC000000080B8B023C000000060CD7A6BC00000000000408FC0000000000055F5BF000000805B816BC00C00000013000000E20E
310
00003C00000006000000020000000000000000408FC000000080E6E320C00000004074A169C00000000000408FC000000000A02EEEBF000000806A566BC00C00000013000000EA0E00003C00000006000000020000000000000000408FC000000080B8B023C000000060CD7A6BC00000000000408FC000000000BC5EF4BF00
310
000080AD6A6BC00C00000013000000F20E00003C00000006000000020000000000000000408FC000000080B8B023C000000060CD7A6BC00000000000408FC000000080E6E320C00000004074A169C00C00000013000000FA0E00003C00000006000000020000000000000000408FC0000000007F042DC000000000CB7A6BC0
310
0000000000408FC000000080E6E320C00000004074A169C00C00000013000000020F00003C00000006000000020000000000000000408FC000000040B7482FC0000000207D216BC00000000000408FC000000080E6E320C00000004074A169C00C000000130000000A0F00003C00000006000000020000000000000000408F
310
C0000000209DDE31C0000000C06CB16AC00000000000408FC00000008094DF23C0000000C0097D69C00C00000013000000120F00003C00000006000000020000000000000000408FC0000000209DDE31C0000000C06CB16AC00000000000408FC0000000800E0626C0000000603D4C69C00C000000130000001A0F00003C00
310
000006000000020000000000000000408FC0000000404FD534C0000000002D4C6AC00000000000408FC000000000E4A427C000000080ED1769C00C00000013000000220F00003C0000000600000002000000000000E0FF3F8F40000000403D2A5AC0000000002B6E25C0000000E0FF3F8F40000000E07CEA59C00000000058
310
A5F5BF0C000000130000002A0F00003C0000000600000002000000000000E0FF3F8F40000000C02E7F5CC000000000E36D25C0000000E0FF3F8F40000000A0321B5AC00000000068CEF2BF0C00000013000000320F00003C0000000600000002000000000000E0FF3F8F40000000C02E7F5CC000000000E36D25C0000000E0
310
FF3F8F4000000000E2425AC00000000090A0E6BF0C000000130000003A0F00003C0000000600000002000000000000E0FF3F8F40000000403D2A5AC0000000002B6E25C0000000E0FF3F8F4000000080064157C00000000022EC10C00C00000013000000420F00003C0000000600000002000000000000E0FF3F8F40000000
310
4051B959C0000000005855F3BF000000E0FF3F8F40000000609C5057C0000000009C5104C00C000000130000004A0F00003C0000000600000002000000000000E0FF3F8F4000000020442A5AC000000000A0D631C0000000E0FF3F8F4000000000F91357C000000000C21A17C00C00000013000000520F00003C0000000600
310
000002000000000000E0FF3F8F4000000000FF9257C000000080C7D631C0000000E0FF3F8F40000000C0F8CC56C000000000424C1CC00C000000130000005A0F00003C0000000600000002000000000000E0FF3F8F40000000404D7356C000000000883632C0000000E0FF3F8F4000000060987156C000000000250C20C00C
310
00000013000000620F00003C0000000600000002000000000000E0FF3F8F40000000404D7356C000000000883632C0000000E0FF3F8F40000000E0C60756C000000000211B21C00C000000130000006A0F00003C0000000600000002000000000000E0FF3F8F40000000C0348055C000000080A74B33C0000000E0FF3F8F40
310
0000004032EF53C000000000990224C00C00000013000000720F00003C0000000600000002000000000000E0FF3F8F40000000A027B654C0000000802C0935C0000000E0FF3F8F4000000040836953C000000000253025C00C000000130000007A0F00003C0000000600000002000000000000E0FF3F8F40000000A027B654
310
C0000000802C0935C0000000E0FF3F8F4000000000C6EE52C000000000103227C00C00000013000000820F00003C0000000600000002000000000000E0FF3F8F40000000E0340C54C000000080718037C0000000E0FF3F8F4000000040608452C000000000BDF129C00C000000130000008A0F00003C000000060000000200
310
0000000000E0FF3F8F40000000A0B78053C00000008065D73AC0000000E0FF3F8F4000000040608452C000000000BDF129C00C00000013000000920F00003C0000000600000002000000000000E0FF3F8F40000000001A4953C00000008019D83CC0000000E0FF3F8F4000000040608452C000000000BDF129C00C00000013
310
0000009A0F00003C0000000600000002000000000000E0FF3F8F4000000040E71A53C0000000809F113FC0000000E0FF3F8F40000000E0AF274EC00000000070043BC00C00000013000000A20F00003C0000000600000002000000000000E0FF3F8F40000000001BAE51C000000080B5113FC0000000E0FF3F8F40000000C0
310
07A44DC0000000802F3F3CC00C00000013000000AA0F00003C0000000600000002000000000000E0FF3F8F40000000A0538051C000000040475D42C0000000E0FF3F8F4000000000F63A4DC000000000639E3DC00C00000013000000B20F00003C0000000600000002000000000000E0FF3F8F40000000A0EF1451C0000000
310
40C37445C0000000E0FF3F8F40000000E0655947C000000080E5AC4AC00C00000013000000BA0F00003C0000000600000002000000000000E0FF3F8F40000000C058CB50C000000040AF0A47C0000000E0FF3F8F40000000E0655947C000000080E5AC4AC00C00000013000000C20F00003C00000006000000020000000000
310
00E0FF3F8F4000000080647550C0000000C05AA648C0000000E0FF3F8F40000000E0655947C000000080E5AC4AC00C00000013000000CA0F00003C0000000600000002000000000000E0FF3F8F4000000080BB1050C000000000A02C4AC0000000E0FF3F8F4000000080DEE646C0000000001F574BC00C00000013000000D2
310
0F00003C0000000600000002000000000000E0FF3F8F4000000000B7344EC0000000C01BEC4CC0000000E0FF3F8F4000000080DEE646C0000000001F574BC00C00000013000000DA0F00003C0000000600000002000000000000E0FF3F8F40000000E0A1104DC0000000804E234EC0000000E0FF3F8F40000000605F4B46C0
310
000000E070DE4BC00C00000013000000E20F00003C0000000600000002000000000000E0FF3F8F40000000800B3A4FC0000000A062994BC0000000E0FF3F8F4000000080DEE646C0000000001F574BC00C00000013000000EA0F00003C0000000600000002000000000000E0FF3F8F400000000016CF4BC0000000E0743C4F
310
C0000000E0FF3F8F40000000605F4B46C0000000E070DE4BC00C00000013000000F20F00003C0000000600000002000000000000E0FF3F8F4000000080996E4AC000000040B91850C0000000E0FF3F8F40000000605F4B46C0000000E070DE4BC00C00000013000000FA0F00003C0000000600000002000000000000E0FF3F
310
8F40000000C08CF248C000000080E28150C0000000E0FF3F8F4000000060819145C0000000C0A1394CC00C00000013000000021000003C0000000600000002000000000000E0FF3F8F40000000A0406E47C000000040EDD850C0000000E0FF3F8F4000000060819145C0000000C0A1394CC00C000000130000000A1000003C
310
0000000600000002000000000000E0FF3F8F40000000202A4C44C000000080F05251C0000000E0FF3F8F4000000060819145C0000000C0A1394CC00C00000013000000121000003C0000000600000002000000000000E0FF3F8F4000000020731841C000000040EE8F51C0000000E0FF3F8F400000004056653EC0000000E0
310
92624EC00C000000130000001A1000003C0000000600000002000000000000E0FF3F8F40000000C0811841C000000000617853C0000000E0FF3F8F4000000080DCFF39C0000000C0EB6D4FC00C00000013000000221000003C0000000600000002000000000000E0FF3F8F40000000A03DDD38C0000000006A7853C0000000
310
E0FF3F8F4000000080F43836C0000000008A7950C00C000000130000002A1000003C0000000600000002000000000000E0FF3F8F40000000A03DDD38C0000000006A7853C0000000E0FF3F8F40000000009F1731C00000002086A656C00C00000013000000321000003C0000000600000002000000000000E0FF3F8F400000
310
00009F1731C00000002086A656C0000000E0FF3F8F400000000000E87F3F00000000F12556C00C000000130000003A1000003C0000000600000002000000000000E0FF3F8F40000000009F1731C00000002086A656C0000000E0FF3F8F40000000000028D8BF000000C035A657C00C00000013000000421000003C00000006
310
00000002000000000000E0FF3F8F40000000009F1731C00000002086A656C0000000E0FF3F8F400000000090F4EDBF000000A0FAC357C00C000000130000004A1000003C0000000600000002000000000000E0FF3F8F40000000009F1731C00000002086A656C0000000E0FF3F8F4000000000B841F4BF0000008080EC57C0
310
0C00000013000000521000003C0000000600000002000000000000E0FF3F8F40000000009F1731C00000002086A656C0000000E0FF3F8F40000000000038F5BF00000080DC1958C00C000000130000005A1000003C0000000600000002000000000000E0FF3F8F40000000009F1731C00000002086A656C0000000E0FF3F8F
310
40000000000F6413C00000004057AF5AC00C00000013000000621000003C0000000600000002000000000000E0FF3F8F4000000000E8B7F1BF00000040404558C0000000E0FF3F8F40000000000F6413C00000004057AF5AC00C000000130000006A1000003C0000000600000002000000000000E0FF3F8F40000000003C2C
310
0CC0000000807E715AC0000000E0FF3F8F40000000004090E4BF000000002A6858C00C00000013000000721000003C0000000600000002000000000000E0FF3F8F40000000009F1731C00000002086A656C0000000E0FF3F8F4000000000D47817C000000040F1005BC00C000000130000007A1000003C0000000600000002
310
000000000000E0FF3F8F40000000009F1731C00000002086A656C0000000E0FF3F8F4000000000BE0A1AC0000000408B605BC00C00000013000000821000003C0000000600000002000000000000E0FF3F8F40000000009F1731C00000002086A656C0000000E0FF3F8F400000000064EB1AC0000000C066C75BC00C000000
310
130000008A1000003C0000000600000002000000000000E0FF3F8F40000000A0A61831C00000008036DF63C0000000E0FF3F8F400000000047EE1AC00000004010DF63C00C00000013000000921000003C0000000600000002000000000000E0FF3F8F40000000A0A61831C00000008036DF63C0000000E0FF3F8F40000000
310
00EAEF1BC0000000C0862C64C00C000000130000009A1000003C0000000600000002000000000000E0FF3F8F40000000A0A61831C00000008036DF63C0000000E0FF3F8F4000000000904A1FC0000000408F8364C00C00000013000000A21000003C0000000600000002000000000000E0FF3F8F40000000A0A61831C00000
310
008036DF63C0000000E0FF3F8F4000000040555622C0000000C038C964C00C00000013000000AA1000003C0000000600000002000000000000E0FF3F8F40000000A0A61831C00000008036DF63C0000000E0FF3F8F40000000003AA425C0000000402E0265C00C00000013000000B21000003C000000060000000200000000
310
0000E0FF3F8F40000000C079FA3BC0000000E05A9C64C0000000E0FF3F8F4000000080F9E82AC000000080674965C00C00000013000000BA1000003C0000000600000002000000000000E0FF3F8F40000000C079FA3BC0000000E05A9C64C0000000E0FF3F8F40000000809C902FC000000080F18A65C00C00000013000000
310
C21000003C0000000600000002000000000000E0FF3F8F40000000C079FA3BC0000000E05A9C64C0000000E0FF3F8F40000000C0E3CA30C00000004059B965C00C00000013000000CA1000003C0000000600000002000000000000E0FF3F8F40000000E0ACFA3BC000000040AD4366C0000000E0FF3F8F40000000606D6931
310
C000000080E94766C00C00000013000000D21000003C0000000600000002000000000000E0FF3F8F40000000C003863EC0000000003F7166C0000000E0FF3F8F4000000020588B31C0000000802A9466C00C00000013000000DA1000003C0000000600000002000000000000E0FF3F8F40000000C079FA3BC0000000E05A9C
310
64C0000000E0FF3F8F4000000040275831C0000000C0F7F865C00C00000013000000E21000003C0000000600000002000000000000E0FF3F8F4000000020487340C000000080BDA166C0000000E0FF3F8F4000000020B01332C00000008050C466C00C00000013000000EA1000003C0000000600000002000000000000E0FF
310
3F8F4000000040977A41C000000040A9D766C0000000E0FF3F8F40000000404FD132C0000000C08FE566C00C00000013000000F21000003C0000000600000002000000000000E0FF3F8F40000000A0F14742C000000040451567C0000000E0FF3F8F40000000601BEC34C000000040851E67C00C00000013000000FA100000
310
3C0000000600000002000000000000E0FF3F8F400000008087D142C0000000C0DB5B67C0000000E0FF3F8F40000000A0A74637C0000000A0916067C00C00000013000000021100003C0000000600000002000000000000E0FF3F8F4000000000F21543C00000004052AB67C0000000E0FF3F8F4000000020A51C38C0000000
310
C06D8C67C00C000000130000000A1100003C0000000600000002000000000000E0FF3F8F4000000000B21843C0000000C0470168C0000000E0FF3F8F4000000060FF8338C0000000C0FCBC67C00C00000013000000121100003C0000000600000002000000000000E0FF3F8F4000000020E0D542C000000040A65A68C00000
310
00E0FF3F8F40000000C0EE7E38C0000000003FF067C00C000000130000001A1100003C0000000600000002000000000000E0FF3F8F40000000A0DC4142C0000000200FB368C0000000E0FF3F8F40000000C08B0B38C000000040702368C00C00000013000000221100003C0000000600000002000000000000E0FF3F8F4000
310
000040E50341C0000000A0641869C0000000E0FF3F8F40000000E09C1537C000000000E74F68C00C000000130000002A1100003C0000000600000002000000000000E0FF3F8F40000000004C3D3FC0000000800D6169C0000000E0FF3F8F40000000800DBB35C000000000EA7168C00C00000013000000321100003C000000
310
0600000002000000000000E0FF3F8F400000004083DE3BC000000080E3A769C0000000E0FF3F8F40000000007F5133C0000000001D9368C00C000000130000003A1100003C0000000600000002000000000000E0FF3F8F4000000080B64538C0000000E078F469C0000000E0FF3F8F4000000040389430C00000000031AB68
310
C00C00000013000000421100003C0000000600000002000000000000E0FF3F8F4000000080B64538C0000000E078F469C0000000E0FF3F8F400000004052A82CC0000000C0C7C368C00C000000130000004A1100003C0000000600000002000000000000E0FF3F8F40000000E05BD534C0000000002D4C6AC0000000E0FF3F
310
8F400000000040BF29C000000000EAE768C00C00000013000000521100003C0000000600000002000000000000E0FF3F8F400000000000E420C00000004074A169C0000000E0FF3F8F4000000000209FD8BF0000004088476BC00C000000130000005A1100003C0000000600000002000000000000E0FF3F8F400000008020
310
B123C0000000206FC06CC0000000E0FF3F8F4000000000D0CBE4BF0000004082A86BC00C00000013000000621100003C0000000600000002000000000000E0FF3F8F400000008020B123C0000000206FC06CC0000000E0FF3F8F4000000000B8D5F1BF000000800D976BC00C000000130000006A1100003C00000006000000
310
02000000000000E0FF3F8F4000000040D2B023C000000040CD7A6BC0000000E0FF3F8F4000000000C855F5BF000000805B816BC00C00000013000000721100003C0000000600000002000000000000E0FF3F8F4000000040D2B023C000000040CD7A6BC0000000E0FF3F8F400000000000E420C00000004074A169C00C0000
310
00130000007A1100003C0000000600000002000000000000E0FF3F8F4000000040D2B023C000000040CD7A6BC0000000E0FF3F8F4000000000885FF4BF00000080AD6A6BC00C00000013000000821100003C0000000600000002000000000000E0FF3F8F400000000000E420C00000004074A169C0000000E0FF3F8F400000
310
00003030EEBF000000806A566BC00C000000130000008A1100003C0000000600000002000000000000E0FF3F8F40000000C098042DC000000000CB7A6BC0000000E0FF3F8F400000000000E420C00000004074A169C00C00000013000000921100003C0000000600000002000000000000E0FF3F8F4000000080D0482FC000
310
0000007D216BC0000000E0FF3F8F400000000000E420C00000004074A169C00C000000130000009A1100003C0000000600000002000000000000E0FF3F8F40000000C0A9DE31C0000000C06CB16AC0000000E0FF3F8F4000000000280626C0000000403D4C69C00C00000013000000A21100003C0000000600000002000000
310
000000E0FF3F8F40000000C0A9DE31C0000000C06CB16AC0000000E0FF3F8F4000000080ADDF23C0000000C0097D69C00C00000013000000AA1100003C0000000600000002000000000000E0FF3F8F40000000E05BD534C0000000002D4C6AC0000000E0FF3F8F4000000040FDA427C000000080ED1769C0
100
AcDbSubDMesh
 71
     2
 72
     0
 91
        0
 92
      268
 10
-1000.0
 20
-113.9870376586914
 30
-10.71463012695312
 10
999.9999389648436
 20
-113.9872283935547
 30
-10.71462249755859
 10
999.9999389648436
 20
-104.6599884033203
 30
-10.71517181396484
 10
-1000.0
 20
-104.6597900390625
 30
-10.71517944335937
 10
999.9999389648436
 20
-104.6604080200195
 30
-17.83837890625
 10
-1000.0
 20
-104.6602172851562
 30
-17.83837890625
 10
999.9999389648436
 20
-94.29681396484374
 30
-17.83898162841797
 10
-1000.0
 20
-94.29661560058594
 30
-17.83898162841797
 10
-1000.0
 20
-76.42017364501953
 30
-31.06884002685547
 10
-1000.0
 20
-77.14201354980469
 30
-28.8441390991211
 10
-1000.0
 20
-78.01101684570312
 30
-26.84139251708984
 10
-1000.0
 20
-80.19053649902344
 30
-23.50173187255859
 10
-1000.0
 20
-82.84597778320312
 30
-21.03583526611328
 10
-1000.0
 20
-86.00302886962891
 30
-19.29552459716797
 10
-1000.0
 20
-89.8013916015625
 30
-18.2130126953125
 10
999.9999389648436
 20
-89.80158996582032
 30
-18.2130126953125
 10
999.9999389648436
 20
-86.00321960449219
 30
-19.29552459716797
 10
999.9999389648436
 20
-82.8461685180664
 30
-21.03583526611328
 10
999.9999389648436
 20
-80.19072723388672
 30
-23.50173187255859
 10
999.9999389648436
 20
-78.0112075805664
 30
-26.84139251708984
 10
999.9999389648436
 20
-77.1422119140625
 30
-28.8441390991211
 10
999.9999389648436
 20
-76.42036437988281
 30
-31.06884002685547
 10
999.9999389648436
 20
-70.72039794921875
 30
-31.06917572021484
 10
-1000.0
 20
-70.72019958496094
 30
-31.06917572021484
 10
-1000.0
 20
-34.19081878662109
 30
-70.24892425537109
 10
-1000.0
 20
-40.59484481811523
 30
-69.29593658447266
 10
-1000.0
 20
-46.86115264892578
 30
-67.38947296142578
 10
-1000.0
 20
-49.89472961425781
 30
-66.02944946289063
 10
-1000.0
 20
-52.8638687133789
 30
-64.38630676269531
 10
-1000.0
 20
-55.61766433715821
 30
-62.47232055664063
 10
-1000.0
 20
-58.12974548339844
 30
-60.27583312988281
 10
-1000.0
 20
-60.41164016723633
 30
-57.8445930480957
 10
-1000.0
 20
-62.45328140258789
 30
-55.19832611083984
 10
-1000.0
 20
-64.26124572753906
 30
-52.3486328125
 10
-1000.0
 20
-65.83406829833984
 30
-49.29965209960937
 10
-1000.0
 20
-67.17709350585938
 30
-46.0834732055664
 10
-1000.0
 20
-68.32693481445312
 30
-42.91221618652343
 10
-1000.0
 20
-70.00491333007812
 30
-36.72873687744141
 10
999.9999389648436
 20
-70.0051040649414
 30
-36.72873687744141
 10
999.9999389648436
 20
-68.3271255493164
 30
-42.9122085571289
 10
999.9999389648436
 20
-67.17729187011719
 30
-46.0834732055664
 10
999.9999389648436
 20
-65.83425903320312
 30
-49.29964447021484
 10
999.9999389648436
 20
-64.26144409179688
 30
-52.3486328125
 10
999.9999389648436
 20
-62.45347595214844
 30
-55.19832229614258
 10
999.9999389648436
 20
-60.41183471679687
 30
-57.84459686279297
 10
999.9999389648436
 20
-58.12994003295898
 30
-60.27583312988281
 10
999.9999389648436
 20
-55.61785888671875
 30
-62.47231674194336
 10
999.9999389648436
 20
-52.86405944824219
 30
-64.38630676269531
 10
999.9999389648436
 20
-49.89492034912109
 30
-66.02944946289063
 10
999.9999389648436
 20
-46.86134719848633
 30
-67.38948059082031
 10
999.9999389648436
 20
-40.59503555297851
 30
-69.29592895507813
 10
999.9999389648436
 20
-34.19101333618164
 30
-70.24891662597656
 10
999.9999389648436
 20
-34.19145965576172
 30
-77.88092041015625
 10
-1000.0
 20
-34.19126510620117
 30
-77.88092803955078
 10
999.9999389648436
 20
-24.86422157287598
 30
-77.8814697265625
 10
-1000.0
 20
-24.86402893066407
 30
-77.88147735595703
 10
999.9999389648436
 20
-24.86496925354004
 30
-90.60147094726563
 10
-1000.0
 20
-24.86477279663086
 30
-90.60147857666015
 10
999.9999389648436
 20
-17.09226989746094
 30
-90.60193634033202
 10
-1000.0
 20
-17.09207534790039
 30
-90.60193634033202
 10
999.9999389648436
 20
-17.09629249572754
 30
-158.9754028320312
 10
-1000.0
 20
-17.09609985351562
 30
-158.9754180908203
 10
999.9999389648436
 20
-27.97842025756836
 30
-164.8860931396484
 10
-1000.0
 20
-27.97822570800781
 30
-164.8860931396484
 10
999.9999389648436
 20
-27.97920036315918
 30
-178.1148986816406
 10
-1000.0
 20
-27.97900581359864
 30
-178.1148986816406
 10
-1000.0
 20
-14.50878143310547
 30
-219.8372802734375
 10
-1000.0
 20
-15.64202308654785
 30
-217.0465240478516
 10
-1000.0
 20
-17.86958503723144
 30
-213.5445251464844
 10
-1000.0
 20
-20.8332405090332
 30
-210.3804931640625
 10
-1000.0
 20
-24.27212142944336
 30
-207.6397552490234
 10
-1000.0
 20
-27.86899566650391
 30
-205.2465209960938
 10
-1000.0
 20
-31.23924636840821
 30
-203.0328979492188
 10
-1000.0
 20
-34.03023910522461
 30
-200.7622833251953
 10
-1000.0
 20
-36.51435089111328
 30
-197.5955963134765
 10
-1000.0
 20
-37.67070770263672
 30
-194.8327941894531
 10
-1000.0
 20
-38.19273757934571
 30
-192.0400238037109
 10
-1000.0
 20
-38.1712532043457
 30
-189.3537902832031
 10
-1000.0
 20
-37.63675689697266
 30
-186.8705749511718
 10
-1000.0
 20
-36.56186676025391
 30
-184.6647033691406
 10
-1000.0
 20
-34.95755004882813
 30
-182.7394104003906
 10
-1000.0
 20
-32.90044403076172
 30
-181.0543975830078
 10
-1000.0
 20
-30.52330017089844
 30
-179.5389404296875
 10
999.9999389648436
 20
-30.52349472045899
 30
-179.5389404296875
 10
999.9999389648436
 20
-32.90063858032227
 30
-181.0543823242187
 10
999.9999389648436
 20
-34.95774078369141
 30
-182.7394104003906
 10
999.9999389648436
 20
-36.56206130981445
 30
-184.6647033691406
 10
999.9999389648436
 20
-37.63694763183594
 30
-186.8705749511718
 10
999.9999389648436
 20
-38.17144775390625
 30
-189.3537902832031
 10
999.9999389648436
 20
-38.19293212890625
 30
-192.0400085449218
 10
999.9999389648436
 20
-37.67090225219727
 30
-194.8327941894531
 10
999.9999389648436
 20
-36.51454544067383
 30
-197.5955963134765
 10
999.9999389648436
 20
-34.03043365478516
 30
-200.7622833251953
 10
999.9999389648436
 20
-31.23944091796875
 30
-203.0328979492188
 10
999.9999389648436
 20
-27.86919021606446
 30
-205.2465209960938
 10
999.9999389648436
 20
-24.27231597900391
 30
-207.6397552490234
 10
999.9999389648436
 20
-20.83343315124512
 30
-210.3804931640625
 10
999.9999389648436
 20
-17.86977767944336
 30
-213.5445251464844
 10
999.9999389648436
 20
-15.64221572875976
 30
-217.0465087890625
 10
999.9999389648436
 20
-14.50897789001465
 30
-219.8372802734375
 10
999.9999389648436
 20
-9.845354080200195
 30
-219.8375549316406
 10
-1000.0
 20
-9.845157623291015
 30
-219.8375701904297
 10
999.9999389648436
 20
-9.845951080322265
 30
-230.0135650634766
 10
-1000.0
 20
-9.845756530761718
 30
-230.0135650634766
 10
-1000.0
 20
-74.06817626953125
 30
-12.9721450805664
 10
-1000.0
 20
-60.30986022949218
 30
-27.017333984375
 10
999.9999389648436
 20
-60.31005477905273
 30
-27.017333984375
 10
999.9999389648436
 20
-74.06837463378906
 30
-12.9721450805664
 10
-1000.0
 20
-22.22228622436523
 30
-65.89905548095703
 10
-1000.0
 20
0.0079841613769531
 30
-88.59283447265625
 10
999.9999389648436
 20
0.0077896118164063
 30
-88.59283447265625
 10
999.9999389648436
 20
-22.22248077392578
 30
-65.8990478515625
 10
-1000.0
 20
0.0070877075195313
 30
-103.8568344116211
 10
-1000.0
 20
-3.521404266357421
 30
-105.7733459472656
 10
999.9999389648436
 20
-3.521598815917968
 30
-105.7733459472656
 10
999.9999389648436
 20
0.0068931579589844
 30
-103.8568344116211
 10
-1000.0
 20
-6.729679107666015
 30
-111.1156463623047
 10
-1000.0
 20
-6.732501983642578
 30
-158.9707336425781
 10
999.9999389648436
 20
-6.732692718505859
 30
-158.9707336425781
 10
999.9999389648436
 20
-6.729873657226562
 30
-111.1156463623047
 10
-1000.0
 20
-16.57878875732422
 30
-197.3497314453125
 10
999.9999389648436
 20
-16.57898330688476
 30
-197.3497314453125
 10
999.9999389648436
 20
-19.31834411621094
 30
-196.5972900390625
 10
999.9999389648436
 20
-21.73067474365234
 30
-195.559814453125
 10
999.9999389648436
 20
-23.08442497253418
 30
-194.4969482421875
 10
999.9999389648436
 20
-24.04510116577148
 30
-193.1074523925781
 10
999.9999389648436
 20
-24.49583053588867
 30
-191.5076904296875
 10
999.9999389648436
 20
-24.51561546325684
 30
-189.9058532714843
 10
999.9999389648436
 20
-24.11189460754395
 30
-188.3883972167969
 10
999.9999389648436
 20
-23.2759952545166
 30
-187.0177764892578
 10
999.9999389648436
 20
-20.92229270935058
 30
-184.9537658691406
 10
999.9999389648436
 20
-18.8176155090332
 30
-183.1737976074218
 10
999.9999389648436
 20
-18.07690620422363
 30
-182.1348266601562
 10
999.9999389648436
 20
-17.54431343078613
 30
-180.6301879882812
 10
999.9999389648436
 20
-17.41182518005371
 30
-178.2472534179687
 10
999.9999389648436
 20
-17.3443489074707
 30
-175.7802429199218
 10
999.9999389648436
 20
-16.79253768920898
 30
-173.7921447753906
 10
999.9999389648436
 20
-15.78244400024414
 30
-172.3419799804687
 10
999.9999389648436
 20
-13.45502853393554
 30
-170.2938842773437
 10
999.9999389648436
 20
-10.82075500488281
 30
-168.0681457519531
 10
999.9999389648436
 20
-9.168619155883789
 30
-166.2881774902343
 10
999.9999389648436
 20
-7.82281494140625
 30
-164.1112365722656
 10
999.9999389648436
 20
-6.984291076660156
 30
-161.3914489746093
 10
-1000.0
 20
-6.984096527099609
 30
-161.3914642333984
 10
-1000.0
 20
-7.822624206542968
 30
-164.1112365722656
 10
-1000.0
 20
-9.168426513671875
 30
-166.2881927490234
 10
-1000.0
 20
-10.82056427001953
 30
-168.0681457519531
 10
-1000.0
 20
-13.454833984375
 30
-170.2938842773437
 10
-1000.0
 20
-15.78224945068359
 30
-172.3419799804687
 10
-1000.0
 20
-16.79234504699707
 30
-173.7921447753906
 10
-1000.0
 20
-17.34415435791015
 30
-175.7802429199218
 10
-1000.0
 20
-17.41163063049316
 30
-178.2472534179687
 10
-1000.0
 20
-17.54412078857422
 30
-180.6301879882812
 10
-1000.0
 20
-18.07671356201172
 30
-182.1348266601562
 10
-1000.0
 20
-18.81742095947265
 30
-183.1738128662109
 10
-1000.0
 20
-20.92210006713867
 30
-184.9537658691406
 10
-1000.0
 20
-23.27579879760742
 30
-187.0177764892578
 10
-1000.0
 20
-24.11170196533203
 30
-188.3883972167969
 10
-1000.0
 20
-24.51541900634766
 30
-189.9058532714843
 10
-1000.0
 20
-24.49563598632813
 30
-191.5076904296875
 10
-1000.0
 20
-24.04490661621094
 30
-193.1074523925781
 10
-1000.0
 20
-23.08423233032227
 30
-194.4969482421875
 10
-1000.0
 20
-21.7304801940918
 30
-195.559829711914
 10
-1000.0
 20
-19.31815147399902
 30
-196.5972900390625
 10
-1000.0
 20
-11.82205200195312
 30
-200.7477416992188
 10
-1000.0
 20
-11.0118293762207
 30
-202.3824920654297
 10
999.9999389648436
 20
-11.01202392578125
 30
-202.3824768066406
 10
999.9999389648436
 20
-11.82224464416504
 30
-200.7477416992188
 10
-1000.0
 20
-8.445117950439453
 30
-205.0454406738281
 10
-1000.0
 20
0.0008621215820313
 30
-209.6621551513672
 10
999.9999389648436
 20
0.0006637573242188
 30
-209.6621398925781
 10
999.9999389648436
 20
-8.4453125
 30
-205.0454406738281
 10
-1000.0
 20
-102.8953857421875
 30
-1.208343505859375
 10
-1000.0
 20
-100.0629119873047
 30
-0.0306396484375
 10
999.9999389648436
 20
-100.0631027221679
 30
-0.0306472778320313
 10
999.9999389648436
 20
-102.8955841064453
 30
-1.208335876464843
 10
-1000.0
 20
-105.4148406982422
 30
-0.0303268432617188
 10
-1000.0
 20
-105.0448455810547
 30
-0.7070999145507813
 10
-1000.0
 20
-104.4247741699219
 30
-1.175399780273437
 10
-1000.0
 20
-103.6636810302734
 30
-1.352867126464843
 10
999.9999389648436
 20
-103.6638717651367
 30
-1.352867126464843
 10
999.9999389648436
 20
-104.4249649047851
 30
-1.175392150878906
 10
999.9999389648436
 20
-105.0450439453125
 30
-0.7070999145507813
 10
999.9999389648436
 20
-105.4150390625
 30
-0.0303268432617188
 10
-1000.0
 20
0.0076446533203125
 30
-94.38797760009766
 10
-1000.0
 20
-0.3772468566894531
 30
-94.59703063964843
 10
999.9999389648436
 20
-0.37744140625
 30
-94.59703063964843
 10
999.9999389648436
 20
0.0074462890625
 30
-94.38797760009766
 10
-1000.0
 20
-0.9359130859375
 30
-95.06217193603516
 10
-1000.0
 20
-1.265853881835937
 30
-95.69535064697266
 10
-1000.0
 20
-1.325981140136718
 30
-96.40408325195313
 10
-1000.0
 20
-1.107208251953125
 30
-97.08204650878906
 10
-1000.0
 20
-0.6424140930175782
 30
-97.6275634765625
 10
-1000.0
 20
0.0074348449707031
 30
-97.95939636230469
 10
999.9999389648436
 20
0.0072402954101563
 30
-97.95939636230469
 10
999.9999389648436
 20
-0.642608642578125
 30
-97.6275634765625
 10
999.9999389648436
 20
-1.107398986816406
 30
-97.08204650878906
 10
999.9999389648436
 20
-1.326171875
 30
-96.40408325195313
 10
999.9999389648436
 20
-1.266044616699218
 30
-95.69534301757812
 10
999.9999389648436
 20
-0.9361038208007812
 30
-95.06217193603516
 10
-1000.0
 20
0.0003700256347656
 30
-218.0263214111328
 10
-1000.0
 20
-0.3845176696777344
 30
-218.2353820800781
 10
999.9999389648436
 20
-0.3847122192382812
 30
-218.2353820800781
 10
999.9999389648436
 20
0.0001754760742188
 30
-218.0263214111328
 10
-1000.0
 20
-0.9431915283203125
 30
-218.7005004882812
 10
-1000.0
 20
-1.273128509521484
 30
-219.3336791992187
 10
-1000.0
 20
-1.333251953125
 30
-220.0424194335937
 10
-1000.0
 20
-1.114482879638671
 30
-220.7203979492188
 10
-1000.0
 20
-0.6496849060058594
 30
-221.2658996582031
 10
-1000.0
 20
0.0001564025878906
 30
-221.5977478027344
 10
999.9999389648436
 20
-0.0000381469726563
 30
-221.5977478027344
 10
999.9999389648436
 20
-0.6498794555664063
 30
-221.2658996582031
 10
999.9999389648436
 20
-1.114677429199218
 30
-220.7203979492188
 10
999.9999389648436
 20
-1.333442687988281
 30
-220.0424194335937
 10
999.9999389648436
 20
-1.273323059082031
 30
-219.3336791992187
 10
999.9999389648436
 20
-0.9433822631835937
 30
-218.7005004882812
 10
-1000.0
 20
-58.46044158935547
 30
-29.61870574951172
 10
-1000.0
 20
-46.69822692871093
 30
-53.35075378417968
 10
999.9999389648436
 20
-46.69842147827148
 30
-53.35075378417968
 10
999.9999389648436
 20
-58.46063232421875
 30
-29.61869812011719
 10
-1000.0
 20
-43.13656616210937
 30
-56.45024871826172
 10
-1000.0
 20
-30.39565277099609
 30
-60.77010726928711
 10
999.9999389648436
 20
-30.39584732055664
 30
-60.77010726928711
 10
999.9999389648436
 20
-43.13676071166992
 30
-56.45024871826172
 10
-1000.0
 20
-93.25920104980468
 30
-0.031036376953125
 10
-1000.0
 20
-93.25935363769531
 30
-2.539848327636718
 10
999.9999389648436
 20
-93.25954437255859
 30
-2.539848327636718
 10
999.9999389648436
 20
-93.2593994140625
 30
-0.0310440063476563
 10
-1000.0
 20
-88.12132263183594
 30
-8.552986145019531
 10
-1000.0
 20
-79.73725128173828
 30
-10.00507354736328
 10
999.9999389648436
 20
-79.73744201660156
 30
-10.00507354736328
 10
999.9999389648436
 20
-88.12151336669922
 30
-8.552986145019531
 10
999.9999389648436
 20
-89.7749252319336
 30
-8.023719787597656
 10
999.9999389648436
 20
-91.20268249511719
 30
-7.074470520019531
 10
999.9999389648436
 20
-92.31207275390625
 30
-5.776130676269531
 10
999.9999389648436
 20
-93.01602172851563
 30
-4.230598449707031
 10
-1000.0
 20
-93.01582336425781
 30
-4.230606079101562
 10
-1000.0
 20
-92.31187438964843
 30
-5.776130676269531
 10
-1000.0
 20
-91.2024917602539
 30
-7.074470520019531
 10
-1000.0
 20
-89.77473449707032
 30
-8.023719787597656
 10
999.9999389648436
 20
-44.58884811401367
 30
-55.73781967163085
 10
999.9999389648436
 20
-45.80366516113281
 30
-54.68063354492187
 10
-1000.0
 20
-45.80347061157226
 30
-54.68062973022461
 10
-1000.0
 20
-44.58865356445312
 30
-55.73782730102539
 10
999.9999389648436
 20
-6.510490417480468
 30
-109.5084991455078
 10
999.9999389648436
 20
-5.867996215820312
 30
-108.0147247314453
 10
999.9999389648436
 20
-4.847713470458984
 30
-106.7397003173828
 10
-1000.0
 20
-4.847522735595703
 30
-106.7397079467773
 10
-1000.0
 20
-5.867801666259765
 30
-108.0147323608398
 10
-1000.0
 20
-6.510299682617187
 30
-109.5084991455078
 10
999.9999389648436
 20
-9.936870574951171
 30
-203.9074401855469
 10
-1000.0
 20
-9.93667984008789
 30
-203.9074401855469
 10
999.9999389648436
 20
-12.87353515625
 30
-199.247314453125
 10
999.9999389648436
 20
-14.32875251770019
 30
-198.1181335449218
 10
-1000.0
 20
-14.32855987548828
 30
-198.1181335449218
 10
-1000.0
 20
-12.87334060668945
 30
-199.247314453125
 10
999.9999389648436
 20
-25.99945831298828
 30
-62.85875701904297
 10
-1000.0
 20
-25.999267578125
 30
-62.85875701904297
 10
999.9999389648436
 20
-75.7308349609375
 30
-11.5977783203125
 10
999.9999389648436
 20
-77.64863586425781
 30
-10.59403228759765
 10
-1000.0
 20
-77.6484375
 30
-10.59403228759765
 10
-1000.0
 20
-75.73063659667969
 30
-11.5977783203125
 10
-1000.0
 20
-59.28129196166992
 30
-28.24681854248047
 10
999.9999389648436
 20
-59.28148651123047
 30
-28.24681854248047
 10
-1000.0
 20
-0.0003318786621094
 30
-230.01416015625
 10
999.9999389648436
 20
-0.0005264282226563
 30
-230.01416015625
 10
-1000.0
 20
-113.9864196777343
 30
-0.0298233032226563
 10
999.9999389648436
 20
-113.9866104125976
 30
-0.0298309326171875
 93
     1432
 90
        4
 90
      176
 90
      266
 90
      267
 90
      183
 90
        4
 90
      266
 90
        0
 90
        1
 90
      267
 90
        4
 90
        0
 90
        3
 90
        2
 90
        1
 90
        4
 90
        3
 90
        5
 90
        4
 90
        2
 90
        4
 90
        5
 90
        7
 90
        6
 90
        4
 90
        4
 90
        7
 90
       14
 90
       15
 90
        6
 90
        4
 90
       14
 90
       13
 90
       16
 90
       15
 90
        4
 90
       13
 90
       12
 90
       17
 90
       16
 90
        4
 90
       12
 90
       11
 90
       18
 90
       17
 90
        4
 90
       11
 90
       10
 90
       19
 90
       18
 90
        4
 90
       10
 90
        9
 90
       20
 90
       19
 90
        4
 90
        9
 90
        8
 90
       21
 90
       20
 90
        4
 90
        8
 90
       23
 90
       22
 90
       21
 90
        4
 90
       23
 90
       37
 90
       38
 90
       22
 90
        4
 90
       37
 90
       36
 90
       39
 90
       38
 90
        4
 90
       36
 90
       35
 90
       40
 90
       39
 90
        4
 90
       35
 90
       34
 90
       41
 90
       40
 90
        4
 90
       34
 90
       33
 90
       42
 90
       41
 90
        4
 90
       33
 90
       32
 90
       43
 90
       42
 90
        4
 90
       32
 90
       31
 90
       44
 90
       43
 90
        4
 90
       31
 90
       30
 90
       45
 90
       44
 90
        4
 90
       30
 90
       29
 90
       46
 90
       45
 90
        4
 90
       29
 90
       28
 90
       47
 90
       46
 90
        4
 90
       28
 90
       27
 90
       48
 90
       47
 90
        4
 90
       27
 90
       26
 90
       49
 90
       48
 90
        4
 90
       26
 90
       25
 90
       50
 90
       49
 90
        4
 90
       25
 90
       24
 90
       51
 90
       50
 90
        4
 90
       24
 90
       53
 90
       52
 90
       51
 90
        4
 90
       53
 90
       55
 90
       54
 90
       52
 90
        4
 90
       55
 90
       57
 90
       56
 90
       54
 90
        4
 90
       57
 90
       59
 90
       58
 90
       56
 90
        4
 90
       59
 90
       61
 90
       60
 90
       58
 90
        4
 90
       61
 90
       63
 90
       62
 90
       60
 90
        4
 90
       63
 90
       65
 90
       64
 90
       62
 90
        4
 90
       65
 90
       82
 90
       83
 90
       64
 90
        4
 90
       82
 90
       81
 90
       84
 90
       83
 90
        4
 90
       81
 90
       80
 90
       85
 90
       84
 90
        4
 90
       80
 90
       79
 90
       86
 90
       85
 90
        4
 90
       79
 90
       78
 90
       87
 90
       86
 90
        4
 90
       78
 90
       77
 90
       88
 90
       87
 90
        4
 90
       77
 90
       76
 90
       89
 90
       88
 90
        4
 90
       76
 90
       75
 90
       90
 90
       89
 90
        4
 90
       75
 90
       74
 90
       91
 90
       90
 90
        4
 90
       74
 90
       73
 90
       92
 90
       91
 90
        4
 90
       73
 90
       72
 90
       93
 90
       92
 90
        4
 90
       72
 90
       71
 90
       94
 90
       93
 90
        4
 90
       71
 90
       70
 90
       95
 90
       94
 90
        4
 90
       70
 90
       69
 90
       96
 90
       95
 90
        4
 90
       69
 90
       68
 90
       97
 90
       96
 90
        4
 90
       68
 90
       67
 90
       98
 90
       97
 90
        4
 90
       67
 90
       66
 90
       99
 90
       98
 90
        4
 90
       66
 90
      101
 90
      100
 90
       99
 90
        4
 90
      101
 90
      103
 90
      102
 90
      100
 90
        4
 90
      103
 90
      264
 90
      265
 90
      102
 90
        4
 90
      264
 90
      209
 90
      210
 90
      265
 90
        4
 90
      209
 90
      208
 90
      211
 90
      210
 90
        4
 90
      208
 90
      207
 90
      212
 90
      211
 90
        4
 90
      207
 90
      206
 90
      213
 90
      212
 90
        4
 90
      206
 90
      205
 90
      214
 90
      213
 90
        4
 90
      205
 90
      204
 90
      215
 90
      214
 90
        4
 90
      204
 90
      201
 90
      202
 90
      215
 90
        4
 90
      201
 90
      200
 90
      203
 90
      202
 90
        4
 90
      200
 90
      169
 90
      170
 90
      203
 90
        4
 90
      169
 90
      168
 90
      171
 90
      170
 90
        4
 90
      168
 90
      251
 90
      250
 90
      171
 90
        4
 90
      251
 90
      165
 90
      166
 90
      250
 90
        4
 90
      165
 90
      164
 90
      167
 90
      166
 90
        4
 90
      164
 90
      255
 90
      252
 90
      167
 90
        4
 90
      255
 90
      254
 90
      253
 90
      252
 90
        4
 90
      254
 90
      120
 90
      121
 90
      253
 90
        4
 90
      120
 90
      163
 90
      122
 90
      121
 90
        4
 90
      163
 90
      162
 90
      123
 90
      122
 90
        4
 90
      162
 90
      161
 90
      124
 90
      123
 90
        4
 90
      161
 90
      160
 90
      125
 90
      124
 90
        4
 90
      160
 90
      159
 90
      126
 90
      125
 90
        4
 90
      159
 90
      158
 90
      127
 90
      126
 90
        4
 90
      158
 90
      157
 90
      128
 90
      127
 90
        4
 90
      157
 90
      156
 90
      129
 90
      128
 90
        4
 90
      156
 90
      155
 90
      130
 90
      129
 90
        4
 90
      155
 90
      154
 90
      131
 90
      130
 90
        4
 90
      154
 90
      153
 90
      132
 90
      131
 90
        4
 90
      153
 90
      152
 90
      133
 90
      132
 90
        4
 90
      152
 90
      151
 90
      134
 90
      133
 90
        4
 90
      151
 90
      150
 90
      135
 90
      134
 90
        4
 90
      150
 90
      149
 90
      136
 90
      135
 90
        4
 90
      149
 90
      148
 90
      137
 90
      136
 90
        4
 90
      148
 90
      147
 90
      138
 90
      137
 90
        4
 90
      147
 90
      146
 90
      139
 90
      138
 90
        4
 90
      146
 90
      145
 90
      140
 90
      139
 90
        4
 90
      145
 90
      144
 90
      141
 90
      140
 90
        4
 90
      144
 90
      143
 90
      142
 90
      141
 90
        4
 90
      143
 90
      117
 90
      118
 90
      142
 90
        4
 90
      117
 90
      116
 90
      119
 90
      118
 90
        4
 90
      116
 90
      249
 90
      244
 90
      119
 90
        4
 90
      249
 90
      248
 90
      245
 90
      244
 90
        4
 90
      248
 90
      247
 90
      246
 90
      245
 90
        4
 90
      247
 90
      113
 90
      114
 90
      246
 90
        4
 90
      113
 90
      112
 90
      115
 90
      114
 90
        4
 90
      112
 90
      193
 90
      194
 90
      115
 90
        4
 90
      193
 90
      192
 90
      195
 90
      194
 90
        4
 90
      192
 90
      191
 90
      196
 90
      195
 90
        4
 90
      191
 90
      190
 90
      197
 90
      196
 90
        4
 90
      190
 90
      189
 90
      198
 90
      197
 90
        4
 90
      189
 90
      188
 90
      199
 90
      198
 90
        4
 90
      188
 90
      185
 90
      186
 90
      199
 90
        4
 90
      185
 90
      184
 90
      187
 90
      186
 90
        4
 90
      184
 90
      109
 90
      110
 90
      187
 90
        4
 90
      109
 90
      108
 90
      111
 90
      110
 90
        4
 90
      108
 90
      257
 90
      256
 90
      111
 90
        4
 90
      257
 90
      221
 90
      222
 90
      256
 90
        4
 90
      221
 90
      220
 90
      223
 90
      222
 90
        4
 90
      220
 90
      243
 90
      240
 90
      223
 90
        4
 90
      243
 90
      242
 90
      241
 90
      240
 90
        4
 90
      242
 90
      217
 90
      218
 90
      241
 90
        4
 90
      217
 90
      216
 90
      219
 90
      218
 90
        4
 90
      216
 90
      262
 90
      263
 90
      219
 90
        4
 90
      262
 90
      105
 90
      106
 90
      263
 90
        4
 90
      105
 90
      104
 90
      107
 90
      106
 90
        4
 90
      104
 90
      261
 90
      258
 90
      107
 90
        4
 90
      261
 90
      260
 90
      259
 90
      258
 90
        4
 90
      260
 90
      229
 90
      230
 90
      259
 90
        4
 90
      229
 90
      228
 90
      231
 90
      230
 90
        4
 90
      228
 90
      239
 90
      232
 90
      231
 90
        4
 90
      239
 90
      238
 90
      233
 90
      232
 90
        4
 90
      238
 90
      237
 90
      234
 90
      233
 90
        4
 90
      237
 90
      236
 90
      235
 90
      234
 90
        4
 90
      236
 90
      225
 90
      226
 90
      235
 90
        4
 90
      225
 90
      224
 90
      227
 90
      226
 90
        4
 90
      224
 90
      173
 90
      174
 90
      227
 90
        4
 90
      173
 90
      172
 90
      175
 90
      174
 90
        4
 90
      172
 90
      179
 90
      180
 90
      175
 90
        4
 90
      179
 90
      178
 90
      181
 90
      180
 90
        4
 90
      178
 90
      177
 90
      182
 90
      181
 90
        4
 90
      177
 90
      176
 90
      183
 90
      182
 90
        4
 90
        0
 90
      178
 90
      179
 90
        3
 90
        4
 90
        0
 90
      266
 90
      176
 90
      177
 90
        3
 90
        0
 90
      177
 90
      178
 90
        5
 90
      179
 90
      172
 90
      225
 90
      236
 90
        3
 90
        4
 90
      172
 90
      173
 90
      224
 90
      225
 90
        4
 90
      236
 90
      237
 90
        5
 90
        3
 90
        4
 90
      237
 90
      238
 90
        7
 90
        5
 90
        4
 90
      238
 90
      239
 90
       14
 90
        7
 90
        3
 90
      239
 90
      228
 90
       14
 90
        4
 90
      228
 90
      229
 90
       13
 90
       14
 90
        4
 90
      229
 90
      260
 90
       12
 90
       13
 90
        3
 90
      260
 90
      261
 90
       12
 90
        4
 90
      261
 90
      104
 90
       11
 90
       12
 90
        3
 90
      104
 90
       10
 90
       11
 90
        3
 90
      104
 90
        9
 90
       10
 90
        4
 90
      104
 90
      105
 90
        8
 90
        9
 90
        4
 90
      105
 90
      262
 90
       23
 90
        8
 90
        4
 90
      262
 90
      216
 90
       37
 90
       23
 90
        4
 90
      216
 90
      217
 90
       36
 90
       37
 90
        3
 90
      217
 90
       35
 90
       36
 90
        4
 90
      217
 90
      242
 90
       33
 90
       34
 90
        3
 90
      217
 90
       34
 90
       35
 90
        4
 90
      242
 90
      243
 90
       30
 90
       31
 90
        3
 90
      242
 90
       31
 90
       32
 90
        3
 90
      242
 90
       32
 90
       33
 90
        3
 90
      243
 90
       29
 90
       30
 90
        3
 90
      243
 90
       28
 90
       29
 90
        4
 90
      243
 90
      220
 90
       27
 90
       28
 90
        3
 90
      220
 90
       25
 90
       26
 90
        3
 90
      220
 90
       26
 90
       27
 90
        4
 90
      220
 90
      221
 90
       24
 90
       25
 90
        4
 90
      221
 90
      257
 90
       53
 90
       24
 90
        4
 90
      257
 90
      108
 90
       55
 90
       53
 90
        4
 90
      108
 90
      109
 90
       59
 90
       55
 90
        4
 90
      109
 90
      184
 90
      185
 90
       59
 90
        3
 90
       59
 90
       57
 90
       55
 90
        3
 90
      188
 90
      189
 90
       59
 90
        3
 90
      185
 90
      188
 90
       59
 90
        4
 90
      190
 90
      191
 90
      247
 90
       59
 90
        3
 90
      189
 90
      190
 90
       59
 90
        4
 90
      192
 90
      193
 90
      112
 90
      113
 90
        4
 90
      191
 90
      192
 90
      113
 90
      247
 90
        3
 90
      247
 90
      248
 90
       59
 90
        3
 90
      249
 90
      116
 90
       59
 90
        3
 90
      248
 90
      249
 90
       59
 90
        4
 90
      116
 90
      117
 90
       61
 90
       59
 90
        3
 90
      143
 90
      144
 90
       61
 90
        3
 90
      117
 90
      143
 90
       61
 90
        3
 90
      144
 90
      145
 90
       61
 90
        3
 90
      145
 90
      146
 90
       61
 90
        4
 90
      146
 90
      147
 90
       63
 90
       61
 90
        3
 90
      147
 90
      148
 90
       63
 90
        3
 90
      148
 90
      149
 90
       63
 90
        4
 90
      151
 90
      152
 90
       82
 90
       65
 90
        3
 90
      149
 90
      150
 90
       63
 90
        4
 90
      150
 90
      151
 90
       65
 90
       63
 90
        4
 90
      152
 90
      153
 90
       81
 90
       82
 90
        4
 90
      153
 90
      154
 90
       80
 90
       81
 90
        4
 90
      154
 90
      155
 90
       79
 90
       80
 90
        4
 90
      155
 90
      156
 90
       78
 90
       79
 90
        4
 90
      156
 90
      157
 90
       77
 90
       78
 90
        4
 90
      157
 90
      158
 90
       76
 90
       77
 90
        4
 90
      158
 90
      159
 90
       75
 90
       76
 90
        4
 90
      159
 90
      160
 90
       74
 90
       75
 90
        4
 90
      160
 90
      161
 90
       73
 90
       74
 90
        4
 90
      161
 90
      162
 90
       72
 90
       73
 90
        4
 90
      162
 90
      163
 90
       71
 90
       72
 90
        4
 90
      163
 90
      120
 90
       70
 90
       71
 90
        3
 90
      120
 90
      254
 90
       70
 90
        4
 90
      254
 90
      255
 90
       69
 90
       70
 90
        4
 90
      168
 90
      169
 90
      200
 90
      201
 90
        4
 90
      208
 90
      209
 90
      264
 90
      103
 90
        3
 90
      207
 90
      208
 90
      103
 90
        4
 90
      206
 90
      207
 90
      103
 90
      101
 90
        4
 90
      168
 90
      204
 90
      205
 90
      101
 90
        3
 90
      168
 90
      101
 90
       66
 90
        3
 90
      168
 90
       66
 90
       67
 90
        3
 90
      165
 90
      251
 90
       68
 90
        4
 90
      251
 90
      168
 90
       67
 90
       68
 90
        3
 90
      255
 90
      164
 90
       69
 90
        4
 90
      164
 90
      165
 90
       68
 90
       69
 90
        3
 90
      205
 90
      206
 90
      101
 90
        3
 90
      168
 90
      201
 90
      204
 90
        4
 90
        1
 90
        2
 90
      180
 90
      181
 90
        4
 90
        1
 90
      182
 90
      183
 90
      267
 90
        3
 90
        1
 90
      181
 90
      182
 90
        5
 90
      180
 90
        2
 90
      235
 90
      226
 90
      175
 90
        4
 90
      175
 90
      226
 90
      227
 90
      174
 90
        4
 90
      235
 90
        2
 90
        4
 90
      234
 90
        4
 90
      234
 90
        4
 90
        6
 90
      233
 90
        4
 90
      233
 90
        6
 90
       15
 90
      232
 90
        3
 90
      232
 90
       15
 90
      231
 90
        4
 90
      231
 90
       15
 90
       16
 90
      230
 90
        4
 90
      230
 90
       16
 90
       17
 90
      259
 90
        3
 90
      259
 90
       17
 90
      258
 90
        4
 90
      258
 90
       17
 90
       18
 90
      107
 90
        3
 90
      107
 90
       18
 90
       19
 90
        3
 90
      107
 90
       19
 90
       20
 90
        4
 90
      107
 90
       20
 90
       21
 90
      106
 90
        4
 90
      106
 90
       21
 90
       22
 90
      263
 90
        4
 90
      263
 90
       22
 90
       38
 90
      219
 90
        4
 90
      219
 90
       38
 90
       39
 90
      218
 90
        3
 90
      218
 90
       39
 90
       40
 90
        4
 90
      218
 90
       41
 90
       42
 90
      241
 90
        3
 90
      218
 90
       40
 90
       41
 90
        4
 90
      241
 90
       44
 90
       45
 90
      240
 90
        3
 90
      241
 90
       43
 90
       44
 90
        3
 90
      241
 90
       42
 90
       43
 90
        3
 90
      240
 90
       45
 90
       46
 90
        3
 90
      240
 90
       46
 90
       47
 90
        4
 90
      240
 90
       47
 90
       48
 90
      223
 90
        3
 90
      223
 90
       49
 90
       50
 90
        3
 90
      223
 90
       48
 90
       49
 90
        4
 90
      223
 90
       50
 90
       51
 90
      222
 90
        4
 90
      222
 90
       51
 90
       52
 90
      256
 90
        4
 90
      256
 90
       52
 90
       54
 90
      111
 90
        4
 90
      111
 90
       54
 90
       58
 90
      110
 90
        4
 90
      110
 90
       58
 90
      186
 90
      187
 90
        3
 90
       58
 90
       54
 90
       56
 90
        3
 90
      199
 90
       58
 90
      198
 90
        3
 90
      186
 90
       58
 90
      199
 90
        4
 90
      197
 90
       58
 90
      246
 90
      196
 90
        3
 90
      198
 90
       58
 90
      197
 90
        4
 90
      195
 90
      114
 90
      115
 90
      194
 90
        4
 90
      196
 90
      246
 90
      114
 90
      195
 90
        3
 90
      246
 90
       58
 90
      245
 90
        3
 90
      244
 90
       58
 90
      119
 90
        3
 90
      245
 90
       58
 90
      244
 90
        4
 90
      119
 90
       58
 90
       60
 90
      118
 90
        3
 90
      142
 90
       60
 90
      141
 90
        3
 90
      118
 90
       60
 90
      142
 90
        3
 90
      141
 90
       60
 90
      140
 90
        3
 90
      140
 90
       60
 90
      139
 90
        4
 90
      139
 90
       60
 90
       62
 90
      138
 90
        3
 90
      138
 90
       62
 90
      137
 90
        3
 90
      137
 90
       62
 90
      136
 90
        4
 90
      134
 90
       64
 90
       83
 90
      133
 90
        3
 90
      136
 90
       62
 90
      135
 90
        4
 90
      135
 90
       62
 90
       64
 90
      134
 90
        4
 90
      133
 90
       83
 90
       84
 90
      132
 90
        4
 90
      132
 90
       84
 90
       85
 90
      131
 90
        4
 90
      131
 90
       85
 90
       86
 90
      130
 90
        4
 90
      130
 90
       86
 90
       87
 90
      129
 90
        4
 90
      129
 90
       87
 90
       88
 90
      128
 90
        4
 90
      128
 90
       88
 90
       89
 90
      127
 90
        4
 90
      127
 90
       89
 90
       90
 90
      126
 90
        4
 90
      126
 90
       90
 90
       91
 90
      125
 90
        4
 90
      125
 90
       91
 90
       92
 90
      124
 90
        4
 90
      124
 90
       92
 90
       93
 90
      123
 90
        4
 90
      123
 90
       93
 90
       94
 90
      122
 90
        4
 90
      122
 90
       94
 90
       95
 90
      121
 90
        3
 90
      121
 90
       95
 90
      253
 90
        4
 90
      253
 90
       95
 90
       96
 90
      252
 90
        4
 90
      171
 90
      202
 90
      203
 90
      170
 90
        4
 90
      211
 90
      102
 90
      265
 90
      210
 90
        3
 90
      212
 90
      102
 90
      211
 90
        4
 90
      213
 90
      100
 90
      102
 90
      212
 90
        4
 90
      171
 90
      100
 90
      214
 90
      215
 90
        3
 90
      171
 90
       99
 90
      100
 90
        3
 90
      171
 90
       98
 90
       99
 90
        3
 90
      166
 90
       97
 90
      250
 90
        4
 90
      250
 90
       97
 90
       98
 90
      171
 90
        3
 90
      252
 90
       96
 90
      167
 90
        4
 90
      167
 90
       96
 90
       97
 90
      166
 90
        3
 90
      214
 90
      100
 90
      213
 90
        3
 90
      171
 90
      215
 90
      202
 94
      566
 90
      176
 90
      266
 90
      266
 90
      267
 90
      183
 90
      267
 90
      176
 90
      183
 90
        0
 90
      266
 90
        0
 90
        1
 90
        1
 90
      267
 90
        0
 90
        3
 90
        2
 90
        3
 90
        1
 90
        2
 90
        3
 90
        5
 90
        4
 90
        5
 90
        2
 90
        4
 90
        5
 90
        7
 90
        6
 90
        7
 90
        4
 90
        6
 90
        7
 90
       14
 90
       14
 90
       15
 90
        6
 90
       15
 90
       13
 90
       14
 90
       13
 90
       16
 90
       15
 90
       16
 90
       12
 90
       13
 90
       12
 90
       17
 90
       16
 90
       17
 90
       11
 90
       12
 90
       11
 90
       18
 90
       17
 90
       18
 90
       10
 90
       11
 90
       10
 90
       19
 90
       18
 90
       19
 90
        9
 90
       10
 90
        9
 90
       20
 90
       19
 90
       20
 90
        8
 90
        9
 90
        8
 90
       21
 90
       20
 90
       21
 90
        8
 90
       23
 90
       22
 90
       23
 90
       21
 90
       22
 90
       23
 90
       37
 90
       37
 90
       38
 90
       22
 90
       38
 90
       36
 90
       37
 90
       36
 90
       39
 90
       38
 90
       39
 90
       35
 90
       36
 90
       35
 90
       40
 90
       39
 90
       40
 90
       34
 90
       35
 90
       34
 90
       41
 90
       40
 90
       41
 90
       33
 90
       34
 90
       33
 90
       42
 90
       41
 90
       42
 90
       32
 90
       33
 90
       32
 90
       43
 90
       42
 90
       43
 90
       31
 90
       32
 90
       31
 90
       44
 90
       43
 90
       44
 90
       30
 90
       31
 90
       30
 90
       45
 90
       44
 90
       45
 90
       29
 90
       30
 90
       29
 90
       46
 90
       45
 90
       46
 90
       28
 90
       29
 90
       28
 90
       47
 90
       46
 90
       47
 90
       27
 90
       28
 90
       27
 90
       48
 90
       47
 90
       48
 90
       26
 90
       27
 90
       26
 90
       49
 90
       48
 90
       49
 90
       25
 90
       26
 90
       25
 90
       50
 90
       49
 90
       50
 90
       24
 90
       25
 90
       24
 90
       51
 90
       50
 90
       51
 90
       24
 90
       53
 90
       52
 90
       53
 90
       51
 90
       52
 90
       53
 90
       55
 90
       54
 90
       55
 90
       52
 90
       54
 90
       55
 90
       57
 90
       56
 90
       57
 90
       54
 90
       56
 90
       57
 90
       59
 90
       58
 90
       59
 90
       56
 90
       58
 90
       59
 90
       61
 90
       60
 90
       61
 90
       58
 90
       60
 90
       61
 90
       63
 90
       62
 90
       63
 90
       60
 90
       62
 90
       63
 90
       65
 90
       64
 90
       65
 90
       62
 90
       64
 90
       65
 90
       82
 90
       82
 90
       83
 90
       64
 90
       83
 90
       81
 90
       82
 90
       81
 90
       84
 90
       83
 90
       84
 90
       80
 90
       81
 90
       80
 90
       85
 90
       84
 90
       85
 90
       79
 90
       80
 90
       79
 90
       86
 90
       85
 90
       86
 90
       78
 90
       79
 90
       78
 90
       87
 90
       86
 90
       87
 90
       77
 90
       78
 90
       77
 90
       88
 90
       87
 90
       88
 90
       76
 90
       77
 90
       76
 90
       89
 90
       88
 90
       89
 90
       75
 90
       76
 90
       75
 90
       90
 90
       89
 90
       90
 90
       74
 90
       75
 90
       74
 90
       91
 90
       90
 90
       91
 90
       73
 90
       74
 90
       73
 90
       92
 90
       91
 90
       92
 90
       72
 90
       73
 90
       72
 90
       93
 90
       92
 90
       93
 90
       71
 90
       72
 90
       71
 90
       94
 90
       93
 90
       94
 90
       70
 90
       71
 90
       70
 90
       95
 90
       94
 90
       95
 90
       69
 90
       70
 90
       69
 90
       96
 90
       95
 90
       96
 90
       68
 90
       69
 90
       68
 90
       97
 90
       96
 90
       97
 90
       67
 90
       68
 90
       67
 90
       98
 90
       97
 90
       98
 90
       66
 90
       67
 90
       66
 90
       99
 90
       98
 90
       99
 90
       66
 90
      101
 90
      100
 90
      101
 90
       99
 90
      100
 90
      101
 90
      103
 90
      102
 90
      103
 90
      100
 90
      102
 90
      103
 90
      264
 90
      264
 90
      265
 90
      102
 90
      265
 90
      209
 90
      264
 90
      209
 90
      210
 90
      210
 90
      265
 90
      208
 90
      209
 90
      208
 90
      211
 90
      210
 90
      211
 90
      207
 90
      208
 90
      207
 90
      212
 90
      211
 90
      212
 90
      206
 90
      207
 90
      206
 90
      213
 90
      212
 90
      213
 90
      205
 90
      206
 90
      205
 90
      214
 90
      213
 90
      214
 90
      204
 90
      205
 90
      204
 90
      215
 90
      214
 90
      215
 90
      201
 90
      204
 90
      201
 90
      202
 90
      202
 90
      215
 90
      200
 90
      201
 90
      200
 90
      203
 90
      202
 90
      203
 90
      169
 90
      200
 90
      169
 90
      170
 90
      170
 90
      203
 90
      168
 90
      169
 90
      168
 90
      171
 90
      170
 90
      171
 90
      168
 90
      251
 90
      250
 90
      251
 90
      171
 90
      250
 90
      165
 90
      251
 90
      165
 90
      166
 90
      166
 90
      250
 90
      164
 90
      165
 90
      164
 90
      167
 90
      166
 90
      167
 90
      164
 90
      255
 90
      252
 90
      255
 90
      167
 90
      252
 90
      254
 90
      255
 90
      253
 90
      254
 90
      252
 90
      253
 90
      120
 90
      254
 90
      120
 90
      121
 90
      121
 90
      253
 90
      120
 90
      163
 90
      122
 90
      163
 90
      121
 90
      122
 90
      162
 90
      163
 90
      123
 90
      162
 90
      122
 90
      123
 90
      161
 90
      162
 90
      124
 90
      161
 90
      123
 90
      124
 90
      160
 90
      161
 90
      125
 90
      160
 90
      124
 90
      125
 90
      159
 90
      160
 90
      126
 90
      159
 90
      125
 90
      126
 90
      158
 90
      159
 90
      127
 90
      158
 90
      126
 90
      127
 90
      157
 90
      158
 90
      128
 90
      157
 90
      127
 90
      128
 90
      156
 90
      157
 90
      129
 90
      156
 90
      128
 90
      129
 90
      155
 90
      156
 90
      130
 90
      155
 90
      129
 90
      130
 90
      154
 90
      155
 90
      131
 90
      154
 90
      130
 90
      131
 90
      153
 90
      154
 90
      132
 90
      153
 90
      131
 90
      132
 90
      152
 90
      153
 90
      133
 90
      152
 90
      132
 90
      133
 90
      151
 90
      152
 90
      134
 90
      151
 90
      133
 90
      134
 90
      150
 90
      151
 90
      135
 90
      150
 90
      134
 90
      135
 90
      149
 90
      150
 90
      136
 90
      149
 90
      135
 90
      136
 90
      148
 90
      149
 90
      137
 90
      148
 90
      136
 90
      137
 90
      147
 90
      148
 90
      138
 90
      147
 90
      137
 90
      138
 90
      146
 90
      147
 90
      139
 90
      146
 90
      138
 90
      139
 90
      145
 90
      146
 90
      140
 90
      145
 90
      139
 90
      140
 90
      144
 90
      145
 90
      141
 90
      144
 90
      140
 90
      141
 90
      143
 90
      144
 90
      142
 90
      143
 90
      141
 90
      142
 90
      117
 90
      143
 90
      117
 90
      118
 90
      118
 90
      142
 90
      116
 90
      117
 90
      116
 90
      119
 90
      118
 90
      119
 90
      116
 90
      249
 90
      244
 90
      249
 90
      119
 90
      244
 90
      248
 90
      249
 90
      245
 90
      248
 90
      244
 90
      245
 90
      247
 90
      248
 90
      246
 90
      247
 90
      245
 90
      246
 90
      113
 90
      247
 90
      113
 90
      114
 90
      114
 90
      246
 90
      112
 90
      113
 90
      112
 90
      115
 90
      114
 90
      115
 90
      112
 90
      193
 90
      193
 90
      194
 90
      115
 90
      194
 90
      192
 90
      193
 90
      192
 90
      195
 90
      194
 90
      195
 90
      191
 90
      192
 90
      191
 90
      196
 90
      195
 90
      196
 90
      190
 90
      191
 90
      190
 90
      197
 90
      196
 90
      197
 90
      189
 90
      190
 90
      189
 90
      198
 90
      197
 90
      198
 90
      188
 90
      189
 90
      188
 90
      199
 90
      198
 90
      199
 90
      185
 90
      188
 90
      185
 90
      186
 90
      186
 90
      199
 90
      184
 90
      185
 90
      184
 90
      187
 90
      186
 90
      187
 90
      109
 90
      184
 90
      109
 90
      110
 90
      110
 90
      187
 90
      108
 90
      109
 90
      108
 90
      111
 90
      110
 90
      111
 90
      108
 90
      257
 90
      256
 90
      257
 90
      111
 90
      256
 90
      221
 90
      257
 90
      221
 90
      222
 90
      222
 90
      256
 90
      220
 90
      221
 90
      220
 90
      223
 90
      222
 90
      223
 90
      220
 90
      243
 90
      240
 90
      243
 90
      223
 90
      240
 90
      242
 90
      243
 90
      241
 90
      242
 90
      240
 90
      241
 90
      217
 90
      242
 90
      217
 90
      218
 90
      218
 90
      241
 90
      216
 90
      217
 90
      216
 90
      219
 90
      218
 90
      219
 90
      216
 90
      262
 90
      262
 90
      263
 90
      219
 90
      263
 90
      105
 90
      262
 90
      105
 90
      106
 90
      106
 90
      263
 90
      104
 90
      105
 90
      104
 90
      107
 90
      106
 90
      107
 90
      104
 90
      261
 90
      258
 90
      261
 90
      107
 90
      258
 90
      260
 90
      261
 90
      259
 90
      260
 90
      258
 90
      259
 90
      229
 90
      260
 90
      229
 90
      230
 90
      230
 90
      259
 90
      228
 90
      229
 90
      228
 90
      231
 90
      230
 90
      231
 90
      228
 90
      239
 90
      232
 90
      239
 90
      231
 90
      232
 90
      238
 90
      239
 90
      233
 90
      238
 90
      232
 90
      233
 90
      237
 90
      238
 90
      234
 90
      237
 90
      233
 90
      234
 90
      236
 90
      237
 90
      235
 90
      236
 90
      234
 90
      235
 90
      225
 90
      236
 90
      225
 90
      226
 90
      226
 90
      235
 90
      224
 90
      225
 90
      224
 90
      227
 90
      226
 90
      227
 90
      173
 90
      224
 90
      173
 90
      174
 90
      174
 90
      227
 90
      172
 90
      173
 90
      172
 90
      175
 90
      174
 90
      175
 90
      172
 90
      179
 90
      179
 90
      180
 90
      175
 90
      180
 90
      178
 90
      179
 90
      178
 90
      181
 90
      180
 90
      181
 90
      177
 90
      178
 90
      177
 90
      182
 90
      181
 90
      182
 90
      176
 90
      177
 90
      182
 90
      183
 90
        0
 90
      178
 90
        3
 90
      179
 90
        0
 90
      177
 90
      172
 90
      225
 90
        3
 90
      236
 90
        5
 90
      237
 90
        7
 90
      238
 90
       14
 90
      239
 90
       14
 90
      228
 90
       13
 90
      229
 90
       12
 90
      260
 90
       12
 90
      261
 90
       11
 90
      104
 90
       10
 90
      104
 90
        9
 90
      104
 90
        8
 90
      105
 90
       23
 90
      262
 90
       37
 90
      216
 90
       36
 90
      217
 90
       35
 90
      217
 90
       33
 90
      242
 90
       34
 90
      217
 90
       30
 90
      243
 90
       31
 90
      242
 90
       32
 90
      242
 90
       29
 90
      243
 90
       28
 90
      243
 90
       27
 90
      220
 90
       25
 90
      220
 90
       26
 90
      220
 90
       24
 90
      221
 90
       53
 90
      257
 90
       55
 90
      108
 90
       59
 90
      109
 90
       55
 90
       59
 90
       59
 90
      185
 90
       59
 90
      189
 90
       59
 90
      188
 90
      191
 90
      247
 90
       59
 90
      247
 90
       59
 90
      190
 90
      113
 90
      192
 90
       59
 90
      248
 90
       59
 90
      116
 90
       59
 90
      249
 90
       61
 90
      117
 90
       61
 90
      144
 90
       61
 90
      143
 90
       61
 90
      145
 90
       61
 90
      146
 90
       63
 90
      147
 90
       63
 90
      148
 90
       63
 90
      149
 90
       82
 90
      152
 90
       65
 90
      151
 90
       63
 90
      150
 90
       81
 90
      153
 90
       80
 90
      154
 90
       79
 90
      155
 90
       78
 90
      156
 90
       77
 90
      157
 90
       76
 90
      158
 90
       75
 90
      159
 90
       74
 90
      160
 90
       73
 90
      161
 90
       72
 90
      162
 90
       71
 90
      163
 90
       70
 90
      120
 90
       70
 90
      254
 90
       69
 90
      255
 90
      168
 90
      201
 90
      103
 90
      208
 90
      103
 90
      207
 90
      101
 90
      206
 90
      168
 90
      204
 90
      101
 90
      205
 90
      101
 90
      168
 90
       66
 90
      168
 90
       67
 90
      168
 90
       68
 90
      251
 90
       68
 90
      165
 90
       69
 90
      164
 90
        2
 90
      180
 90
        1
 90
      181
 90
        1
 90
      182
 90
        2
 90
      235
 90
      175
 90
      226
 90
        4
 90
      234
 90
        6
 90
      233
 90
       15
 90
      232
 90
       15
 90
      231
 90
       16
 90
      230
 90
       17
 90
      259
 90
       17
 90
      258
 90
       18
 90
      107
 90
       19
 90
      107
 90
       20
 90
      107
 90
       21
 90
      106
 90
       22
 90
      263
 90
       38
 90
      219
 90
       39
 90
      218
 90
       40
 90
      218
 90
       41
 90
      218
 90
       42
 90
      241
 90
       44
 90
      241
 90
       45
 90
      240
 90
       43
 90
      241
 90
       46
 90
      240
 90
       47
 90
      240
 90
       48
 90
      223
 90
       49
 90
      223
 90
       50
 90
      223
 90
       51
 90
      222
 90
       52
 90
      256
 90
       54
 90
      111
 90
       54
 90
       58
 90
       58
 90
      110
 90
       58
 90
      186
 90
       58
 90
      199
 90
       58
 90
      198
 90
       58
 90
      197
 90
       58
 90
      246
 90
      196
 90
      246
 90
      114
 90
      195
 90
       58
 90
      245
 90
       58
 90
      244
 90
       58
 90
      119
 90
       60
 90
      118
 90
       60
 90
      142
 90
       60
 90
      141
 90
       60
 90
      140
 90
       60
 90
      139
 90
       62
 90
      138
 90
       62
 90
      137
 90
       62
 90
      136
 90
       64
 90
      134
 90
       83
 90
      133
 90
       62
 90
      135
 90
       84
 90
      132
 90
       85
 90
      131
 90
       86
 90
      130
 90
       87
 90
      129
 90
       88
 90
      128
 90
       89
 90
      127
 90
       90
 90
      126
 90
       91
 90
      125
 90
       92
 90
      124
 90
       93
 90
      123
 90
       94
 90
      122
 90
       95
 90
      121
 90
       95
 90
      253
 90
       96
 90
      252
 90
      171
 90
      202
 90
      102
 90
      211
 90
      102
 90
      212
 90
      100
 90
      213
 90
      100
 90
      171
 90
      100
 90
      214
 90
      171
 90
      215
 90
       99
 90
      171
 90
       98
 90
      171
 90
       97
 90
      166
 90
       97
 90
      250
 90
       96
 90
      167
 95
      566
140
0.0
140
0.0
140
0.0
140
0.0
140
0.0
140
0.0
140
0.0
140
0.0
140
0.0
140
0.0
140
0.0
140
0.0
140
0.0
140
0.0
140
0.0
140
0.0
140
0.0
140
0.0
140
0.0
140
0.0
140
0.0
140
0.0
140
0.0
140
0.0
140
0.0
140
0.0
140
0.0
140
0.0
140
0.0
140
0.0
140
0.0
140
0.0
140
0.0
140
0.0
140
0.0
140
0.0
140
0.0
140
0.0
140
0.0
140
0.0
140
0.0
140
0.0
140
0.0
140
0.0
140
0.0
140
0.0
140
0.0
140
0.0
140
0.0
140
0.0
140
0.0
140
0.0
140
0.0
140
0.0
140
0.0
140
0.0
140
0.0
140
0.0
140
0.0
140
0.0
140
0.0
140
0.0
140
0.0
140
0.0
140
0.0
140
0.0
140
0.0
140
0.0
140
0.0
140
0.0
140
0.0
140
0.0
140
0.0
140
0.0
140
0.0
140
0.0
140
0.0
140
0.0
140
0.0
140
0.0
140
0.0
140
0.0
140
0.0
140
0.0
140
0.0
140
0.0
140
0.0
140
0.0
140
0.0
140
0.0
140
0.0
140
0.0
140
0.0
140
0.0
140
0.0
140
0.0
140
0.0
140
0.0
140
0.0
140
0.0
140
0.0
140
0.0
140
0.0
140
0.0
140
0.0
140
0.0
140
0.0
140
0.0
140
0.0
140
0.0
140
0.0
140
0.0
140
0.0
140
0.0
140
0.0
140
0.0
140
0.0
140
0.0
140
0.0
140
0.0
140
0.0
140
0.0
140
0.0
140
0.0
140
0.0
140
0.0
140
0.0
140
0.0
140
0.0
140
0.0
140
0.0
140
0.0
140
0.0
140
0.0
140
0.0
140
0.0
140
0.0
140
0.0
140
0.0
140
0.0
140
0.0
140
0.0
140
0.0
140
0.0
140
0.0
140
0.0
140
0.0
140
0.0
140
0.0
140
0.0
140
0.0
140
0.0
140
0.0
140
0.0
140
0.0
140
0.0
140
0.0
140
0.0
140
0.0
140
0.0
140
0.0
140
0.0
140
0.0
140
0.0
140
0.0
140
0.0
140
0.0
140
0.0
140
0.0
140
0.0
140
0.0
140
0.0
140
0.0
140
0.0
140
0.0
140
0.0
140
0.0
140
0.0
140
0.0
140
0.0
140
0.0
140
0.0
140
0.0
140
0.0
140
0.0
140
0.0
140
0.0
140
0.0
140
0.0
140
0.0
140
0.0
140
0.0
140
0.0
140
0.0
140
0.0
140
0.0
140
0.0
140
0.0
140
0.0
140
0.0
140
0.0
140
0.0
140
0.0
140
0.0
140
0.0
140
0.0
140
0.0
140
0.0
140
0.0
140
0.0
140
0.0
140
0.0
140
0.0
140
0.0
140
0.0
140
0.0
140
0.0
140
0.0
140
0.0
140
0.0
140
0.0
140
0.0
140
0.0
140
0.0
140
0.0
140
0.0
140
0.0
140
0.0
140
0.0
140
0.0
140
0.0
140
0.0
140
0.0
140
0.0
140
0.0
140
0.0
140
0.0
140
0.0
140
0.0
140
0.0
140
0.0
140
0.0
140
0.0
140
0.0
140
0.0
140
0.0
140
0.0
140
0.0
140
0.0
140
0.0
140
0.0
140
0.0
140
0.0
140
0.0
140
0.0
140
0.0
140
0.0
140
0.0
140
0.0
140
0.0
140
0.0
140
0.0
140
0.0
140
0.0
140
0.0
140
0.0
140
0.0
140
0.0
140
0.0
140
0.0
140
0.0
140
0.0
140
0.0
140
0.0
140
0.0
140
0.0
140
0.0
140
0.0
140
0.0
140
0.0
140
0.0
140
0.0
140
0.0
140
0.0
140
0.0
140
0.0
140
0.0
140
0.0
140
0.0
140
0.0
140
0.0
140
0.0
140
0.0
140
0.0
140
0.0
140
0.0
140
0.0
140
0.0
140
0.0
140
0.0
140
0.0
140
0.0
140
0.0
140
0.0
140
0.0
140
0.0
140
0.0
140
0.0
140
0.0
140
0.0
140
0.0
140
0.0
140
0.0
140
0.0
140
0.0
140
0.0
140
0.0
140
0.0
140
0.0
140
0.0
140
0.0
140
0.0
140
0.0
140
0.0
140
0.0
140
0.0
140
0.0
140
0.0
140
0.0
140
0.0
140
0.0
140
0.0
140
0.0
140
0.0
140
0.0
140
0.0
140
0.0
140
0.0
140
0.0
140
0.0
140
0.0
140
0.0
140
0.0
140
0.0
140
0.0
140
0.0
140
0.0
140
0.0
140
0.0
140
0.0
140
0.0
140
0.0
140
0.0
140
0.0
140
0.0
140
0.0
140
0.0
140
0.0
140
0.0
140
0.0
140
0.0
140
0.0
140
0.0
140
0.0
140
0.0
140
0.0
140
0.0
140
0.0
140
0.0
140
0.0
140
0.0
140
0.0
140
0.0
140
0.0
140
0.0
140
0.0
140
0.0
140
0.0
140
0.0
140
0.0
140
0.0
140
0.0
140
0.0
140
0.0
140
0.0
140
0.0
140
0.0
140
0.0
140
0.0
140
0.0
140
0.0
140
0.0
140
0.0
140
0.0
140
0.0
140
0.0
140
0.0
140
0.0
140
0.0
140
0.0
140
0.0
140
0.0
140
0.0
140
0.0
140
0.0
140
0.0
140
0.0
140
0.0
140
0.0
140
0.0
140
0.0
140
0.0
140
0.0
140
0.0
140
0.0
140
0.0
140
0.0
140
0.0
140
0.0
140
0.0
140
0.0
140
0.0
140
0.0
140
0.0
140
0.0
140
0.0
140
0.0
140
0.0
140
0.0
140
0.0
140
0.0
140
0.0
140
0.0
140
0.0
140
0.0
140
0.0
140
0.0
140
0.0
140
0.0
140
0.0
140
0.0
140
0.0
140
0.0
140
0.0
140
0.0
140
0.0
140
0.0
140
0.0
140
0.0
140
0.0
140
0.0
140
0.0
140
0.0
140
0.0
140
0.0
140
0.0
140
0.0
140
0.0
140
0.0
140
0.0
140
0.0
140
0.0
140
0.0
140
0.0
140
0.0
140
0.0
140
0.0
140
0.0
140
0.0
140
0.0
140
0.0
140
0.0
140
0.0
140
0.0
140
0.0
140
0.0
140
0.0
140
0.0
140
0.0
140
0.0
140
0.0
140
0.0
140
0.0
140
0.0
140
0.0
140
0.0
140
0.0
140
0.0
140
0.0
140
0.0
140
0.0
140
0.0
140
0.0
140
0.0
140
0.0
140
0.0
140
0.0
140
0.0
140
0.0
140
0.0
140
0.0
140
0.0
140
0.0
140
0.0
140
0.0
140
0.0
140
0.0
140
0.0
140
0.0
140
0.0
140
0.0
140
0.0
140
0.0
140
0.0
140
0.0
140
0.0
140
0.0
140
0.0
140
0.0
140
0.0
140
0.0
140
0.0
140
0.0
140
0.0
140
0.0
140
0.0
140
0.0
140
0.0
140
0.0
140
0.0
140
0.0
140
0.0
140
0.0
140
0.0
140
0.0
140
0.0
140
0.0
140
0.0
140
0.0
140
0.0
140
0.0
140
0.0
140
0.0
140
0.0
140
0.0
140
0.0
140
0.0
140
0.0
140
0.0
140
0.0
140
0.0
140
0.0
140
0.0
140
0.0
140
0.0
140
0.0
140
0.0
140
0.0
140
0.0
140
0.0
140
0.0
140
0.0
140
0.0
140
0.0
140
0.0
140
0.0
 90
        0
  0
POLYLINE
  5
FA
330
1F
100
AcDbEntity
  8
OracDecor_cornice_mouldings
 62
   233
420
 14768015
100
AcDb3dPolyline
 66
     1
 10
0.0
 20
0.0
 30
0.0
 70
     9
  0
VERTEX
  5
FB
330
FA
100
AcDbEntity
  8
OracDecor_cornice_mouldings
 62
   233
420
 14768015
100
AcDbVertex
100
AcDb3dPolylineVertex
 10
-0.0000076293945313
 20
113.9870376586914
 30
-10.71463012695312
 70
    32
  0
VERTEX
  5
FC
330
FA
100
AcDbEntity
  8
OracDecor_cornice_mouldings
 62
   233
420
 14768015
100
AcDbVertex
100
AcDb3dPolylineVertex
 10
-0.0000076293945313
 20
104.6597900390625
 30
-10.71517944335937
 70
    32
  0
VERTEX
  5
FD
330
FA
100
AcDbEntity
  8
OracDecor_cornice_mouldings
 62
   233
420
 14768015
100
AcDbVertex
100
AcDb3dPolylineVertex
 10
-0.0000076293945313
 20
104.6602172851562
 30
-17.83837890625
 70
    32
  0
VERTEX
  5
FE
330
FA
100
AcDbEntity
  8
OracDecor_cornice_mouldings
 62
   233
420
 14768015
100
AcDbVertex
100
AcDb3dPolylineVertex
 10
-0.0000076293945313
 20
94.29661560058594
 30
-17.83898162841797
 70
    32
  0
VERTEX
  5
FF
330
FA
100
AcDbEntity
  8
OracDecor_cornice_mouldings
 62
   233
420
 14768015
100
AcDbVertex
100
AcDb3dPolylineVertex
 10
-0.0000076293945313
 20
89.8013916015625
 30
-18.2130126953125
 70
    32
  0
VERTEX
  5
100
330
FA
100
AcDbEntity
  8
OracDecor_cornice_mouldings
 62
   233
420
 14768015
100
AcDbVertex
100
AcDb3dPolylineVertex
 10
-0.0000076293936218
 20
86.00302886962891
 30
-19.29552459716797
 70
    32
  0
VERTEX
  5
101
330
FA
100
AcDbEntity
  8
OracDecor_cornice_mouldings
 62
   233
420
 14768015
100
AcDbVertex
100
AcDb3dPolylineVertex
 10
-0.0000076293954407
 20
82.84597778320312
 30
-21.03583526611328
 70
    32
  0
VERTEX
  5
102
330
FA
100
AcDbEntity
  8
OracDecor_cornice_mouldings
 62
   233
420
 14768015
100
AcDbVertex
100
AcDb3dPolylineVertex
 10
-0.0000076293954407
 20
80.19053649902344
 30
-23.50173187255859
 70
    32
  0
VERTEX
  5
103
330
FA
100
AcDbEntity
  8
OracDecor_cornice_mouldings
 62
   233
420
 14768015
100
AcDbVertex
100
AcDb3dPolylineVertex
 10
-0.0000076293954407
 20
78.01101684570312
 30
-26.84139251708984
 70
    32
  0
VERTEX
  5
104
330
FA
100
AcDbEntity
  8
OracDecor_cornice_mouldings
 62
   233
420
 14768015
100
AcDbVertex
100
AcDb3dPolylineVertex
 10
-0.0000076293963502
 20
77.14201354980469
 30
-28.8441390991211
 70
    32
  0
VERTEX
  5
105
330
FA
100
AcDbEntity
  8
OracDecor_cornice_mouldings
 62
   233
420
 14768015
100
AcDbVertex
100
AcDb3dPolylineVertex
 10
-0.0000076293945313
 20
76.42017364501953
 30
-31.06884002685547
 70
    32
  0
VERTEX
  5
106
330
FA
100
AcDbEntity
  8
OracDecor_cornice_mouldings
 62
   233
420
 14768015
100
AcDbVertex
100
AcDb3dPolylineVertex
 10
0.0
 20
70.72019958496094
 30
-31.06917572021484
 70
    32
  0
VERTEX
  5
107
330
FA
100
AcDbEntity
  8
OracDecor_cornice_mouldings
 62
   233
420
 14768015
100
AcDbVertex
100
AcDb3dPolylineVertex
 10
-0.0000076293954407
 20
70.00491333007812
 30
-36.72873687744141
 70
    32
  0
VERTEX
  5
108
330
FA
100
AcDbEntity
  8
OracDecor_cornice_mouldings
 62
   233
420
 14768015
100
AcDbVertex
100
AcDb3dPolylineVertex
 10
-0.0000076293945313
 20
68.32693481445312
 30
-42.91221618652343
 70
    32
  0
VERTEX
  5
109
330
FA
100
AcDbEntity
  8
OracDecor_cornice_mouldings
 62
   233
420
 14768015
100
AcDbVertex
100
AcDb3dPolylineVertex
 10
-0.0000076293954407
 20
67.17709350585938
 30
-46.0834732055664
 70
    32
  0
VERTEX
  5
10A
330
FA
100
AcDbEntity
  8
OracDecor_cornice_mouldings
 62
   233
420
 14768015
100
AcDbVertex
100
AcDb3dPolylineVertex
 10
-0.0000076293963502
 20
65.83406829833984
 30
-49.29965209960937
 70
    32
  0
VERTEX
  5
10B
330
FA
100
AcDbEntity
  8
OracDecor_cornice_mouldings
 62
   233
420
 14768015
100
AcDbVertex
100
AcDb3dPolylineVertex
 10
-0.0000076293954407
 20
64.26124572753906
 30
-52.3486328125
 70
    32
  0
VERTEX
  5
10C
330
FA
100
AcDbEntity
  8
OracDecor_cornice_mouldings
 62
   233
420
 14768015
100
AcDbVertex
100
AcDb3dPolylineVertex
 10
-0.0000076293945313
 20
62.45328140258789
 30
-55.19832611083984
 70
    32
  0
VERTEX
  5
10D
330
FA
100
AcDbEntity
  8
OracDecor_cornice_mouldings
 62
   233
420
 14768015
100
AcDbVertex
100
AcDb3dPolylineVertex
 10
-0.0000076293945313
 20
60.41164016723633
 30
-57.8445930480957
 70
    32
  0
VERTEX
  5
10E
330
FA
100
AcDbEntity
  8
OracDecor_cornice_mouldings
 62
   233
420
 14768015
100
AcDbVertex
100
AcDb3dPolylineVertex
 10
0.0
 20
58.12974548339844
 30
-60.27583312988281
 70
    32
  0
VERTEX
  5
10F
330
FA
100
AcDbEntity
  8
OracDecor_cornice_mouldings
 62
   233
420
 14768015
100
AcDbVertex
100
AcDb3dPolylineVertex
 10
0.0000076293940765
 20
55.61766433715821
 30
-62.47232055664063
 70
    32
  0
VERTEX
  5
110
330
FA
100
AcDbEntity
  8
OracDecor_cornice_mouldings
 62
   233
420
 14768015
100
AcDbVertex
100
AcDb3dPolylineVertex
 10
0.0000076293945313
 20
52.8638687133789
 30
-64.38630676269531
 70
    32
  0
VERTEX
  5
111
330
FA
100
AcDbEntity
  8
OracDecor_cornice_mouldings
 62
   233
420
 14768015
100
AcDbVertex
100
AcDb3dPolylineVertex
 10
0.0000076293945313
 20
49.89472961425781
 30
-66.02944946289063
 70
    32
  0
VERTEX
  5
112
330
FA
100
AcDbEntity
  8
OracDecor_cornice_mouldings
 62
   233
420
 14768015
100
AcDbVertex
100
AcDb3dPolylineVertex
 10
0.0000076293945313
 20
46.86115264892578
 30
-67.38947296142578
 70
    32
  0
VERTEX
  5
113
330
FA
100
AcDbEntity
  8
OracDecor_cornice_mouldings
 62
   233
420
 14768015
100
AcDbVertex
100
AcDb3dPolylineVertex
 10
0.0000076293940765
 20
40.59484481811523
 30
-69.29593658447266
 70
    32
  0
VERTEX
  5
114
330
FA
100
AcDbEntity
  8
OracDecor_cornice_mouldings
 62
   233
420
 14768015
100
AcDbVertex
100
AcDb3dPolylineVertex
 10
0.0000076293945313
 20
34.19081878662109
 30
-70.24892425537109
 70
    32
  0
VERTEX
  5
115
330
FA
100
AcDbEntity
  8
OracDecor_cornice_mouldings
 62
   233
420
 14768015
100
AcDbVertex
100
AcDb3dPolylineVertex
 10
0.0000076293945313
 20
34.19126510620117
 30
-77.88092803955078
 70
    32
  0
VERTEX
  5
116
330
FA
100
AcDbEntity
  8
OracDecor_cornice_mouldings
 62
   233
420
 14768015
100
AcDbVertex
100
AcDb3dPolylineVertex
 10
0.0000076293945313
 20
24.86402893066407
 30
-77.88147735595703
 70
    32
  0
VERTEX
  5
117
330
FA
100
AcDbEntity
  8
OracDecor_cornice_mouldings
 62
   233
420
 14768015
100
AcDbVertex
100
AcDb3dPolylineVertex
 10
0.0000076293945313
 20
24.86477279663086
 30
-90.60147857666015
 70
    32
  0
VERTEX
  5
118
330
FA
100
AcDbEntity
  8
OracDecor_cornice_mouldings
 62
   233
420
 14768015
100
AcDbVertex
100
AcDb3dPolylineVertex
 10
0.0000076293945313
 20
17.09207534790039
 30
-90.60193634033202
 70
    32
  0
VERTEX
  5
119
330
FA
100
AcDbEntity
  8
OracDecor_cornice_mouldings
 62
   233
420
 14768015
100
AcDbVertex
100
AcDb3dPolylineVertex
 10
0.0000076293945313
 20
17.09609985351562
 30
-158.9754180908203
 70
    32
  0
VERTEX
  5
11A
330
FA
100
AcDbEntity
  8
OracDecor_cornice_mouldings
 62
   233
420
 14768015
100
AcDbVertex
100
AcDb3dPolylineVertex
 10
0.0000076293945313
 20
27.97822570800781
 30
-164.8860931396484
 70
    32
  0
VERTEX
  5
11B
330
FA
100
AcDbEntity
  8
OracDecor_cornice_mouldings
 62
   233
420
 14768015
100
AcDbVertex
100
AcDb3dPolylineVertex
 10
0.0000076293940765
 20
27.97900581359864
 30
-178.1148986816406
 70
    32
  0
VERTEX
  5
11C
330
FA
100
AcDbEntity
  8
OracDecor_cornice_mouldings
 62
   233
420
 14768015
100
AcDbVertex
100
AcDb3dPolylineVertex
 10
0.0000076293945313
 20
30.52330017089844
 30
-179.5389404296875
 70
    32
  0
VERTEX
  5
11D
330
FA
100
AcDbEntity
  8
OracDecor_cornice_mouldings
 62
   233
420
 14768015
100
AcDbVertex
100
AcDb3dPolylineVertex
 10
0.0000076293945313
 20
32.90044403076172
 30
-181.0543975830078
 70
    32
  0
VERTEX
  5
11E
330
FA
100
AcDbEntity
  8
OracDecor_cornice_mouldings
 62
   233
420
 14768015
100
AcDbVertex
100
AcDb3dPolylineVertex
 10
0.0000076293945313
 20
34.95755004882813
 30
-182.7394104003906
 70
    32
  0
VERTEX
  5
11F
330
FA
100
AcDbEntity
  8
OracDecor_cornice_mouldings
 62
   233
420
 14768015
100
AcDbVertex
100
AcDb3dPolylineVertex
 10
0.0000076293940765
 20
36.56186676025391
 30
-184.6647033691406
 70
    32
  0
VERTEX
  5
120
330
FA
100
AcDbEntity
  8
OracDecor_cornice_mouldings
 62
   233
420
 14768015
100
AcDbVertex
100
AcDb3dPolylineVertex
 10
0.0000076293945313
 20
37.63675689697266
 30
-186.8705749511718
 70
    32
  0
VERTEX
  5
121
330
FA
100
AcDbEntity
  8
OracDecor_cornice_mouldings
 62
   233
420
 14768015
100
AcDbVertex
100
AcDb3dPolylineVertex
 10
0.0000076293945313
 20
38.1712532043457
 30
-189.3537902832031
 70
    32
  0
VERTEX
  5
122
330
FA
100
AcDbEntity
  8
OracDecor_cornice_mouldings
 62
   233
420
 14768015
100
AcDbVertex
100
AcDb3dPolylineVertex
 10
0.0000076293945313
 20
38.19273757934571
 30
-192.0400238037109
 70
    32
  0
VERTEX
  5
123
330
FA
100
AcDbEntity
  8
OracDecor_cornice_mouldings
 62
   233
420
 14768015
100
AcDbVertex
100
AcDb3dPolylineVertex
 10
0.0000076293945313
 20
37.67070770263672
 30
-194.8327941894531
 70
    32
  0
VERTEX
  5
124
330
FA
100
AcDbEntity
  8
OracDecor_cornice_mouldings
 62
   233
420
 14768015
100
AcDbVertex
100
AcDb3dPolylineVertex
 10
0.0000076293945313
 20
36.51435089111328
 30
-197.5955963134765
 70
    32
  0
VERTEX
  5
125
330
FA
100
AcDbEntity
  8
OracDecor_cornice_mouldings
 62
   233
420
 14768015
100
AcDbVertex
100
AcDb3dPolylineVertex
 10
0.0000076293945313
 20
34.03023910522461
 30
-200.7622833251953
 70
    32
  0
VERTEX
  5
126
330
FA
100
AcDbEntity
  8
OracDecor_cornice_mouldings
 62
   233
420
 14768015
100
AcDbVertex
100
AcDb3dPolylineVertex
 10
0.0000076293945313
 20
31.23924636840821
 30
-203.0328979492188
 70
    32
  0
VERTEX
  5
127
330
FA
100
AcDbEntity
  8
OracDecor_cornice_mouldings
 62
   233
420
 14768015
100
AcDbVertex
100
AcDb3dPolylineVertex
 10
0.0000076293945313
 20
27.86899566650391
 30
-205.2465209960938
 70
    32
  0
VERTEX
  5
128
330
FA
100
AcDbEntity
  8
OracDecor_cornice_mouldings
 62
   233
420
 14768015
100
AcDbVertex
100
AcDb3dPolylineVertex
 10
0.0000076293940765
 20
24.27212142944336
 30
-207.6397552490234
 70
    32
  0
VERTEX
  5
129
330
FA
100
AcDbEntity
  8
OracDecor_cornice_mouldings
 62
   233
420
 14768015
100
AcDbVertex
100
AcDb3dPolylineVertex
 10
0.0000076293945313
 20
20.8332405090332
 30
-210.3804931640625
 70
    32
  0
VERTEX
  5
12A
330
FA
100
AcDbEntity
  8
OracDecor_cornice_mouldings
 62
   233
420
 14768015
100
AcDbVertex
100
AcDb3dPolylineVertex
 10
0.0000076293945313
 20
17.86958503723144
 30
-213.5445251464844
 70
    32
  0
VERTEX
  5
12B
330
FA
100
AcDbEntity
  8
OracDecor_cornice_mouldings
 62
   233
420
 14768015
100
AcDbVertex
100
AcDb3dPolylineVertex
 10
0.0000076293945313
 20
15.64202308654785
 30
-217.0465240478516
 70
    32
  0
VERTEX
  5
12C
330
FA
100
AcDbEntity
  8
OracDecor_cornice_mouldings
 62
   233
420
 14768015
100
AcDbVertex
100
AcDb3dPolylineVertex
 10
0.0000076293945313
 20
14.50878143310547
 30
-219.8372802734375
 70
    32
  0
VERTEX
  5
12D
330
FA
100
AcDbEntity
  8
OracDecor_cornice_mouldings
 62
   233
420
 14768015
100
AcDbVertex
100
AcDb3dPolylineVertex
 10
0.0000076293945313
 20
9.845157623291015
 30
-219.8375701904297
 70
    32
  0
VERTEX
  5
12E
330
FA
100
AcDbEntity
  8
OracDecor_cornice_mouldings
 62
   233
420
 14768015
100
AcDbVertex
100
AcDb3dPolylineVertex
 10
0.0000076293945313
 20
9.845756530761718
 30
-230.0135650634766
 70
    32
  0
VERTEX
  5
12F
330
FA
100
AcDbEntity
  8
OracDecor_cornice_mouldings
 62
   233
420
 14768015
100
AcDbVertex
100
AcDb3dPolylineVertex
 10
0.0000076293940765
 20
0.0003318786621094
 30
-230.01416015625
 70
    32
  0
VERTEX
  5
130
330
FA
100
AcDbEntity
  8
OracDecor_cornice_mouldings
 62
   233
420
 14768015
100
AcDbVertex
100
AcDb3dPolylineVertex
 10
0.0000076293945313
 20
-0.0001564025878906
 30
-221.5977478027344
 70
    32
  0
VERTEX
  5
131
330
FA
100
AcDbEntity
  8
OracDecor_cornice_mouldings
 62
   233
420
 14768015
100
AcDbVertex
100
AcDb3dPolylineVertex
 10
0.0000076293945313
 20
0.6496849060058594
 30
-221.2658996582031
 70
    32
  0
VERTEX
  5
132
330
FA
100
AcDbEntity
  8
OracDecor_cornice_mouldings
 62
   233
420
 14768015
100
AcDbVertex
100
AcDb3dPolylineVertex
 10
0.0000076293945313
 20
1.114482879638671
 30
-220.7203979492188
 70
    32
  0
VERTEX
  5
133
330
FA
100
AcDbEntity
  8
OracDecor_cornice_mouldings
 62
   233
420
 14768015
100
AcDbVertex
100
AcDb3dPolylineVertex
 10
0.0000076293945313
 20
1.333251953125
 30
-220.0424194335937
 70
    32
  0
VERTEX
  5
134
330
FA
100
AcDbEntity
  8
OracDecor_cornice_mouldings
 62
   233
420
 14768015
100
AcDbVertex
100
AcDb3dPolylineVertex
 10
0.0000076293945313
 20
1.273128509521484
 30
-219.3336791992187
 70
    32
  0
VERTEX
  5
135
330
FA
100
AcDbEntity
  8
OracDecor_cornice_mouldings
 62
   233
420
 14768015
100
AcDbVertex
100
AcDb3dPolylineVertex
 10
0.0000076293945313
 20
0.9431915283203125
 30
-218.7005004882812
 70
    32
  0
VERTEX
  5
136
330
FA
100
AcDbEntity
  8
OracDecor_cornice_mouldings
 62
   233
420
 14768015
100
AcDbVertex
100
AcDb3dPolylineVertex
 10
0.0000076293945313
 20
0.3845176696777344
 30
-218.2353820800781
 70
    32
  0
VERTEX
  5
137
330
FA
100
AcDbEntity
  8
OracDecor_cornice_mouldings
 62
   233
420
 14768015
100
AcDbVertex
100
AcDb3dPolylineVertex
 10
0.0000076293945313
 20
-0.0003700256347656
 30
-218.0263214111328
 70
    32
  0
VERTEX
  5
138
330
FA
100
AcDbEntity
  8
OracDecor_cornice_mouldings
 62
   233
420
 14768015
100
AcDbVertex
100
AcDb3dPolylineVertex
 10
0.0000076293945313
 20
-0.0008621215820313
 30
-209.6621551513672
 70
    32
  0
VERTEX
  5
139
330
FA
100
AcDbEntity
  8
OracDecor_cornice_mouldings
 62
   233
420
 14768015
100
AcDbVertex
100
AcDb3dPolylineVertex
 10
0.0000076293945313
 20
8.445117950439453
 30
-205.0454406738281
 70
    32
  0
VERTEX
  5
13A
330
FA
100
AcDbEntity
  8
OracDecor_cornice_mouldings
 62
   233
420
 14768015
100
AcDbVertex
100
AcDb3dPolylineVertex
 10
0.0000076293945313
 20
9.93667984008789
 30
-203.9074401855469
 70
    32
  0
VERTEX
  5
13B
330
FA
100
AcDbEntity
  8
OracDecor_cornice_mouldings
 62
   233
420
 14768015
100
AcDbVertex
100
AcDb3dPolylineVertex
 10
0.0000076293945313
 20
11.0118293762207
 30
-202.3824920654297
 70
    32
  0
VERTEX
  5
13C
330
FA
100
AcDbEntity
  8
OracDecor_cornice_mouldings
 62
   233
420
 14768015
100
AcDbVertex
100
AcDb3dPolylineVertex
 10
0.0000076293945313
 20
11.82205200195312
 30
-200.7477416992188
 70
    32
  0
VERTEX
  5
13D
330
FA
100
AcDbEntity
  8
OracDecor_cornice_mouldings
 62
   233
420
 14768015
100
AcDbVertex
100
AcDb3dPolylineVertex
 10
0.0000076293945313
 20
12.87334060668945
 30
-199.247314453125
 70
    32
  0
VERTEX
  5
13E
330
FA
100
AcDbEntity
  8
OracDecor_cornice_mouldings
 62
   233
420
 14768015
100
AcDbVertex
100
AcDb3dPolylineVertex
 10
0.0000076293945313
 20
14.32855987548828
 30
-198.1181335449218
 70
    32
  0
VERTEX
  5
13F
330
FA
100
AcDbEntity
  8
OracDecor_cornice_mouldings
 62
   233
420
 14768015
100
AcDbVertex
100
AcDb3dPolylineVertex
 10
0.0000076293945313
 20
16.57878875732422
 30
-197.3497314453125
 70
    32
  0
VERTEX
  5
140
330
FA
100
AcDbEntity
  8
OracDecor_cornice_mouldings
 62
   233
420
 14768015
100
AcDbVertex
100
AcDb3dPolylineVertex
 10
0.0000076293945313
 20
19.31815147399902
 30
-196.5972900390625
 70
    32
  0
VERTEX
  5
141
330
FA
100
AcDbEntity
  8
OracDecor_cornice_mouldings
 62
   233
420
 14768015
100
AcDbVertex
100
AcDb3dPolylineVertex
 10
0.0000076293945313
 20
21.7304801940918
 30
-195.559829711914
 70
    32
  0
VERTEX
  5
142
330
FA
100
AcDbEntity
  8
OracDecor_cornice_mouldings
 62
   233
420
 14768015
100
AcDbVertex
100
AcDb3dPolylineVertex
 10
0.0000076293945313
 20
23.08423233032227
 30
-194.4969482421875
 70
    32
  0
VERTEX
  5
143
330
FA
100
AcDbEntity
  8
OracDecor_cornice_mouldings
 62
   233
420
 14768015
100
AcDbVertex
100
AcDb3dPolylineVertex
 10
0.0000076293945313
 20
24.04490661621094
 30
-193.1074523925781
 70
    32
  0
VERTEX
  5
144
330
FA
100
AcDbEntity
  8
OracDecor_cornice_mouldings
 62
   233
420
 14768015
100
AcDbVertex
100
AcDb3dPolylineVertex
 10
0.0000076293945313
 20
24.49563598632813
 30
-191.5076904296875
 70
    32
  0
VERTEX
  5
145
330
FA
100
AcDbEntity
  8
OracDecor_cornice_mouldings
 62
   233
420
 14768015
100
AcDbVertex
100
AcDb3dPolylineVertex
 10
0.0000076293945313
 20
24.51541900634766
 30
-189.9058532714843
 70
    32
  0
VERTEX
  5
146
330
FA
100
AcDbEntity
  8
OracDecor_cornice_mouldings
 62
   233
420
 14768015
100
AcDbVertex
100
AcDb3dPolylineVertex
 10
0.0000076293945313
 20
24.11170196533203
 30
-188.3883972167969
 70
    32
  0
VERTEX
  5
147
330
FA
100
AcDbEntity
  8
OracDecor_cornice_mouldings
 62
   233
420
 14768015
100
AcDbVertex
100
AcDb3dPolylineVertex
 10
0.0000076293945313
 20
23.27579879760742
 30
-187.0177764892578
 70
    32
  0
VERTEX
  5
148
330
FA
100
AcDbEntity
  8
OracDecor_cornice_mouldings
 62
   233
420
 14768015
100
AcDbVertex
100
AcDb3dPolylineVertex
 10
0.0000076293940765
 20
20.92210006713867
 30
-184.9537658691406
 70
    32
  0
VERTEX
  5
149
330
FA
100
AcDbEntity
  8
OracDecor_cornice_mouldings
 62
   233
420
 14768015
100
AcDbVertex
100
AcDb3dPolylineVertex
 10
0.0000076293940765
 20
18.81742095947265
 30
-183.1738128662109
 70
    32
  0
VERTEX
  5
14A
330
FA
100
AcDbEntity
  8
OracDecor_cornice_mouldings
 62
   233
420
 14768015
100
AcDbVertex
100
AcDb3dPolylineVertex
 10
0.0000076293945313
 20
18.07671356201172
 30
-182.1348266601562
 70
    32
  0
VERTEX
  5
14B
330
FA
100
AcDbEntity
  8
OracDecor_cornice_mouldings
 62
   233
420
 14768015
100
AcDbVertex
100
AcDb3dPolylineVertex
 10
0.0000076293945313
 20
17.54412078857422
 30
-180.6301879882812
 70
    32
  0
VERTEX
  5
14C
330
FA
100
AcDbEntity
  8
OracDecor_cornice_mouldings
 62
   233
420
 14768015
100
AcDbVertex
100
AcDb3dPolylineVertex
 10
0.0000076293945313
 20
17.41163063049316
 30
-178.2472534179687
 70
    32
  0
VERTEX
  5
14D
330
FA
100
AcDbEntity
  8
OracDecor_cornice_mouldings
 62
   233
420
 14768015
100
AcDbVertex
100
AcDb3dPolylineVertex
 10
0.0000076293945313
 20
17.34415435791015
 30
-175.7802429199218
 70
    32
  0
VERTEX
  5
14E
330
FA
100
AcDbEntity
  8
OracDecor_cornice_mouldings
 62
   233
420
 14768015
100
AcDbVertex
100
AcDb3dPolylineVertex
 10
0.0000076293945313
 20
16.79234504699707
 30
-173.7921447753906
 70
    32
  0
VERTEX
  5
14F
330
FA
100
AcDbEntity
  8
OracDecor_cornice_mouldings
 62
   233
420
 14768015
100
AcDbVertex
100
AcDb3dPolylineVertex
 10
0.0000076293945313
 20
15.78224945068359
 30
-172.3419799804687
 70
    32
  0
VERTEX
  5
150
330
FA
100
AcDbEntity
  8
OracDecor_cornice_mouldings
 62
   233
420
 14768015
100
AcDbVertex
100
AcDb3dPolylineVertex
 10
0.0000076293940765
 20
13.45483493804932
 30
-170.2938842773437
 70
    32
  0
VERTEX
  5
151
330
FA
100
AcDbEntity
  8
OracDecor_cornice_mouldings
 62
   233
420
 14768015
100
AcDbVertex
100
AcDb3dPolylineVertex
 10
0.0000076293945313
 20
10.82056427001953
 30
-168.0681457519531
 70
    32
  0
VERTEX
  5
152
330
FA
100
AcDbEntity
  8
OracDecor_cornice_mouldings
 62
   233
420
 14768015
100
AcDbVertex
100
AcDb3dPolylineVertex
 10
0.0000076293945313
 20
9.168426513671875
 30
-166.2881927490234
 70
    32
  0
VERTEX
  5
153
330
FA
100
AcDbEntity
  8
OracDecor_cornice_mouldings
 62
   233
420
 14768015
100
AcDbVertex
100
AcDb3dPolylineVertex
 10
0.0000152587890625
 20
7.822624206542968
 30
-164.1112365722656
 70
    32
  0
VERTEX
  5
154
330
FA
100
AcDbEntity
  8
OracDecor_cornice_mouldings
 62
   233
420
 14768015
100
AcDbVertex
100
AcDb3dPolylineVertex
 10
0.0000152587890625
 20
6.984096527099609
 30
-161.3914642333984
 70
    32
  0
VERTEX
  5
155
330
FA
100
AcDbEntity
  8
OracDecor_cornice_mouldings
 62
   233
420
 14768015
100
AcDbVertex
100
AcDb3dPolylineVertex
 10
0.0000152587890625
 20
6.732501983642578
 30
-158.9707336425781
 70
    32
  0
VERTEX
  5
156
330
FA
100
AcDbEntity
  8
OracDecor_cornice_mouldings
 62
   233
420
 14768015
100
AcDbVertex
100
AcDb3dPolylineVertex
 10
0.0000076293945313
 20
6.729679107666015
 30
-111.1156463623047
 70
    32
  0
VERTEX
  5
157
330
FA
100
AcDbEntity
  8
OracDecor_cornice_mouldings
 62
   233
420
 14768015
100
AcDbVertex
100
AcDb3dPolylineVertex
 10
0.0000076293940765
 20
6.510299682617187
 30
-109.5084991455078
 70
    32
  0
VERTEX
  5
158
330
FA
100
AcDbEntity
  8
OracDecor_cornice_mouldings
 62
   233
420
 14768015
100
AcDbVertex
100
AcDb3dPolylineVertex
 10
0.0000076293945313
 20
5.867801666259765
 30
-108.0147323608398
 70
    32
  0
VERTEX
  5
159
330
FA
100
AcDbEntity
  8
OracDecor_cornice_mouldings
 62
   233
420
 14768015
100
AcDbVertex
100
AcDb3dPolylineVertex
 10
0.0000076293945313
 20
4.847522735595703
 30
-106.7397079467773
 70
    32
  0
VERTEX
  5
15A
330
FA
100
AcDbEntity
  8
OracDecor_cornice_mouldings
 62
   233
420
 14768015
100
AcDbVertex
100
AcDb3dPolylineVertex
 10
0.0000076293945313
 20
3.521404266357421
 30
-105.7733459472656
 70
    32
  0
VERTEX
  5
15B
330
FA
100
AcDbEntity
  8
OracDecor_cornice_mouldings
 62
   233
420
 14768015
100
AcDbVertex
100
AcDb3dPolylineVertex
 10
0.0000076293945313
 20
-0.0070877075195313
 30
-103.8568344116211
 70
    32
  0
VERTEX
  5
15C
330
FA
100
AcDbEntity
  8
OracDecor_cornice_mouldings
 62
   233
420
 14768015
100
AcDbVertex
100
AcDb3dPolylineVertex
 10
0.0000076293945313
 20
-0.0074348449707031
 30
-97.95939636230469
 70
    32
  0
VERTEX
  5
15D
330
FA
100
AcDbEntity
  8
OracDecor_cornice_mouldings
 62
   233
420
 14768015
100
AcDbVertex
100
AcDb3dPolylineVertex
 10
0.0000076293945313
 20
0.6424140930175782
 30
-97.6275634765625
 70
    32
  0
VERTEX
  5
15E
330
FA
100
AcDbEntity
  8
OracDecor_cornice_mouldings
 62
   233
420
 14768015
100
AcDbVertex
100
AcDb3dPolylineVertex
 10
0.0000076293940765
 20
1.107208251953125
 30
-97.08204650878906
 70
    32
  0
VERTEX
  5
15F
330
FA
100
AcDbEntity
  8
OracDecor_cornice_mouldings
 62
   233
420
 14768015
100
AcDbVertex
100
AcDb3dPolylineVertex
 10
0.0000076293945313
 20
1.325981140136718
 30
-96.40408325195313
 70
    32
  0
VERTEX
  5
160
330
FA
100
AcDbEntity
  8
OracDecor_cornice_mouldings
 62
   233
420
 14768015
100
AcDbVertex
100
AcDb3dPolylineVertex
 10
0.0000076293945313
 20
1.265853881835937
 30
-95.69535064697266
 70
    32
  0
VERTEX
  5
161
330
FA
100
AcDbEntity
  8
OracDecor_cornice_mouldings
 62
   233
420
 14768015
100
AcDbVertex
100
AcDb3dPolylineVertex
 10
0.0000076293945313
 20
0.9359130859375
 30
-95.06217193603516
 70
    32
  0
VERTEX
  5
162
330
FA
100
AcDbEntity
  8
OracDecor_cornice_mouldings
 62
   233
420
 14768015
100
AcDbVertex
100
AcDb3dPolylineVertex
 10
0.0000076293945313
 20
0.3772468566894531
 30
-94.59703063964843
 70
    32
  0
VERTEX
  5
163
330
FA
100
AcDbEntity
  8
OracDecor_cornice_mouldings
 62
   233
420
 14768015
100
AcDbVertex
100
AcDb3dPolylineVertex
 10
0.0000076293940765
 20
-0.0076446533203125
 30
-94.38797760009766
 70
    32
  0
VERTEX
  5
164
330
FA
100
AcDbEntity
  8
OracDecor_cornice_mouldings
 62
   233
420
 14768015
100
AcDbVertex
100
AcDb3dPolylineVertex
 10
0.0000076293945313
 20
-0.0079841613769531
 30
-88.59283447265625
 70
    32
  0
VERTEX
  5
165
330
FA
100
AcDbEntity
  8
OracDecor_cornice_mouldings
 62
   233
420
 14768015
100
AcDbVertex
100
AcDb3dPolylineVertex
 10
0.0000076293945313
 20
22.22228622436523
 30
-65.89905548095703
 70
    32
  0
VERTEX
  5
166
330
FA
100
AcDbEntity
  8
OracDecor_cornice_mouldings
 62
   233
420
 14768015
100
AcDbVertex
100
AcDb3dPolylineVertex
 10
0.0000076293945313
 20
25.999267578125
 30
-62.85875701904297
 70
    32
  0
VERTEX
  5
167
330
FA
100
AcDbEntity
  8
OracDecor_cornice_mouldings
 62
   233
420
 14768015
100
AcDbVertex
100
AcDb3dPolylineVertex
 10
0.0000076293945313
 20
30.39565277099609
 30
-60.77010726928711
 70
    32
  0
VERTEX
  5
168
330
FA
100
AcDbEntity
  8
OracDecor_cornice_mouldings
 62
   233
420
 14768015
100
AcDbVertex
100
AcDb3dPolylineVertex
 10
0.0000076293945313
 20
43.13656616210937
 30
-56.45024871826172
 70
    32
  0
VERTEX
  5
169
330
FA
100
AcDbEntity
  8
OracDecor_cornice_mouldings
 62
   233
420
 14768015
100
AcDbVertex
100
AcDb3dPolylineVertex
 10
0.0000076293945313
 20
44.58865356445312
 30
-55.73782730102539
 70
    32
  0
VERTEX
  5
16A
330
FA
100
AcDbEntity
  8
OracDecor_cornice_mouldings
 62
   233
420
 14768015
100
AcDbVertex
100
AcDb3dPolylineVertex
 10
0.0
 20
45.80347061157226
 30
-54.68062973022461
 70
    32
  0
VERTEX
  5
16B
330
FA
100
AcDbEntity
  8
OracDecor_cornice_mouldings
 62
   233
420
 14768015
100
AcDbVertex
100
AcDb3dPolylineVertex
 10
0.0
 20
46.69822692871093
 30
-53.35075378417968
 70
    32
  0
VERTEX
  5
16C
330
FA
100
AcDbEntity
  8
OracDecor_cornice_mouldings
 62
   233
420
 14768015
100
AcDbVertex
100
AcDb3dPolylineVertex
 10
0.0
 20
58.46044158935547
 30
-29.61870574951172
 70
    32
  0
VERTEX
  5
16D
330
FA
100
AcDbEntity
  8
OracDecor_cornice_mouldings
 62
   233
420
 14768015
100
AcDbVertex
100
AcDb3dPolylineVertex
 10
0.0
 20
59.28129196166992
 30
-28.24681854248047
 70
    32
  0
VERTEX
  5
16E
330
FA
100
AcDbEntity
  8
OracDecor_cornice_mouldings
 62
   233
420
 14768015
100
AcDbVertex
100
AcDb3dPolylineVertex
 10
0.0
 20
60.30986022949218
 30
-27.017333984375
 70
    32
  0
VERTEX
  5
16F
330
FA
100
AcDbEntity
  8
OracDecor_cornice_mouldings
 62
   233
420
 14768015
100
AcDbVertex
100
AcDb3dPolylineVertex
 10
0.0
 20
74.06817626953125
 30
-12.9721450805664
 70
    32
  0
VERTEX
  5
170
330
FA
100
AcDbEntity
  8
OracDecor_cornice_mouldings
 62
   233
420
 14768015
100
AcDbVertex
100
AcDb3dPolylineVertex
 10
0.0
 20
75.73063659667969
 30
-11.5977783203125
 70
    32
  0
VERTEX
  5
171
330
FA
100
AcDbEntity
  8
OracDecor_cornice_mouldings
 62
   233
420
 14768015
100
AcDbVertex
100
AcDb3dPolylineVertex
 10
0.0
 20
77.6484375
 30
-10.59403228759765
 70
    32
  0
VERTEX
  5
172
330
FA
100
AcDbEntity
  8
OracDecor_cornice_mouldings
 62
   233
420
 14768015
100
AcDbVertex
100
AcDb3dPolylineVertex
 10
0.0
 20
79.73725128173828
 30
-10.00507354736328
 70
    32
  0
VERTEX
  5
173
330
FA
100
AcDbEntity
  8
OracDecor_cornice_mouldings
 62
   233
420
 14768015
100
AcDbVertex
100
AcDb3dPolylineVertex
 10
-0.0000076293927123
 20
88.12132263183594
 30
-8.552986145019531
 70
    32
  0
VERTEX
  5
174
330
FA
100
AcDbEntity
  8
OracDecor_cornice_mouldings
 62
   233
420
 14768015
100
AcDbVertex
100
AcDb3dPolylineVertex
 10
-0.0000076293954407
 20
89.77473449707032
 30
-8.023719787597656
 70
    32
  0
VERTEX
  5
175
330
FA
100
AcDbEntity
  8
OracDecor_cornice_mouldings
 62
   233
420
 14768015
100
AcDbVertex
100
AcDb3dPolylineVertex
 10
-0.0000076293945313
 20
91.2024917602539
 30
-7.074470520019531
 70
    32
  0
VERTEX
  5
176
330
FA
100
AcDbEntity
  8
OracDecor_cornice_mouldings
 62
   233
420
 14768015
100
AcDbVertex
100
AcDb3dPolylineVertex
 10
-0.0000076293945313
 20
92.31187438964843
 30
-5.776130676269531
 70
    32
  0
VERTEX
  5
177
330
FA
100
AcDbEntity
  8
OracDecor_cornice_mouldings
 62
   233
420
 14768015
100
AcDbVertex
100
AcDb3dPolylineVertex
 10
-0.0000076293945313
 20
93.01582336425781
 30
-4.230606079101562
 70
    32
  0
VERTEX
  5
178
330
FA
100
AcDbEntity
  8
OracDecor_cornice_mouldings
 62
   233
420
 14768015
100
AcDbVertex
100
AcDb3dPolylineVertex
 10
-0.0000076293927123
 20
93.25935363769531
 30
-2.539848327636718
 70
    32
  0
VERTEX
  5
179
330
FA
100
AcDbEntity
  8
OracDecor_cornice_mouldings
 62
   233
420
 14768015
100
AcDbVertex
100
AcDb3dPolylineVertex
 10
-0.0000076293945313
 20
93.25920104980468
 30
-0.031036376953125
 70
    32
  0
VERTEX
  5
17A
330
FA
100
AcDbEntity
  8
OracDecor_cornice_mouldings
 62
   233
420
 14768015
100
AcDbVertex
100
AcDb3dPolylineVertex
 10
-0.0000076293945313
 20
100.0629119873047
 30
-0.0306396484375
 70
    32
  0
VERTEX
  5
17B
330
FA
100
AcDbEntity
  8
OracDecor_cornice_mouldings
 62
   233
420
 14768015
100
AcDbVertex
100
AcDb3dPolylineVertex
 10
-0.0000076293945313
 20
102.8953857421875
 30
-1.208343505859375
 70
    32
  0
VERTEX
  5
17C
330
FA
100
AcDbEntity
  8
OracDecor_cornice_mouldings
 62
   233
420
 14768015
100
AcDbVertex
100
AcDb3dPolylineVertex
 10
-0.0000076293945313
 20
103.6636810302734
 30
-1.352867126464843
 70
    32
  0
VERTEX
  5
17D
330
FA
100
AcDbEntity
  8
OracDecor_cornice_mouldings
 62
   233
420
 14768015
100
AcDbVertex
100
AcDb3dPolylineVertex
 10
-0.0000076293945313
 20
104.4247741699219
 30
-1.175399780273437
 70
    32
  0
VERTEX
  5
17E
330
FA
100
AcDbEntity
  8
OracDecor_cornice_mouldings
 62
   233
420
 14768015
100
AcDbVertex
100
AcDb3dPolylineVertex
 10
-0.0000076293945313
 20
105.0448455810547
 30
-0.7070999145507813
 70
    32
  0
VERTEX
  5
17F
330
FA
100
AcDbEntity
  8
OracDecor_cornice_mouldings
 62
   233
420
 14768015
100
AcDbVertex
100
AcDb3dPolylineVertex
 10
-0.0000076293945313
 20
105.4148406982422
 30
-0.0303268432617188
 70
    32
  0
VERTEX
  5
180
330
FA
100
AcDbEntity
  8
OracDecor_cornice_mouldings
 62
   233
420
 14768015
100
AcDbVertex
100
AcDb3dPolylineVertex
 10
-0.0000076293945313
 20
113.9864196777343
 30
-0.0298233032226563
 70
    32
  0
SEQEND
  5
181
330
FA
100
AcDbEntity
  8
OracDecor_cornice_mouldings
 62
   233
420
 14768015
  0
ENDSEC
  0
SECTION
  2
OBJECTS
  0
DICTIONARY
  5
C
330
0
100
AcDbDictionary
281
     1
  3
ACAD_COLOR
350
DC
  3
ACAD_DETAILVIEWSTYLE
350
F5
  3
ACAD_GROUP
350
D
  3
ACAD_LAYOUT
350
1A
  3
ACAD_MATERIAL
350
AA
  3
ACAD_MLEADERSTYLE
350
F1
  3
ACAD_MLINESTYLE
350
17
  3
ACAD_PLOTSETTINGS
350
19
  3
ACAD_PLOTSTYLENAME
350
E
  3
ACAD_SCALELIST
350
DF
  3
ACAD_SECTIONVIEWSTYLE
350
F3
  3
ACAD_TABLESTYLE
350
DD
  3
ACAD_VISUALSTYLE
350
C3
  3
ACDB_RECOMPOSE_DATA
350
18E
  3
AcDbVariableDictionary
350
182
  0
DICTIONARY
  5
DC
102
{ACAD_REACTORS
330
C
102
}
330
C
100
AcDbDictionary
281
     1
  0
DICTIONARY
  5
F5
102
{ACAD_REACTORS
330
C
102
}
330
C
100
AcDbDictionary
281
     1
  3
Imperial24
350
F6
  0
DICTIONARY
  5
D
102
{ACAD_REACTORS
330
C
102
}
330
C
100
AcDbDictionary
281
     1
  0
DICTIONARY
  5
1A
102
{ACAD_REACTORS
330
C
102
}
330
C
100
AcDbDictionary
281
     1
  3
Layout1
350
1E
  3
Layout2
350
26
  3
Model
350
22
  0
DICTIONARY
  5
AA
102
{ACAD_REACTORS
330
C
102
}
330
C
100
AcDbDictionary
281
     1
  3
ByBlock
350
B3
  3
ByLayer
350
AB
  3
Global
350
BB
  0
DICTIONARY
  5
F1
102
{ACAD_REACTORS
330
C
102
}
330
C
100
AcDbDictionary
281
     1
  3
Standard
350
F2
  0
DICTIONARY
  5
17
102
{ACAD_REACTORS
330
C
102
}
330
C
100
AcDbDictionary
281
     1
  3
Standard
350
18
  0
DICTIONARY
  5
19
102
{ACAD_REACTORS
330
C
102
}
330
C
100
AcDbDictionary
281
     1
  0
ACDBDICTIONARYWDFLT
  5
E
102
{ACAD_REACTORS
330
C
102
}
330
C
100
AcDbDictionary
281
     1
  3
ByLayer
350
2D
  3
Normal
350
F
100
AcDbDictionaryWithDefault
340
F
  0
DICTIONARY
  5
DF
102
{ACAD_REACTORS
330
C
102
}
330
C
100
AcDbDictionary
281
     1
  3
A0
350
E0
  3
A1
350
E1
  3
A2
350
E2
  3
A3
350
E3
  3
A4
350
E4
  3
A5
350
E5
  3
A6
350
E6
  3
A7
350
E7
  3
A8
350
E8
  3
A9
350
E9
  3
B0
350
EA
  3
B1
350
EB
  3
B2
350
EC
  3
B3
350
ED
  3
B4
350
EE
  3
B5
350
EF
  3
B6
350
F0
  0
DICTIONARY
  5
F3
102
{ACAD_REACTORS
330
C
102
}
330
C
100
AcDbDictionary
281
     1
  3
Imperial24
350
F4
  0
DICTIONARY
  5
DD
102
{ACAD_REACTORS
330
C
102
}
330
C
100
AcDbDictionary
281
     1
  3
Standard
350
DE
  0
DICTIONARY
  5
C3
102
{ACAD_REACTORS
330
C
102
}
330
C
100
AcDbDictionary
281
     1
  3
2dWireframe
350
C9
  3
Basic
350
C8
  3
Brighten
350
CF
  3
ColorChange
350
D3
  3
Conceptual
350
CC
  3
Dim
350
CE
  3
EdgeColorOff
350
DB
  3
Facepattern
350
D2
  3
Flat
350
C4
  3
FlatWithEdges
350
C5
  3
Gouraud
350
C6
  3
GouraudWithEdges
350
C7
  3
Hidden
350
CB
  3
JitterOff
350
D9
  3
Linepattern
350
D1
  3
OverhangOff
350
DA
  3
Realistic
350
CD
  3
Shaded
350
D8
  3
Shaded with edges
350
D7
  3
Shades of Gray
350
D4
  3
Sketchy
350
D5
  3
Thicken
350
D0
  3
Wireframe
350
CA
  3
X-Ray
350
D6
  0
XRECORD
  5
18E
102
{ACAD_REACTORS
330
C
102
}
330
C
100
AcDbXrecord
280
     1
 90
        1
330
DE
  0
DICTIONARY
  5
182
102
{ACAD_REACTORS
330
C
102
}
330
C
100
AcDbDictionary
281
     1
  3
CANNOSCALE
350
188
  3
CMLEADERSTYLE
350
184
  3
CTABLESTYLE
350
183
  3
CVIEWDETAILSTYLE
350
185
  3
CVIEWSECTIONSTYLE
350
186
  3
LAYEREVAL
350
18A
  3
LAYERNOTIFY
350
18B
  3
LIGHTINGUNITS
350
189
  3
MSLTSCALE
350
187
  0
ACDBDETAILVIEWSTYLE
  5
F6
102
{ACAD_XDICTIONARY
360
1C3
102
}
102
{ACAD_REACTORS
330
F5
102
}
330
F5
100
AcDbModelDocViewStyle
 70
     0
  3
Imperial24
290
     0
100
AcDbDetailViewStyle
 70
     0
 71
     0
 90
        3
 71
     1
340
11
 62
   256
 40
0.24
340
0
 62
   256
 40
0.24
300

 40
0.36
280
     3
 71
     2
340
16
 90
       25
 62
   256
 71
     3
340
11
 62
   256
 40
0.24
 90
        1
 40
0.75
 90
        1
300
%<\AcVar ViewType \f "%tc1">% %<\AcVar ViewDetailId>%\PSCALE %<\AcVar ViewScale \f "%sn">%
 71
     4
340
16
 90
       25
 62
   256
340
16
 90
       25
 62
   256
280
     0
  0
LAYOUT
  5
1E
102
{ACAD_REACTORS
330
1A
102
}
330
1A
100
AcDbPlotSettings
  1

  2
\\KTXNTBDC\CASF2PN1
  4

  6

 40
0.0
 41
0.0
 42
0.0
 43
0.0
 44
0.0
 45
0.0
 46
0.0
 47
0.0
 48
0.0
 49
0.0
140
0.0
141
0.0
142
1.0
143
1.0
 70
   688
 72
     0
 73
     0
 74
     5
  7

 75
    16
147
1.0
 76
     0
 77
     2
 78
   300
148
0.0
149
0.0
100
AcDbLayout
  1
Layout1
 70
     1
 71
     1
 10
0.0
 20
0.0
 11
12.0
 21
9.0
 12
0.0
 22
0.0
 32
0.0
 14
1.000000000000000E+20
 24
1.000000000000000E+20
 34
1.000000000000000E+20
 15
-1.000000000000000E+20
 25
-1.000000000000000E+20
 35
-1.000000000000000E+20
146
0.0
 13
0.0
 23
0.0
 33
0.0
 16
1.0
 26
0.0
 36
0.0
 17
0.0
 27
1.0
 37
0.0
 76
     0
330
1B
  0
LAYOUT
  5
26
102
{ACAD_REACTORS
330
1A
102
}
330
1A
100
AcDbPlotSettings
  1

  2
\\KTXNTBDC\CASF2PN1
  4

  6

 40
0.0
 41
0.0
 42
0.0
 43
0.0
 44
0.0
 45
0.0
 46
0.0
 47
0.0
 48
0.0
 49
0.0
140
0.0
141
0.0
142
1.0
143
1.0
 70
   688
 72
     0
 73
     0
 74
     5
  7

 75
    16
147
1.0
 76
     0
 77
     2
 78
   300
148
0.0
149
0.0
100
AcDbLayout
  1
Layout2
 70
     1
 71
     2
 10
0.0
 20
0.0
 11
12.0
 21
9.0
 12
0.0
 22
0.0
 32
0.0
 14
0.0
 24
0.0
 34
0.0
 15
0.0
 25
0.0
 35
0.0
146
0.0
 13
0.0
 23
0.0
 33
0.0
 16
1.0
 26
0.0
 36
0.0
 17
0.0
 27
1.0
 37
0.0
 76
     0
330
23
  0
LAYOUT
  5
22
102
{ACAD_REACTORS
330
1A
102
}
330
1A
100
AcDbPlotSettings
  1

  2
\\KTXNTBDC\CASF2PN1
  4

  6

 40
0.0
 41
0.0
 42
0.0
 43
0.0
 44
0.0
 45
0.0
 46
0.0
 47
0.0
 48
0.0
 49
0.0
140
0.0
141
0.0
142
1.0
143
1.0
 70
  1712
 72
     0
 73
     0
 74
     0
  7

 75
     0
147
1.0
 76
     0
 77
     2
 78
   300
148
0.0
149
0.0
100
AcDbLayout
  1
Model
 70
     1
 71
     0
 10
0.0
 20
0.0
 11
12.0
 21
9.0
 12
0.0
 22
0.0
 32
0.0
 14
0.0
 24
0.0
 34
0.0
 15
0.0
 25
0.0
 35
0.0
146
0.0
 13
0.0
 23
0.0
 33
0.0
 16
1.0
 26
0.0
 36
0.0
 17
0.0
 27
1.0
 37
0.0
 76
     0
330
1F
  0
MATERIAL
  5
B3
102
{ACAD_XDICTIONARY
360
B4
102
}
102
{ACAD_REACTORS
330
AA
102
}
330
AA
100
AcDbMaterial
  1
ByBlock
 72
     0
 43
0.0208333333333333
 43
0.0
 43
0.0
 43
0.0
 43
0.0
 43
0.0208333333333333
 43
0.0
 43
0.0
 43
0.0
 43
0.0
 43
1.0
 43
0.0
 43
0.0
 43
0.0
 43
0.0
 43
1.0
 77
     0
 47
0.0208333333333333
 47
0.0
 47
0.0
 47
0.0
 47
0.0
 47
0.0208333333333333
 47
0.0
 47
0.0
 47
0.0
 47
0.0
 47
1.0
 47
0.0
 47
0.0
 47
0.0
 47
0.0
 47
1.0
171
     0
 49
0.0208333333333333
 49
0.0
 49
0.0
 49
0.0
 49
0.0
 49
0.0208333333333333
 49
0.0
 49
0.0
 49
0.0
 49
0.0
 49
1.0
 49
0.0
 49
0.0
 49
0.0
 49
0.0
 49
1.0
175
     0
142
0.0208333333333333
142
0.0
142
0.0
142
0.0
142
0.0
142
0.0208333333333333
142
0.0
142
0.0
142
0.0
142
0.0
142
1.0
142
0.0
142
0.0
142
0.0
142
0.0
142
1.0
179
     0
144
0.0208333333333333
144
0.0
144
0.0
144
0.0
144
0.0
144
0.0208333333333333
144
0.0
144
0.0
144
0.0
144
0.0
144
1.0
144
0.0
144
0.0
144
0.0
144
0.0
144
1.0
147
0.0208333333333333
147
0.0
147
0.0
147
0.0
147
0.0
147
0.0208333333333333
147
0.0
147
0.0
147
0.0
147
0.0
147
1.0
147
0.0
147
0.0
147
0.0
147
0.0
147
1.0
  0
MATERIAL
  5
AB
102
{ACAD_XDICTIONARY
360
AC
102
}
102
{ACAD_REACTORS
330
AA
102
}
330
AA
100
AcDbMaterial
  1
ByLayer
 72
     0
 43
0.0208333333333333
 43
0.0
 43
0.0
 43
0.0
 43
0.0
 43
0.0208333333333333
 43
0.0
 43
0.0
 43
0.0
 43
0.0
 43
1.0
 43
0.0
 43
0.0
 43
0.0
 43
0.0
 43
1.0
 77
     0
 47
0.0208333333333333
 47
0.0
 47
0.0
 47
0.0
 47
0.0
 47
0.0208333333333333
 47
0.0
 47
0.0
 47
0.0
 47
0.0
 47
1.0
 47
0.0
 47
0.0
 47
0.0
 47
0.0
 47
1.0
171
     0
 49
0.0208333333333333
 49
0.0
 49
0.0
 49
0.0
 49
0.0
 49
0.0208333333333333
 49
0.0
 49
0.0
 49
0.0
 49
0.0
 49
1.0
 49
0.0
 49
0.0
 49
0.0
 49
0.0
 49
1.0
175
     0
142
0.0208333333333333
142
0.0
142
0.0
142
0.0
142
0.0
142
0.0208333333333333
142
0.0
142
0.0
142
0.0
142
0.0
142
1.0
142
0.0
142
0.0
142
0.0
142
0.0
142
1.0
179
     0
144
0.0208333333333333
144
0.0
144
0.0
144
0.0
144
0.0
144
0.0208333333333333
144
0.0
144
0.0
144
0.0
144
0.0
144
1.0
144
0.0
144
0.0
144
0.0
144
0.0
144
1.0
147
0.0208333333333333
147
0.0
147
0.0
147
0.0
147
0.0
147
0.0208333333333333
147
0.0
147
0.0
147
0.0
147
0.0
147
1.0
147
0.0
147
0.0
147
0.0
147
0.0
147
1.0
  0
MATERIAL
  5
BB
102
{ACAD_XDICTIONARY
360
BC
102
}
102
{ACAD_REACTORS
330
AA
102
}
330
AA
100
AcDbMaterial
  1
Global
 72
     0
 43
0.0208333333333333
 43
0.0
 43
0.0
 43
0.0
 43
0.0
 43
0.0208333333333333
 43
0.0
 43
0.0
 43
0.0
 43
0.0
 43
1.0
 43
0.0
 43
0.0
 43
0.0
 43
0.0
 43
1.0
 77
     0
 47
0.0208333333333333
 47
0.0
 47
0.0
 47
0.0
 47
0.0
 47
0.0208333333333333
 47
0.0
 47
0.0
 47
0.0
 47
0.0
 47
1.0
 47
0.0
 47
0.0
 47
0.0
 47
0.0
 47
1.0
171
     0
 49
0.0208333333333333
 49
0.0
 49
0.0
 49
0.0
 49
0.0
 49
0.0208333333333333
 49
0.0
 49
0.0
 49
0.0
 49
0.0
 49
1.0
 49
0.0
 49
0.0
 49
0.0
 49
0.0
 49
1.0
175
     0
142
0.0208333333333333
142
0.0
142
0.0
142
0.0
142
0.0
142
0.0208333333333333
142
0.0
142
0.0
142
0.0
142
0.0
142
1.0
142
0.0
142
0.0
142
0.0
142
0.0
142
1.0
179
     0
144
0.0208333333333333
144
0.0
144
0.0
144
0.0
144
0.0
144
0.0208333333333333
144
0.0
144
0.0
144
0.0
144
0.0
144
1.0
144
0.0
144
0.0
144
0.0
144
0.0
144
1.0
147
0.0208333333333333
147
0.0
147
0.0
147
0.0
147
0.0
147
0.0208333333333333
147
0.0
147
0.0
147
0.0
147
0.0
147
1.0
147
0.0
147
0.0
147
0.0
147
0.0
147
1.0
  0
MLEADERSTYLE
  5
F2
102
{ACAD_XDICTIONARY
360
1BF
102
}
102
{ACAD_REACTORS
330
F1
102
}
330
F1
100
AcDbMLeaderStyle
179
     2
170
     2
171
     1
172
     0
 90
        2
 40
0.0
 41
0.0
173
     1
 91
-1056964608
340
14
 92
       -2
290
     1
 42
0.09
291
     1
 43
0.36
  3
Standard
 44
0.18
300

342
11
174
     1
178
     6
175
     1
176
     0
 93
-1056964608
 45
0.18
292
     0
297
     0
 46
0.18
 94
-1056964608
 47
1.0
 49
1.0
140
1.0
293
     1
141
0.0
294
     1
177
     0
142
1.0
295
     0
296
     0
143
0.125
271
     0
272
     9
273
     9
  0
MLINESTYLE
  5
18
102
{ACAD_REACTORS
330
17
102
}
330
17
100
AcDbMlineStyle
  2
STANDARD
 70
     0
  3

 62
   256
 51
90.0
 52
90.0
 71
     2
 49
0.5
 62
   256
  6
BYLAYER
 49
-0.5
 62
   256
  6
BYLAYER
  0
ACDBPLACEHOLDER
  5
2D
102
{ACAD_REACTORS
330
E
102
}
330
E
  0
ACDBPLACEHOLDER
  5
F
102
{ACAD_REACTORS
330
E
102
}
330
E
  0
SCALE
  5
E0
102
{ACAD_REACTORS
330
DF
102
}
330
DF
100
AcDbScale
 70
     0
300
1:1
140
1.0
141
1.0
290
     1
  0
SCALE
  5
E1
102
{ACAD_REACTORS
330
DF
102
}
330
DF
100
AcDbScale
 70
     0
300
1/128" = 1'-0"
140
0.0078125
141
12.0
290
     0
  0
SCALE
  5
E2
102
{ACAD_REACTORS
330
DF
102
}
330
DF
100
AcDbScale
 70
     0
300
1/64" = 1'-0"
140
0.015625
141
12.0
290
     0
  0
SCALE
  5
E3
102
{ACAD_REACTORS
330
DF
102
}
330
DF
100
AcDbScale
 70
     0
300
1/32" = 1'-0"
140
0.03125
141
12.0
290
     0
  0
SCALE
  5
E4
102
{ACAD_REACTORS
330
DF
102
}
330
DF
100
AcDbScale
 70
     0
300
1/16" = 1'-0"
140
0.0625
141
12.0
290
     0
  0
SCALE
  5
E5
102
{ACAD_REACTORS
330
DF
102
}
330
DF
100
AcDbScale
 70
     0
300
3/32" = 1'-0"
140
0.09375
141
12.0
290
     0
  0
SCALE
  5
E6
102
{ACAD_REACTORS
330
DF
102
}
330
DF
100
AcDbScale
 70
     0
300
1/8" = 1'-0"
140
0.125
141
12.0
290
     0
  0
SCALE
  5
E7
102
{ACAD_REACTORS
330
DF
102
}
330
DF
100
AcDbScale
 70
     0
300
3/16" = 1'-0"
140
0.1875
141
12.0
290
     0
  0
SCALE
  5
E8
102
{ACAD_REACTORS
330
DF
102
}
330
DF
100
AcDbScale
 70
     0
300
1/4" = 1'-0"
140
0.25
141
12.0
290
     0
  0
SCALE
  5
E9
102
{ACAD_REACTORS
330
DF
102
}
330
DF
100
AcDbScale
 70
     0
300
3/8" = 1'-0"
140
0.375
141
12.0
290
     0
  0
SCALE
  5
EA
102
{ACAD_REACTORS
330
DF
102
}
330
DF
100
AcDbScale
 70
     0
300
1/2" = 1'-0"
140
0.5
141
12.0
290
     0
  0
SCALE
  5
EB
102
{ACAD_REACTORS
330
DF
102
}
330
DF
100
AcDbScale
 70
     0
300
3/4" = 1'-0"
140
0.75
141
12.0
290
     0
  0
SCALE
  5
EC
102
{ACAD_REACTORS
330
DF
102
}
330
DF
100
AcDbScale
 70
     0
300
1" = 1'-0"
140
1.0
141
12.0
290
     0
  0
SCALE
  5
ED
102
{ACAD_REACTORS
330
DF
102
}
330
DF
100
AcDbScale
 70
     0
300
1-1/2" = 1'-0"
140
1.5
141
12.0
290
     0
  0
SCALE
  5
EE
102
{ACAD_REACTORS
330
DF
102
}
330
DF
100
AcDbScale
 70
     0
300
3" = 1'-0"
140
3.0
141
12.0
290
     0
  0
SCALE
  5
EF
102
{ACAD_REACTORS
330
DF
102
}
330
DF
100
AcDbScale
 70
     0
300
6" = 1'-0"
140
6.0
141
12.0
290
     0
  0
SCALE
  5
F0
102
{ACAD_REACTORS
330
DF
102
}
330
DF
100
AcDbScale
 70
     0
300
1'-0" = 1'-0"
140
12.0
141
12.0
290
     0
  0
ACDBSECTIONVIEWSTYLE
  5
F4
102
{ACAD_XDICTIONARY
360
1C1
102
}
102
{ACAD_REACTORS
330
F3
102
}
330
F3
100
AcDbModelDocViewStyle
 70
     0
  3
Imperial24
290
     0
100
AcDbSectionViewStyle
 70
     0
 71
     0
 90
       78
 71
     1
340
11
 62
   256
 40
0.24
340
0
340
0
 62
   256
 40
0.24
300
I, O, Q, S, X, Z
 40
0.48
 90
        3
 40
0.18
 90
        1
 71
     2
340
16
 90
       25
 62
   256
340
16
 90
       50
 62
   256
 40
0.24
 40
0.0
 40
0.24
 71
     3
340
11
 62
   256
 40
0.24
 90
        1
 40
0.75
 90
        1
300
%<\AcVar ViewType \f "%tc1">% %<\AcVar ViewSectionStartId>%-%<\AcVar ViewSectionEndId>%\PSCALE %<\AcVar ViewScale \f "%sn">%
 71
     4
 62
   256
 62
   257
300
ANSI31
 40
1.0
 90
        0
290
     0
290
     0
 90
        6
 40
0.0
 40
1.570796326794896
 40
0.2617993877991494
 40
1.308996938995747
 40
-0.2617993877991494
 40
1.832595714594046
  0
TABLESTYLE
  5
DE
102
{ACAD_XDICTIONARY
360
18C
102
}
102
{ACAD_REACTORS
330
DD
102
}
330
DD
100
AcDbTableStyle
280
     0
  3
Standard
 70
     0
 71
     0
 40
0.06
 41
0.06
280
     0
281
     0
  7
Standard
140
0.18
170
     2
 62
     0
 63
     7
283
     0
 90
      512
 91
        0
  1

274
    -2
284
     1
 64
     0
275
    -2
285
     1
 65
     0
276
    -2
286
     1
 66
     0
277
    -2
287
     1
 67
     0
278
    -2
288
     1
 68
     0
279
    -2
289
     1
 69
     0
  7
Standard
140
0.25
170
     5
 62
     0
 63
     7
283
     0
 90
      512
 91
        0
  1

274
    -2
284
     1
 64
     0
275
    -2
285
     1
 65
     0
276
    -2
286
     1
 66
     0
277
    -2
287
     1
 67
     0
278
    -2
288
     1
 68
     0
279
    -2
289
     1
 69
     0
  7
Standard
140
0.18
170
     5
 62
     0
 63
     7
283
     0
 90
      512
 91
        0
  1

274
    -2
284
     1
 64
     0
275
    -2
285
     1
 65
     0
276
    -2
286
     1
 66
     0
277
    -2
287
     1
 67
     0
278
    -2
288
     1
 68
     0
279
    -2
289
     1
 69
     0
  0
VISUALSTYLE
  5
C9
102
{ACAD_XDICTIONARY
360
199
102
}
102
{ACAD_REACTORS
330
C3
102
}
330
C3
100
AcDbVisualStyle
  2
2dWireframe
 70
     4
177
     2
291
     0
 71
     0
176
     1
 72
     2
176
     1
 73
     0
176
     1
 90
        0
176
     1
 40
0.6
176
     1
 41
30.0
176
     1
 63
     7
421
 16777215
176
     1
 74
     1
176
     1
 91
        4
176
     1
 64
     7
176
     1
 65
   257
176
     1
 75
     1
176
     1
175
     1
176
     1
 42
1.0
176
     1
 92
        0
176
     1
 66
   257
176
     1
 43
1.0
176
     1
 76
     1
176
     1
 77
     6
176
     1
 78
     2
176
     1
 67
     7
176
     1
 79
     5
176
     1
170
     0
176
     1
171
     0
176
     1
290
     0
176
     1
 93
        1
176
     1
 44
0.0
176
     1
173
     0
176
     1
1001
ACAD
1000
AcDbSavedByObjectVersion
1070
     0
  0
VISUALSTYLE
  5
C8
102
{ACAD_XDICTIONARY
360
197
102
}
102
{ACAD_REACTORS
330
C3
102
}
330
C3
100
AcDbVisualStyle
  2
Basic
 70
     7
177
     2
291
     1
 71
     1
176
     1
 72
     0
176
     1
 73
     1
176
     1
 90
        0
176
     1
 40
0.6
176
     1
 41
30.0
176
     1
 63
     7
421
 16777215
176
     1
 74
     0
176
     1
 91
        4
176
     1
 64
     7
176
     1
 65
   257
176
     1
 75
     1
176
     1
175
     1
176
     1
 42
1.0
176
     1
 92
        8
176
     1
 66
     7
176
     1
 43
1.0
176
     1
 76
     1
176
     1
 77
     6
176
     1
 78
     2
176
     1
 67
     7
176
     1
 79
     5
176
     1
170
     0
176
     1
171
     0
176
     1
290
     0
176
     1
 93
        1
176
     1
 44
0.0
176
     1
173
     0
176
     1
1001
ACAD
1000
AcDbSavedByObjectVersion
1070
     0
  0
VISUALSTYLE
  5
CF
102
{ACAD_XDICTIONARY
360
1A5
102
}
102
{ACAD_REACTORS
330
C3
102
}
330
C3
100
AcDbVisualStyle
  2
Brighten
 70
    12
177
     2
291
     1
 71
     2
176
     1
 72
     2
176
     1
 73
     0
176
     1
 90
        0
176
     1
 40
0.6
176
     1
 41
30.0
176
     1
 63
     7
421
 16777215
176
     1
 74
     1
176
     1
 91
        4
176
     1
 64
     7
176
     1
 65
   257
176
     1
 75
     1
176
     1
175
     1
176
     1
 42
1.0
176
     1
 92
        8
176
     1
 66
     7
176
     1
 43
1.0
176
     1
 76
     1
176
     1
 77
     6
176
     1
 78
     2
176
     1
 67
     7
176
     1
 79
     5
176
     1
170
     0
176
     1
171
     0
176
     1
290
     0
176
     1
 93
        1
176
     1
 44
50.0
176
     1
173
     0
176
     1
1001
ACAD
1000
AcDbSavedByObjectVersion
1070
     0
  0
VISUALSTYLE
  5
D3
102
{ACAD_XDICTIONARY
360
1AD
102
}
102
{ACAD_REACTORS
330
C3
102
}
330
C3
100
AcDbVisualStyle
  2
ColorChange
 70
    16
177
     2
291
     1
 71
     2
176
     1
 72
     2
176
     1
 73
     3
176
     1
 90
        0
176
     1
 40
0.6
176
     1
 41
30.0
176
     1
 63
     8
421
  8421504
176
     1
 74
     1
176
     1
 91
        4
176
     1
 64
     7
176
     1
 65
   257
176
     1
 75
     1
176
     1
175
     1
176
     1
 42
1.0
176
     1
 92
        8
176
     1
 66
     8
424
  8421504
176
     1
 43
1.0
176
     1
 76
     1
176
     1
 77
     6
176
     1
 78
     2
176
     1
 67
     7
176
     1
 79
     5
176
     1
170
     0
176
     1
171
     0
176
     1
290
     0
176
     1
 93
        1
176
     1
 44
0.0
176
     1
173
     0
176
     1
1001
ACAD
1000
AcDbSavedByObjectVersion
1070
     0
  0
VISUALSTYLE
  5
CC
102
{ACAD_XDICTIONARY
360
19F
102
}
102
{ACAD_REACTORS
330
C3
102
}
330
C3
100
AcDbVisualStyle
  2
Conceptual
 70
     9
177
     2
291
     0
 71
     3
176
     1
 72
     2
176
     1
 73
     0
176
     1
 90
        0
176
     1
 40
0.6
176
     1
 41
30.0
176
     1
 63
     7
421
 16777215
176
     1
 74
     2
176
     1
 91
        2
176
     1
 64
     7
176
     1
 65
   257
176
     1
 75
     1
176
     1
175
     1
176
     1
 42
179.0
176
     1
 92
        8
176
     1
 66
     7
176
     1
 43
1.0
176
     1
 76
     1
176
     1
 77
     6
176
     1
 78
     2
176
     1
 67
     7
176
     1
 79
     3
176
     1
170
     0
176
     1
171
     0
176
     1
290
     0
176
     1
 93
        1
176
     1
 44
0.0
176
     1
173
     0
176
     1
1001
ACAD
1000
AcDbSavedByObjectVersion
1070
     0
  0
VISUALSTYLE
  5
CE
102
{ACAD_XDICTIONARY
360
1A3
102
}
102
{ACAD_REACTORS
330
C3
102
}
330
C3
100
AcDbVisualStyle
  2
Dim
 70
    11
177
     2
291
     1
 71
     2
176
     1
 72
     2
176
     1
 73
     0
176
     1
 90
        0
176
     1
 40
0.6
176
     1
 41
30.0
176
     1
 63
     7
421
 16777215
176
     1
 74
     1
176
     1
 91
        4
176
     1
 64
     7
176
     1
 65
   257
176
     1
 75
     1
176
     1
175
     1
176
     1
 42
1.0
176
     1
 92
        8
176
     1
 66
     7
176
     1
 43
1.0
176
     1
 76
     1
176
     1
 77
     6
176
     1
 78
     2
176
     1
 67
     7
176
     1
 79
     5
176
     1
170
     0
176
     1
171
     0
176
     1
290
     0
176
     1
 93
        1
176
     1
 44
-50.0
176
     1
173
     0
176
     1
1001
ACAD
1000
AcDbSavedByObjectVersion
1070
     0
  0
VISUALSTYLE
  5
DB
102
{ACAD_XDICTIONARY
360
1BD
102
}
102
{ACAD_REACTORS
330
C3
102
}
330
C3
100
AcDbVisualStyle
  2
EdgeColorOff
 70
    22
177
     2
291
     1
 71
     2
176
     0
 72
     2
176
     0
 73
     0
176
     0
 90
        0
176
     0
 40
0.6
176
     0
 41
30.0
176
     0
 63
     7
421
 16777215
176
     0
 74
     1
176
     0
 91
        4
176
     0
 64
     7
176
     0
 65
   257
176
     0
 75
     1
176
     0
175
     1
176
     0
 42
1.0
176
     0
 92
        8
176
     2
 66
     7
176
     0
 43
1.0
176
     0
 76
     1
176
     0
 77
     6
176
     0
 78
     2
176
     0
 67
     7
176
     0
 79
     5
176
     0
170
     0
176
     0
171
     0
176
     0
290
     0
176
     0
 93
        1
176
     0
 44
0.0
176
     0
173
     0
176
     0
1001
ACAD
1000
AcDbSavedByObjectVersion
1070
     0
  0
VISUALSTYLE
  5
D2
102
{ACAD_XDICTIONARY
360
1AB
102
}
102
{ACAD_REACTORS
330
C3
102
}
330
C3
100
AcDbVisualStyle
  2
Facepattern
 70
    15
177
     2
291
     1
 71
     2
176
     1
 72
     2
176
     1
 73
     0
176
     1
 90
        0
176
     1
 40
0.6
176
     1
 41
30.0
176
     1
 63
     7
421
 16777215
176
     1
 74
     1
176
     1
 91
        4
176
     1
 64
     7
176
     1
 65
   257
176
     1
 75
     1
176
     1
175
     1
176
     1
 42
1.0
176
     1
 92
        8
176
     1
 66
     7
176
     1
 43
1.0
176
     1
 76
     1
176
     1
 77
     6
176
     1
 78
     2
176
     1
 67
     7
176
     1
 79
     5
176
     1
170
     0
176
     1
171
     0
176
     1
290
     0
176
     1
 93
        1
176
     1
 44
0.0
176
     1
173
     0
176
     1
1001
ACAD
1000
AcDbSavedByObjectVersion
1070
     0
  0
VISUALSTYLE
  5
C4
102
{ACAD_XDICTIONARY
360
18F
102
}
102
{ACAD_REACTORS
330
C3
102
}
330
C3
100
AcDbVisualStyle
  2
Flat
 70
     0
177
     2
291
     1
 71
     2
176
     1
 72
     1
176
     1
 73
     1
176
     1
 90
        2
176
     1
 40
0.6
176
     1
 41
30.0
176
     1
 63
     7
421
 16777215
176
     1
 74
     0
176
     1
 91
        0
176
     1
 64
     7
176
     1
 65
   257
176
     1
 75
     1
176
     1
175
     1
176
     1
 42
1.0
176
     1
 92
        8
176
     1
 66
     7
176
     1
 43
1.0
176
     1
 76
     1
176
     1
 77
     6
176
     1
 78
     2
176
     1
 67
     7
176
     1
 79
     5
176
     1
170
     0
176
     1
171
     0
176
     1
290
     0
176
     1
 93
       13
176
     1
 44
0.0
176
     1
173
     0
176
     1
1001
ACAD
1000
AcDbSavedByObjectVersion
1070
     0
  0
VISUALSTYLE
  5
C5
102
{ACAD_XDICTIONARY
360
191
102
}
102
{ACAD_REACTORS
330
C3
102
}
330
C3
100
AcDbVisualStyle
  2
FlatWithEdges
 70
     1
177
     2
291
     1
 71
     2
176
     1
 72
     1
176
     1
 73
     1
176
     1
 90
        2
176
     1
 40
0.6
176
     1
 41
30.0
176
     1
 63
     7
421
 16777215
176
     1
 74
     1
176
     1
 91
        0
176
     1
 64
     7
176
     1
 65
   257
176
     1
 75
     1
176
     1
175
     1
176
     1
 42
1.0
176
     1
 92
        0
176
     1
 66
   257
176
     1
 43
1.0
176
     1
 76
     1
176
     1
 77
     6
176
     1
 78
     2
176
     1
 67
     7
176
     1
 79
     5
176
     1
170
     0
176
     1
171
     0
176
     1
290
     0
176
     1
 93
       13
176
     1
 44
0.0
176
     1
173
     0
176
     1
1001
ACAD
1000
AcDbSavedByObjectVersion
1070
     0
  0
VISUALSTYLE
  5
C6
102
{ACAD_XDICTIONARY
360
193
102
}
102
{ACAD_REACTORS
330
C3
102
}
330
C3
100
AcDbVisualStyle
  2
Gouraud
 70
     2
177
     2
291
     1
 71
     2
176
     1
 72
     2
176
     1
 73
     1
176
     1
 90
        2
176
     1
 40
0.6
176
     1
 41
30.0
176
     1
 63
     7
421
 16777215
176
     1
 74
     0
176
     1
 91
        0
176
     1
 64
     7
176
     1
 65
   257
176
     1
 75
     1
176
     1
175
     1
176
     1
 42
1.0
176
     1
 92
        0
176
     1
 66
     7
176
     1
 43
1.0
176
     1
 76
     1
176
     1
 77
     6
176
     1
 78
     2
176
     1
 67
     7
176
     1
 79
     5
176
     1
170
     0
176
     1
171
     0
176
     1
290
     0
176
     1
 93
       13
176
     1
 44
0.0
176
     1
173
     0
176
     1
1001
ACAD
1000
AcDbSavedByObjectVersion
1070
     0
  0
VISUALSTYLE
  5
C7
102
{ACAD_XDICTIONARY
360
195
102
}
102
{ACAD_REACTORS
330
C3
102
}
330
C3
100
AcDbVisualStyle
  2
GouraudWithEdges
 70
     3
177
     2
291
     1
 71
     2
176
     1
 72
     2
176
     1
 73
     1
176
     1
 90
        2
176
     1
 40
0.6
176
     1
 41
30.0
176
     1
 63
     7
421
 16777215
176
     1
 74
     1
176
     1
 91
        0
176
     1
 64
     7
176
     1
 65
   257
176
     1
 75
     1
176
     1
175
     1
176
     1
 42
1.0
176
     1
 92
        0
176
     1
 66
   257
176
     1
 43
1.0
176
     1
 76
     1
176
     1
 77
     6
176
     1
 78
     2
176
     1
 67
     7
176
     1
 79
     5
176
     1
170
     0
176
     1
171
     0
176
     1
290
     0
176
     1
 93
       13
176
     1
 44
0.0
176
     1
173
     0
176
     1
1001
ACAD
1000
AcDbSavedByObjectVersion
1070
     0
  0
VISUALSTYLE
  5
CB
102
{ACAD_XDICTIONARY
360
19D
102
}
102
{ACAD_REACTORS
330
C3
102
}
330
C3
100
AcDbVisualStyle
  2
Hidden
 70
     6
177
     2
291
     0
 71
     1
176
     1
 72
     2
176
     1
 73
     2
176
     1
 90
        0
176
     1
 40
0.6
176
     1
 41
30.0
176
     1
 63
     7
421
 16777215
176
     1
 74
     2
176
     1
 91
        2
176
     1
 64
     7
176
     1
 65
   257
176
     1
 75
     2
176
     1
175
     1
176
     1
 42
40.0
176
     1
 92
        0
176
     1
 66
   257
176
     1
 43
1.0
176
     1
 76
     1
176
     1
 77
     6
176
     1
 78
     2
176
     1
 67
     7
176
     1
 79
     3
176
     1
170
     0
176
     1
171
     0
176
     1
290
     0
176
     1
 93
        1
176
     1
 44
0.0
176
     1
173
     0
176
     1
1001
ACAD
1000
AcDbSavedByObjectVersion
1070
     0
  0
VISUALSTYLE
  5
D9
102
{ACAD_XDICTIONARY
360
1B9
102
}
102
{ACAD_REACTORS
330
C3
102
}
330
C3
100
AcDbVisualStyle
  2
JitterOff
 70
    20
177
     2
291
     1
 71
     2
176
     0
 72
     2
176
     0
 73
     0
176
     0
 90
        0
176
     0
 40
0.6
176
     0
 41
30.0
176
     0
 63
     7
421
 16777215
176
     0
 74
     1
176
     0
 91
        4
176
     0
 64
     7
176
     0
 65
   257
176
     0
 75
     1
176
     0
175
     1
176
     0
 42
1.0
176
     0
 92
       10
176
     2
 66
     7
176
     0
 43
1.0
176
     0
 76
     1
176
     0
 77
     6
176
     0
 78
     2
176
     0
 67
     7
176
     0
 79
     5
176
     0
170
     0
176
     0
171
     0
176
     0
290
     0
176
     0
 93
        1
176
     0
 44
0.0
176
     0
173
     0
176
     0
1001
ACAD
1000
AcDbSavedByObjectVersion
1070
     0
  0
VISUALSTYLE
  5
D1
102
{ACAD_XDICTIONARY
360
1A9
102
}
102
{ACAD_REACTORS
330
C3
102
}
330
C3
100
AcDbVisualStyle
  2
Linepattern
 70
    14
177
     2
291
     1
 71
     2
176
     1
 72
     2
176
     1
 73
     0
176
     1
 90
        0
176
     1
 40
0.6
176
     1
 41
30.0
176
     1
 63
     7
421
 16777215
176
     1
 74
     1
176
     1
 91
        4
176
     1
 64
     7
176
     1
 65
   257
176
     1
 75
     7
176
     1
175
     7
176
     1
 42
1.0
176
     1
 92
        8
176
     1
 66
     7
176
     1
 43
1.0
176
     1
 76
     1
176
     1
 77
     6
176
     1
 78
     2
176
     1
 67
     7
176
     1
 79
     5
176
     1
170
     0
176
     1
171
     0
176
     1
290
     0
176
     1
 93
        1
176
     1
 44
0.0
176
     1
173
     0
176
     1
1001
ACAD
1000
AcDbSavedByObjectVersion
1070
     0
  0
VISUALSTYLE
  5
DA
102
{ACAD_XDICTIONARY
360
1BB
102
}
102
{ACAD_REACTORS
330
C3
102
}
330
C3
100
AcDbVisualStyle
  2
OverhangOff
 70
    21
177
     2
291
     1
 71
     2
176
     0
 72
     2
176
     0
 73
     0
176
     0
 90
        0
176
     0
 40
0.6
176
     0
 41
30.0
176
     0
 63
     7
421
 16777215
176
     0
 74
     1
176
     0
 91
        4
176
     0
 64
     7
176
     0
 65
   257
176
     0
 75
     1
176
     0
175
     1
176
     0
 42
1.0
176
     0
 92
        9
176
     2
 66
     7
176
     0
 43
1.0
176
     0
 76
     1
176
     0
 77
     6
176
     0
 78
     2
176
     0
 67
     7
176
     0
 79
     5
176
     0
170
     0
176
     0
171
     0
176
     0
290
     0
176
     0
 93
        1
176
     0
 44
0.0
176
     0
173
     0
176
     0
1001
ACAD
1000
AcDbSavedByObjectVersion
1070
     0
  0
VISUALSTYLE
  5
CD
102
{ACAD_XDICTIONARY
360
1A1
102
}
102
{ACAD_REACTORS
330
C3
102
}
330
C3
100
AcDbVisualStyle
  2
Realistic
 70
     8
177
     2
291
     0
 71
     2
176
     1
 72
     3
176
     1
 73
     0
176
     1
 90
        2
176
     1
 40
0.6
176
     1
 41
30.0
176
     1
 63
     7
421
 16777215
176
     1
 74
     0
176
     1
 91
        0
176
     1
 64
     7
176
     1
 65
   257
176
     1
 75
     1
176
     1
175
     1
176
     1
 42
1.0
176
     1
 92
        8
176
     1
 66
   257
176
     1
 43
1.0
176
     1
 76
     1
176
     1
 77
     6
176
     1
 78
     2
176
     1
 67
     7
176
     1
 79
     3
176
     1
170
     0
176
     1
171
     0
176
     1
290
     0
176
     1
 93
       13
176
     1
 44
0.0
176
     1
173
     0
176
     1
1001
ACAD
1000
AcDbSavedByObjectVersion
1070
     0
  0
VISUALSTYLE
  5
D8
102
{ACAD_XDICTIONARY
360
1B7
102
}
102
{ACAD_REACTORS
330
C3
102
}
330
C3
100
AcDbVisualStyle
  2
Shaded
 70
    27
177
     2
291
     0
 71
     2
176
     1
 72
     2
176
     1
 73
     1
176
     1
 90
        2
176
     1
 40
0.6
176
     1
 41
30.0
176
     1
 63
     7
421
 16777215
176
     1
 74
     0
176
     1
 91
        4
176
     1
 64
     7
176
     1
 65
   257
176
     1
 75
     1
176
     1
175
     1
176
     1
 42
1.0
176
     1
 92
        8
176
     1
 66
   257
176
     1
 43
1.0
176
     1
 76
     1
176
     1
 77
     6
176
     1
 78
     2
176
     1
 67
     8
425
  7895160
176
     1
 79
     3
176
     1
170
     0
176
     1
171
     0
176
     1
290
     0
176
     1
 93
        5
176
     1
 44
0.0
176
     1
173
     0
176
     1
1001
ACAD
1000
AcDbSavedByObjectVersion
1070
     0
  0
VISUALSTYLE
  5
D7
102
{ACAD_XDICTIONARY
360
1B5
102
}
102
{ACAD_REACTORS
330
C3
102
}
330
C3
100
AcDbVisualStyle
  2
Shaded with edges
 70
    26
177
     2
291
     0
 71
     2
176
     1
 72
     2
176
     1
 73
     1
176
     1
 90
        2
176
     1
 40
0.6
176
     1
 41
30.0
176
     1
 63
     7
421
 16777215
176
     1
 74
     1
176
     1
 91
       10
176
     1
 64
     7
176
     1
 65
   257
176
     1
 75
     2
176
     1
175
     1
176
     1
 42
1.0
176
     1
 92
        8
176
     1
 66
   257
176
     1
 43
1.0
176
     1
 76
     1
176
     1
 77
     6
176
     1
 78
     2
176
     1
 67
     7
176
     1
 79
     3
176
     1
170
     0
176
     1
171
     0
176
     1
290
     0
176
     1
 93
        5
176
     1
 44
0.0
176
     1
173
     0
176
     1
1001
ACAD
1000
AcDbSavedByObjectVersion
1070
     0
  0
VISUALSTYLE
  5
D4
102
{ACAD_XDICTIONARY
360
1AF
102
}
102
{ACAD_REACTORS
330
C3
102
}
330
C3
100
AcDbVisualStyle
  2
Shades of Gray
 70
    23
177
     2
291
     0
 71
     2
176
     1
 72
     2
176
     1
 73
     3
176
     1
 90
        0
176
     1
 40
0.6
176
     1
 41
30.0
176
     1
 63
     7
421
 16777215
176
     1
 74
     2
176
     1
 91
        2
176
     1
 64
     7
176
     1
 65
     7
176
     1
 75
     1
176
     1
175
     1
176
     1
 42
40.0
176
     1
 92
        8
176
     1
 66
     7
176
     1
 43
1.0
176
     1
 76
     1
176
     1
 77
     6
176
     1
 78
     2
176
     1
 67
     7
176
     1
 79
     3
176
     1
170
     0
176
     1
171
     0
176
     1
290
     0
176
     1
 93
        1
176
     1
 44
0.0
176
     1
173
     0
176
     1
1001
ACAD
1000
AcDbSavedByObjectVersion
1070
     0
  0
VISUALSTYLE
  5
D5
102
{ACAD_XDICTIONARY
360
1B1
102
}
102
{ACAD_REACTORS
330
C3
102
}
330
C3
100
AcDbVisualStyle
  2
Sketchy
 70
    24
177
     2
291
     0
 71
     1
176
     1
 72
     2
176
     1
 73
     2
176
     1
 90
        0
176
     1
 40
0.6
176
     1
 41
30.0
176
     1
 63
     7
421
 16777215
176
     1
 74
     2
176
     1
 91
        2
176
     1
 64
     7
176
     1
 65
     7
176
     1
 75
     1
176
     1
175
     1
176
     1
 42
40.0
176
     1
 92
       11
176
     1
 66
     7
176
     1
 43
1.0
176
     1
 76
     1
176
     1
 77
     6
176
     1
 78
     2
176
     1
 67
     7
176
     1
 79
     6
176
     1
170
     0
176
     1
171
     0
176
     1
290
     0
176
     1
 93
        1
176
     1
 44
0.0
176
     1
173
     0
176
     1
1001
ACAD
1000
AcDbSavedByObjectVersion
1070
     0
  0
VISUALSTYLE
  5
D0
102
{ACAD_XDICTIONARY
360
1A7
102
}
102
{ACAD_REACTORS
330
C3
102
}
330
C3
100
AcDbVisualStyle
  2
Thicken
 70
    13
177
     2
291
     1
 71
     2
176
     1
 72
     2
176
     1
 73
     0
176
     1
 90
        0
176
     1
 40
0.6
176
     1
 41
30.0
176
     1
 63
     7
421
 16777215
176
     1
 74
     1
176
     1
 91
        4
176
     1
 64
     7
176
     1
 65
   257
176
     1
 75
     1
176
     1
175
     1
176
     1
 42
1.0
176
     1
 92
       12
176
     1
 66
     7
176
     1
 43
1.0
176
     1
 76
     1
176
     1
 77
     6
176
     1
 78
     2
176
     1
 67
     7
176
     1
 79
     5
176
     1
170
     0
176
     1
171
     0
176
     1
290
     0
176
     1
 93
        1
176
     1
 44
0.0
176
     1
173
     0
176
     1
1001
ACAD
1000
AcDbSavedByObjectVersion
1070
     0
  0
VISUALSTYLE
  5
CA
102
{ACAD_XDICTIONARY
360
19B
102
}
102
{ACAD_REACTORS
330
C3
102
}
330
C3
100
AcDbVisualStyle
  2
Wireframe
 70
     5
177
     2
291
     0
 71
     0
176
     1
 72
     2
176
     1
 73
     0
176
     1
 90
        0
176
     1
 40
0.6
176
     1
 41
30.0
176
     1
 63
     7
421
 16777215
176
     1
 74
     1
176
     1
 91
        4
176
     1
 64
     7
176
     1
 65
   257
176
     1
 75
     1
176
     1
175
     1
176
     1
 42
1.0
176
     1
 92
        0
176
     1
 66
   257
176
     1
 43
1.0
176
     1
 76
     1
176
     1
 77
     6
176
     1
 78
     2
176
     1
 67
     7
176
     1
 79
     3
176
     1
170
     0
176
     1
171
     0
176
     1
290
     0
176
     1
 93
        1
176
     1
 44
0.0
176
     1
173
     0
176
     1
1001
ACAD
1000
AcDbSavedByObjectVersion
1070
     0
  0
VISUALSTYLE
  5
D6
102
{ACAD_XDICTIONARY
360
1B3
102
}
102
{ACAD_REACTORS
330
C3
102
}
330
C3
100
AcDbVisualStyle
  2
X-Ray
 70
    25
177
     2
291
     0
 71
     2
176
     1
 72
     2
176
     1
 73
     1
176
     1
 90
        1
176
     1
 40
0.5
176
     1
 41
30.0
176
     1
 63
     7
421
 16777215
176
     1
 74
     1
176
     1
 91
        0
176
     1
 64
     7
176
     1
 65
   257
176
     1
 75
     1
176
     1
175
     1
176
     1
 42
1.0
176
     1
 92
        8
176
     1
 66
     7
176
     1
 43
1.0
176
     1
 76
     1
176
     1
 77
     6
176
     1
 78
     2
176
     1
 67
     7
176
     1
 79
     3
176
     1
170
     0
176
     1
171
     0
176
     1
290
     0
176
     1
 93
       13
176
     1
 44
0.0
176
     1
173
     0
176
     1
1001
ACAD
1000
AcDbSavedByObjectVersion
1070
     0
  0
DICTIONARYVAR
  5
188
102
{ACAD_REACTORS
330
182
102
}
330
182
100
DictionaryVariables
280
     0
  1
1:1
  0
DICTIONARYVAR
  5
184
102
{ACAD_REACTORS
330
182
102
}
330
182
100
DictionaryVariables
280
     0
  1
STANDARD
  0
DICTIONARYVAR
  5
183
102
{ACAD_REACTORS
330
182
102
}
330
182
100
DictionaryVariables
280
     0
  1
STANDARD
  0
DICTIONARYVAR
  5
185
102
{ACAD_REACTORS
330
182
102
}
330
182
100
DictionaryVariables
280
     0
  1
Imperial24
  0
DICTIONARYVAR
  5
186
102
{ACAD_REACTORS
330
182
102
}
330
182
100
DictionaryVariables
280
     0
  1
Imperial24
  0
DICTIONARYVAR
  5
18A
102
{ACAD_REACTORS
330
182
102
}
330
182
100
DictionaryVariables
280
     0
  1
1
  0
DICTIONARYVAR
  5
18B
102
{ACAD_REACTORS
330
182
102
}
330
182
100
DictionaryVariables
280
     0
  1
15
  0
DICTIONARYVAR
  5
189
102
{ACAD_REACTORS
330
182
102
}
330
182
100
DictionaryVariables
280
     0
  1
0
  0
DICTIONARYVAR
  5
187
102
{ACAD_REACTORS
330
182
102
}
330
182
100
DictionaryVariables
280
     0
  1
0
  0
DICTIONARY
  5
1C3
330
F6
100
AcDbDictionary
280
     1
281
     1
  3
ACAD_XREC_ROUNDTRIP
360
1C4
  0
DICTIONARY
  5
B4
330
B3
100
AcDbDictionary
280
     1
281
     1
  3
BUMPTILE
360
B6
  3
DIFFUSETILE
360
B5
  3
OPACITYTILE
360
B9
  3
REFLECTIONTILE
360
B8
  3
REFRACTIONTILE
360
BA
  3
SPECULARTILE
360
B7
  0
DICTIONARY
  5
AC
330
AB
100
AcDbDictionary
280
     1
281
     1
  3
BUMPTILE
360
AE
  3
DIFFUSETILE
360
AD
  3
OPACITYTILE
360
B1
  3
REFLECTIONTILE
360
B0
  3
REFRACTIONTILE
360
B2
  3
SPECULARTILE
360
AF
  0
DICTIONARY
  5
BC
330
BB
100
AcDbDictionary
280
     1
281
     1
  3
BUMPTILE
360
BE
  3
DIFFUSETILE
360
BD
  3
OPACITYTILE
360
C1
  3
REFLECTIONTILE
360
C0
  3
REFRACTIONTILE
360
C2
  3
SPECULARTILE
360
BF
  0
DICTIONARY
  5
1BF
330
F2
100
AcDbDictionary
280
     1
281
     1
  3
ACAD_XREC_ROUNDTRIP
360
1C0
  0
DICTIONARY
  5
1C1
330
F4
100
AcDbDictionary
280
     1
281
     1
  3
ACAD_XREC_ROUNDTRIP
360
1C2
  0
DICTIONARY
  5
18C
330
DE
100
AcDbDictionary
280
     1
281
     1
  3
ACAD_ROUNDTRIP_2008_TABLESTYLE_CELLSTYLEMAP
360
18D
  0
DICTIONARY
  5
199
330
C9
100
AcDbDictionary
280
     1
281
     1
  3
ACAD_XREC_ROUNDTRIP
360
19A
  0
DICTIONARY
  5
197
330
C8
100
AcDbDictionary
280
     1
281
     1
  3
ACAD_XREC_ROUNDTRIP
360
198
  0
DICTIONARY
  5
1A5
330
CF
100
AcDbDictionary
280
     1
281
     1
  3
ACAD_XREC_ROUNDTRIP
360
1A6
  0
DICTIONARY
  5
1AD
330
D3
100
AcDbDictionary
280
     1
281
     1
  3
ACAD_XREC_ROUNDTRIP
360
1AE
  0
DICTIONARY
  5
19F
330
CC
100
AcDbDictionary
280
     1
281
     1
  3
ACAD_XREC_ROUNDTRIP
360
1A0
  0
DICTIONARY
  5
1A3
330
CE
100
AcDbDictionary
280
     1
281
     1
  3
ACAD_XREC_ROUNDTRIP
360
1A4
  0
DICTIONARY
  5
1BD
330
DB
100
AcDbDictionary
280
     1
281
     1
  3
ACAD_XREC_ROUNDTRIP
360
1BE
  0
DICTIONARY
  5
1AB
330
D2
100
AcDbDictionary
280
     1
281
     1
  3
ACAD_XREC_ROUNDTRIP
360
1AC
  0
DICTIONARY
  5
18F
330
C4
100
AcDbDictionary
280
     1
281
     1
  3
ACAD_XREC_ROUNDTRIP
360
190
  0
DICTIONARY
  5
191
330
C5
100
AcDbDictionary
280
     1
281
     1
  3
ACAD_XREC_ROUNDTRIP
360
192
  0
DICTIONARY
  5
193
330
C6
100
AcDbDictionary
280
     1
281
     1
  3
ACAD_XREC_ROUNDTRIP
360
194
  0
DICTIONARY
  5
195
330
C7
100
AcDbDictionary
280
     1
281
     1
  3
ACAD_XREC_ROUNDTRIP
360
196
  0
DICTIONARY
  5
19D
330
CB
100
AcDbDictionary
280
     1
281
     1
  3
ACAD_XREC_ROUNDTRIP
360
19E
  0
DICTIONARY
  5
1B9
330
D9
100
AcDbDictionary
280
     1
281
     1
  3
ACAD_XREC_ROUNDTRIP
360
1BA
  0
DICTIONARY
  5
1A9
330
D1
100
AcDbDictionary
280
     1
281
     1
  3
ACAD_XREC_ROUNDTRIP
360
1AA
  0
DICTIONARY
  5
1BB
330
DA
100
AcDbDictionary
280
     1
281
     1
  3
ACAD_XREC_ROUNDTRIP
360
1BC
  0
DICTIONARY
  5
1A1
330
CD
100
AcDbDictionary
280
     1
281
     1
  3
ACAD_XREC_ROUNDTRIP
360
1A2
  0
DICTIONARY
  5
1B7
330
D8
100
AcDbDictionary
280
     1
281
     1
  3
ACAD_XREC_ROUNDTRIP
360
1B8
  0
DICTIONARY
  5
1B5
330
D7
100
AcDbDictionary
280
     1
281
     1
  3
ACAD_XREC_ROUNDTRIP
360
1B6
  0
DICTIONARY
  5
1AF
330
D4
100
AcDbDictionary
280
     1
281
     1
  3
ACAD_XREC_ROUNDTRIP
360
1B0
  0
DICTIONARY
  5
1B1
330
D5
100
AcDbDictionary
280
     1
281
     1
  3
ACAD_XREC_ROUNDTRIP
360
1B2
  0
DICTIONARY
  5
1A7
330
D0
100
AcDbDictionary
280
     1
281
     1
  3
ACAD_XREC_ROUNDTRIP
360
1A8
  0
DICTIONARY
  5
19B
330
CA
100
AcDbDictionary
280
     1
281
     1
  3
ACAD_XREC_ROUNDTRIP
360
19C
  0
DICTIONARY
  5
1B3
330
D6
100
AcDbDictionary
280
     1
281
     1
  3
ACAD_XREC_ROUNDTRIP
360
1B4
  0
XRECORD
  5
1C4
102
{ACAD_REACTORS
330
1C3
102
}
330
1C3
100
AcDbXrecord
280
     1
102
DISPLAYNAME
  1
Imperial24
102
FLAGS
 90
        0
  0
XRECORD
  5
B6
102
{ACAD_REACTORS
330
B4
102
}
330
B4
100
AcDbXrecord
280
     1
270
     1
271
     1
  0
XRECORD
  5
B5
102
{ACAD_REACTORS
330
B4
102
}
330
B4
100
AcDbXrecord
280
     1
270
     1
271
     1
  0
XRECORD
  5
B9
102
{ACAD_REACTORS
330
B4
102
}
330
B4
100
AcDbXrecord
280
     1
270
     1
271
     1
  0
XRECORD
  5
B8
102
{ACAD_REACTORS
330
B4
102
}
330
B4
100
AcDbXrecord
280
     1
270
     1
271
     1
  0
XRECORD
  5
BA
102
{ACAD_REACTORS
330
B4
102
}
330
B4
100
AcDbXrecord
280
     1
270
     1
271
     1
  0
XRECORD
  5
B7
102
{ACAD_REACTORS
330
B4
102
}
330
B4
100
AcDbXrecord
280
     1
270
     1
271
     1
  0
XRECORD
  5
AE
102
{ACAD_REACTORS
330
AC
102
}
330
AC
100
AcDbXrecord
280
     1
270
     1
271
     1
  0
XRECORD
  5
AD
102
{ACAD_REACTORS
330
AC
102
}
330
AC
100
AcDbXrecord
280
     1
270
     1
271
     1
  0
XRECORD
  5
B1
102
{ACAD_REACTORS
330
AC
102
}
330
AC
100
AcDbXrecord
280
     1
270
     1
271
     1
  0
XRECORD
  5
B0
102
{ACAD_REACTORS
330
AC
102
}
330
AC
100
AcDbXrecord
280
     1
270
     1
271
     1
  0
XRECORD
  5
B2
102
{ACAD_REACTORS
330
AC
102
}
330
AC
100
AcDbXrecord
280
     1
270
     1
271
     1
  0
XRECORD
  5
AF
102
{ACAD_REACTORS
330
AC
102
}
330
AC
100
AcDbXrecord
280
     1
270
     1
271
     1
  0
XRECORD
  5
BE
102
{ACAD_REACTORS
330
BC
102
}
330
BC
100
AcDbXrecord
280
     1
270
     1
271
     1
  0
XRECORD
  5
BD
102
{ACAD_REACTORS
330
BC
102
}
330
BC
100
AcDbXrecord
280
     1
270
     1
271
     1
  0
XRECORD
  5
C1
102
{ACAD_REACTORS
330
BC
102
}
330
BC
100
AcDbXrecord
280
     1
270
     1
271
     1
  0
XRECORD
  5
C0
102
{ACAD_REACTORS
330
BC
102
}
330
BC
100
AcDbXrecord
280
     1
270
     1
271
     1
  0
XRECORD
  5
C2
102
{ACAD_REACTORS
330
BC
102
}
330
BC
100
AcDbXrecord
280
     1
270
     1
271
     1
  0
XRECORD
  5
BF
102
{ACAD_REACTORS
330
BC
102
}
330
BC
100
AcDbXrecord
280
     1
270
     1
271
     1
  0
XRECORD
  5
1C0
102
{ACAD_REACTORS
330
1BF
102
}
330
1BF
100
AcDbXrecord
280
     1
102
ACAD_ROUNDTRIP_2012_MLEADER_STYLE
298
     1
  0
XRECORD
  5
1C2
102
{ACAD_REACTORS
330
1C1
102
}
330
1C1
100
AcDbXrecord
280
     1
102
DISPLAYNAME
  1
Imperial24
102
FLAGS
 90
        0
  0
CELLSTYLEMAP
  5
18D
102
{ACAD_REACTORS
330
18C
102
}
330
18C
100
AcDbCellStyleMap
 90
        3
300
CELLSTYLE
  1
TABLEFORMAT_BEGIN
 90
        5
170
     1
 91
        0
 92
    32768
 62
   257
 93
        1
300
CONTENTFORMAT
  1
CONTENTFORMAT_BEGIN
 90
        0
 91
        0
 92
      512
 93
        0
300

 40
0.0
140
1.0
 94
        5
 62
     0
340
11
144
0.25
309
CONTENTFORMAT_END
171
     0
 94
        0
309
TABLEFORMAT_END
  1
CELLSTYLE_BEGIN
 90
        1
 91
        1
300
_TITLE
309
CELLSTYLE_END
300
CELLSTYLE
  1
TABLEFORMAT_BEGIN
 90
        5
170
     1
 91
        0
 92
        0
 62
   257
 93
        1
300
CONTENTFORMAT
  1
CONTENTFORMAT_BEGIN
 90
        0
 91
        0
 92
      512
 93
        0
300

 40
0.0
140
1.0
 94
        5
 62
     0
340
11
144
0.18
309
CONTENTFORMAT_END
171
     0
 94
        0
309
TABLEFORMAT_END
  1
CELLSTYLE_BEGIN
 90
        2
 91
        1
300
_HEADER
309
CELLSTYLE_END
300
CELLSTYLE
  1
TABLEFORMAT_BEGIN
 90
        5
170
     1
 91
        0
 92
        0
 62
   257
 93
        1
300
CONTENTFORMAT
  1
CONTENTFORMAT_BEGIN
 90
        0
 91
        0
 92
      512
 93
        0
300

 40
0.0
140
1.0
 94
        2
 62
     0
340
11
144
0.18
309
CONTENTFORMAT_END
171
     0
 94
        0
309
TABLEFORMAT_END
  1
CELLSTYLE_BEGIN
 90
        3
 91
        2
300
_DATA
309
CELLSTYLE_END
  0
XRECORD
  5
19A
102
{ACAD_REACTORS
330
199
102
}
330
199
100
AcDbXrecord
280
     1
102
RTVSPost2010Prop28
280
     1
102
RTVSPost2010PropOp28
 70
     1
102
RTVSPost2010Prop29
280
     1
102
RTVSPost2010PropOp29
 70
     1
102
RTVSPost2010Prop30
280
     0
102
RTVSPost2010PropOp30
 70
     1
102
RTVSPost2010Prop31
280
     0
102
RTVSPost2010PropOp31
 70
     1
102
RTVSPost2010Prop32
280
     0
102
RTVSPost2010PropOp32
 70
     1
102
RTVSPost2010Prop33
280
     0
102
RTVSPost2010PropOp33
 70
     1
102
RTVSPost2010Prop34
280
     0
102
RTVSPost2010PropOp34
 70
     1
102
RTVSPost2010Prop35
280
     0
102
RTVSPost2010PropOp35
 70
     1
102
RTVSPost2010Prop36
280
     0
102
RTVSPost2010PropOp36
 70
     1
102
RTVSPost2010Prop37
 90
       50
102
RTVSPost2010PropOp37
 70
     1
102
RTVSPost2010Prop38
140
0.0
102
RTVSPost2010PropOp38
 70
     1
102
RTVSPost2010Prop39
140
1.0
102
RTVSPost2010PropOp39
 70
     1
102
RTVSPost2010Prop40
 90
        0
102
RTVSPost2010PropOp40
 70
     1
102
RTVSPost2010Prop41ColorIndex
 90
       18
102
RTVSPost2010Prop41ColorRGB
 90
        0
102
RTVSPost2010PropOp41
 70
     1
102
RTVSPost2010Prop42
 90
       50
102
RTVSPost2010PropOp42
 70
     1
102
RTVSPost2010Prop43
 90
        3
102
RTVSPost2010PropOp43
 70
     1
102
RTVSPost2010Prop44ColorIndex
 90
        5
102
RTVSPost2010Prop44ColorRGB
 90
      255
102
RTVSPost2010PropOp44
 70
     1
102
RTVSPost2010Prop45
280
     0
102
RTVSPost2010PropOp45
 70
     1
102
RTVSPost2010Prop46
 90
       50
102
RTVSPost2010PropOp46
 70
     1
102
RTVSPost2010Prop47
 90
       50
102
RTVSPost2010PropOp47
 70
     1
102
RTVSPost2010Prop48
 90
       50
102
RTVSPost2010PropOp48
 70
     1
102
RTVSPost2010Prop49
280
     0
102
RTVSPost2010PropOp49
 70
     1
102
RTVSPost2010Prop50
 90
       50
102
RTVSPost2010PropOp50
 70
     1
102
RTVSPost2010Prop51ColorIndex
 90
      256
102
RTVSPost2010Prop51ColorRGB
 90
-16777216
102
RTVSPost2010PropOp51
 70
     0
102
RTVSPost2010Prop52
140
1.0
102
RTVSPost2010PropOp52
 70
     0
102
RTVSPost2010Prop53
 90
        2
102
RTVSPost2010PropOp53
 70
     1
102
RTVSPost2010Prop54
  1
strokes_ogs.tif
102
RTVSPost2010PropOp54
 70
     1
102
RTVSPost2010Prop55
280
     0
102
RTVSPost2010PropOp55
 70
     1
102
RTVSPost2010Prop56
140
1.0
102
RTVSPost2010PropOp56
 70
     1
102
RTVSPost2010Prop57
140
1.0
102
RTVSPost2010PropOp57
 70
     1
  0
XRECORD
  5
198
102
{ACAD_REACTORS
330
197
102
}
330
197
100
AcDbXrecord
280
     1
102
RTVSPost2010Prop28
280
     0
102
RTVSPost2010PropOp28
 70
     1
102
RTVSPost2010Prop29
280
     1
102
RTVSPost2010PropOp29
 70
     1
102
RTVSPost2010Prop30
280
     1
102
RTVSPost2010PropOp30
 70
     1
102
RTVSPost2010Prop31
280
     0
102
RTVSPost2010PropOp31
 70
     1
102
RTVSPost2010Prop32
280
     0
102
RTVSPost2010PropOp32
 70
     1
102
RTVSPost2010Prop33
280
     0
102
RTVSPost2010PropOp33
 70
     1
102
RTVSPost2010Prop34
280
     0
102
RTVSPost2010PropOp34
 70
     1
102
RTVSPost2010Prop35
280
     0
102
RTVSPost2010PropOp35
 70
     1
102
RTVSPost2010Prop36
280
     0
102
RTVSPost2010PropOp36
 70
     1
102
RTVSPost2010Prop37
 90
       50
102
RTVSPost2010PropOp37
 70
     1
102
RTVSPost2010Prop38
140
0.0
102
RTVSPost2010PropOp38
 70
     1
102
RTVSPost2010Prop39
140
1.0
102
RTVSPost2010PropOp39
 70
     1
102
RTVSPost2010Prop40
 90
        0
102
RTVSPost2010PropOp40
 70
     1
102
RTVSPost2010Prop41ColorIndex
 90
       18
102
RTVSPost2010Prop41ColorRGB
 90
        0
102
RTVSPost2010PropOp41
 70
     1
102
RTVSPost2010Prop42
 90
       50
102
RTVSPost2010PropOp42
 70
     1
102
RTVSPost2010Prop43
 90
        3
102
RTVSPost2010PropOp43
 70
     1
102
RTVSPost2010Prop44ColorIndex
 90
        5
102
RTVSPost2010Prop44ColorRGB
 90
      255
102
RTVSPost2010PropOp44
 70
     1
102
RTVSPost2010Prop45
280
     0
102
RTVSPost2010PropOp45
 70
     1
102
RTVSPost2010Prop46
 90
       50
102
RTVSPost2010PropOp46
 70
     1
102
RTVSPost2010Prop47
 90
       50
102
RTVSPost2010PropOp47
 70
     1
102
RTVSPost2010Prop48
 90
       50
102
RTVSPost2010PropOp48
 70
     1
102
RTVSPost2010Prop49
280
     0
102
RTVSPost2010PropOp49
 70
     1
102
RTVSPost2010Prop50
 90
       50
102
RTVSPost2010PropOp50
 70
     1
102
RTVSPost2010Prop51ColorIndex
 90
      256
102
RTVSPost2010Prop51ColorRGB
 90
-16777216
102
RTVSPost2010PropOp51
 70
     0
102
RTVSPost2010Prop52
140
1.0
102
RTVSPost2010PropOp52
 70
     0
102
RTVSPost2010Prop53
 90
        2
102
RTVSPost2010PropOp53
 70
     1
102
RTVSPost2010Prop54
  1
strokes_ogs.tif
102
RTVSPost2010PropOp54
 70
     1
102
RTVSPost2010Prop55
280
     0
102
RTVSPost2010PropOp55
 70
     1
102
RTVSPost2010Prop56
140
1.0
102
RTVSPost2010PropOp56
 70
     1
102
RTVSPost2010Prop57
140
1.0
102
RTVSPost2010PropOp57
 70
     1
  0
XRECORD
  5
1A6
102
{ACAD_REACTORS
330
1A5
102
}
330
1A5
100
AcDbXrecord
280
     1
102
RTVSPost2010Prop28
280
     0
102
RTVSPost2010PropOp28
 70
     1
102
RTVSPost2010Prop29
280
     1
102
RTVSPost2010PropOp29
 70
     1
102
RTVSPost2010Prop30
280
     1
102
RTVSPost2010PropOp30
 70
     1
102
RTVSPost2010Prop31
280
     0
102
RTVSPost2010PropOp31
 70
     1
102
RTVSPost2010Prop32
280
     0
102
RTVSPost2010PropOp32
 70
     1
102
RTVSPost2010Prop33
280
     0
102
RTVSPost2010PropOp33
 70
     1
102
RTVSPost2010Prop34
280
     0
102
RTVSPost2010PropOp34
 70
     1
102
RTVSPost2010Prop35
280
     0
102
RTVSPost2010PropOp35
 70
     1
102
RTVSPost2010Prop36
280
     0
102
RTVSPost2010PropOp36
 70
     1
102
RTVSPost2010Prop37
 90
       50
102
RTVSPost2010PropOp37
 70
     1
102
RTVSPost2010Prop38
140
0.0
102
RTVSPost2010PropOp38
 70
     1
102
RTVSPost2010Prop39
140
1.0
102
RTVSPost2010PropOp39
 70
     1
102
RTVSPost2010Prop40
 90
        0
102
RTVSPost2010PropOp40
 70
     1
102
RTVSPost2010Prop41ColorIndex
 90
       18
102
RTVSPost2010Prop41ColorRGB
 90
        0
102
RTVSPost2010PropOp41
 70
     1
102
RTVSPost2010Prop42
 90
       50
102
RTVSPost2010PropOp42
 70
     1
102
RTVSPost2010Prop43
 90
        3
102
RTVSPost2010PropOp43
 70
     1
102
RTVSPost2010Prop44ColorIndex
 90
        5
102
RTVSPost2010Prop44ColorRGB
 90
      255
102
RTVSPost2010PropOp44
 70
     1
102
RTVSPost2010Prop45
280
     0
102
RTVSPost2010PropOp45
 70
     1
102
RTVSPost2010Prop46
 90
       50
102
RTVSPost2010PropOp46
 70
     1
102
RTVSPost2010Prop47
 90
       50
102
RTVSPost2010PropOp47
 70
     1
102
RTVSPost2010Prop48
 90
       50
102
RTVSPost2010PropOp48
 70
     1
102
RTVSPost2010Prop49
280
     0
102
RTVSPost2010PropOp49
 70
     1
102
RTVSPost2010Prop50
 90
       50
102
RTVSPost2010PropOp50
 70
     1
102
RTVSPost2010Prop51ColorIndex
 90
      256
102
RTVSPost2010Prop51ColorRGB
 90
-16777216
102
RTVSPost2010PropOp51
 70
     0
102
RTVSPost2010Prop52
140
1.0
102
RTVSPost2010PropOp52
 70
     0
102
RTVSPost2010Prop53
 90
        2
102
RTVSPost2010PropOp53
 70
     1
102
RTVSPost2010Prop54
  1
strokes_ogs.tif
102
RTVSPost2010PropOp54
 70
     1
102
RTVSPost2010Prop55
280
     0
102
RTVSPost2010PropOp55
 70
     1
102
RTVSPost2010Prop56
140
1.0
102
RTVSPost2010PropOp56
 70
     1
102
RTVSPost2010Prop57
140
1.0
102
RTVSPost2010PropOp57
 70
     1
  0
XRECORD
  5
1AE
102
{ACAD_REACTORS
330
1AD
102
}
330
1AD
100
AcDbXrecord
280
     1
102
RTVSPost2010Prop28
280
     0
102
RTVSPost2010PropOp28
 70
     1
102
RTVSPost2010Prop29
280
     1
102
RTVSPost2010PropOp29
 70
     1
102
RTVSPost2010Prop30
280
     1
102
RTVSPost2010PropOp30
 70
     1
102
RTVSPost2010Prop31
280
     0
102
RTVSPost2010PropOp31
 70
     1
102
RTVSPost2010Prop32
280
     0
102
RTVSPost2010PropOp32
 70
     1
102
RTVSPost2010Prop33
280
     0
102
RTVSPost2010PropOp33
 70
     1
102
RTVSPost2010Prop34
280
     0
102
RTVSPost2010PropOp34
 70
     1
102
RTVSPost2010Prop35
280
     0
102
RTVSPost2010PropOp35
 70
     1
102
RTVSPost2010Prop36
280
     0
102
RTVSPost2010PropOp36
 70
     1
102
RTVSPost2010Prop37
 90
       50
102
RTVSPost2010PropOp37
 70
     1
102
RTVSPost2010Prop38
140
0.0
102
RTVSPost2010PropOp38
 70
     1
102
RTVSPost2010Prop39
140
1.0
102
RTVSPost2010PropOp39
 70
     1
102
RTVSPost2010Prop40
 90
        0
102
RTVSPost2010PropOp40
 70
     1
102
RTVSPost2010Prop41ColorIndex
 90
       18
102
RTVSPost2010Prop41ColorRGB
 90
        0
102
RTVSPost2010PropOp41
 70
     1
102
RTVSPost2010Prop42
 90
       50
102
RTVSPost2010PropOp42
 70
     1
102
RTVSPost2010Prop43
 90
        3
102
RTVSPost2010PropOp43
 70
     1
102
RTVSPost2010Prop44ColorIndex
 90
        5
102
RTVSPost2010Prop44ColorRGB
 90
      255
102
RTVSPost2010PropOp44
 70
     1
102
RTVSPost2010Prop45
280
     0
102
RTVSPost2010PropOp45
 70
     1
102
RTVSPost2010Prop46
 90
       50
102
RTVSPost2010PropOp46
 70
     1
102
RTVSPost2010Prop47
 90
       50
102
RTVSPost2010PropOp47
 70
     1
102
RTVSPost2010Prop48
 90
       50
102
RTVSPost2010PropOp48
 70
     1
102
RTVSPost2010Prop49
280
     0
102
RTVSPost2010PropOp49
 70
     1
102
RTVSPost2010Prop50
 90
       50
102
RTVSPost2010PropOp50
 70
     1
102
RTVSPost2010Prop51ColorIndex
 90
      256
102
RTVSPost2010Prop51ColorRGB
 90
-16777216
102
RTVSPost2010PropOp51
 70
     0
102
RTVSPost2010Prop52
140
1.0
102
RTVSPost2010PropOp52
 70
     0
102
RTVSPost2010Prop53
 90
        2
102
RTVSPost2010PropOp53
 70
     1
102
RTVSPost2010Prop54
  1
strokes_ogs.tif
102
RTVSPost2010PropOp54
 70
     1
102
RTVSPost2010Prop55
280
     0
102
RTVSPost2010PropOp55
 70
     1
102
RTVSPost2010Prop56
140
1.0
102
RTVSPost2010PropOp56
 70
     1
102
RTVSPost2010Prop57
140
1.0
102
RTVSPost2010PropOp57
 70
     1
  0
XRECORD
  5
1A0
102
{ACAD_REACTORS
330
19F
102
}
330
19F
100
AcDbXrecord
280
     1
102
RTVSPost2010Prop28
280
     0
102
RTVSPost2010PropOp28
 70
     1
102
RTVSPost2010Prop29
280
     1
102
RTVSPost2010PropOp29
 70
     1
102
RTVSPost2010Prop30
280
     1
102
RTVSPost2010PropOp30
 70
     1
102
RTVSPost2010Prop31
280
     0
102
RTVSPost2010PropOp31
 70
     1
102
RTVSPost2010Prop32
280
     0
102
RTVSPost2010PropOp32
 70
     1
102
RTVSPost2010Prop33
280
     0
102
RTVSPost2010PropOp33
 70
     1
102
RTVSPost2010Prop34
280
     0
102
RTVSPost2010PropOp34
 70
     1
102
RTVSPost2010Prop35
280
     0
102
RTVSPost2010PropOp35
 70
     1
102
RTVSPost2010Prop36
280
     0
102
RTVSPost2010PropOp36
 70
     1
102
RTVSPost2010Prop37
 90
       50
102
RTVSPost2010PropOp37
 70
     1
102
RTVSPost2010Prop38
140
0.0
102
RTVSPost2010PropOp38
 70
     1
102
RTVSPost2010Prop39
140
1.0
102
RTVSPost2010PropOp39
 70
     1
102
RTVSPost2010Prop40
 90
        0
102
RTVSPost2010PropOp40
 70
     1
102
RTVSPost2010Prop41ColorIndex
 90
       18
102
RTVSPost2010Prop41ColorRGB
 90
        0
102
RTVSPost2010PropOp41
 70
     1
102
RTVSPost2010Prop42
 90
       50
102
RTVSPost2010PropOp42
 70
     1
102
RTVSPost2010Prop43
 90
        3
102
RTVSPost2010PropOp43
 70
     1
102
RTVSPost2010Prop44ColorIndex
 90
        5
102
RTVSPost2010Prop44ColorRGB
 90
      255
102
RTVSPost2010PropOp44
 70
     1
102
RTVSPost2010Prop45
280
     0
102
RTVSPost2010PropOp45
 70
     1
102
RTVSPost2010Prop46
 90
       50
102
RTVSPost2010PropOp46
 70
     1
102
RTVSPost2010Prop47
 90
       50
102
RTVSPost2010PropOp47
 70
     1
102
RTVSPost2010Prop48
 90
       50
102
RTVSPost2010PropOp48
 70
     1
102
RTVSPost2010Prop49
280
     0
102
RTVSPost2010PropOp49
 70
     1
102
RTVSPost2010Prop50
 90
       50
102
RTVSPost2010PropOp50
 70
     1
102
RTVSPost2010Prop51ColorIndex
 90
      256
102
RTVSPost2010Prop51ColorRGB
 90
-16777216
102
RTVSPost2010PropOp51
 70
     0
102
RTVSPost2010Prop52
140
1.0
102
RTVSPost2010PropOp52
 70
     0
102
RTVSPost2010Prop53
 90
        2
102
RTVSPost2010PropOp53
 70
     1
102
RTVSPost2010Prop54
  1
strokes_ogs.tif
102
RTVSPost2010PropOp54
 70
     1
102
RTVSPost2010Prop55
280
     0
102
RTVSPost2010PropOp55
 70
     1
102
RTVSPost2010Prop56
140
1.0
102
RTVSPost2010PropOp56
 70
     1
102
RTVSPost2010Prop57
140
1.0
102
RTVSPost2010PropOp57
 70
     1
  0
XRECORD
  5
1A4
102
{ACAD_REACTORS
330
1A3
102
}
330
1A3
100
AcDbXrecord
280
     1
102
RTVSPost2010Prop28
280
     0
102
RTVSPost2010PropOp28
 70
     1
102
RTVSPost2010Prop29
280
     1
102
RTVSPost2010PropOp29
 70
     1
102
RTVSPost2010Prop30
280
     1
102
RTVSPost2010PropOp30
 70
     1
102
RTVSPost2010Prop31
280
     0
102
RTVSPost2010PropOp31
 70
     1
102
RTVSPost2010Prop32
280
     0
102
RTVSPost2010PropOp32
 70
     1
102
RTVSPost2010Prop33
280
     0
102
RTVSPost2010PropOp33
 70
     1
102
RTVSPost2010Prop34
280
     0
102
RTVSPost2010PropOp34
 70
     1
102
RTVSPost2010Prop35
280
     0
102
RTVSPost2010PropOp35
 70
     1
102
RTVSPost2010Prop36
280
     0
102
RTVSPost2010PropOp36
 70
     1
102
RTVSPost2010Prop37
 90
       50
102
RTVSPost2010PropOp37
 70
     1
102
RTVSPost2010Prop38
140
0.0
102
RTVSPost2010PropOp38
 70
     1
102
RTVSPost2010Prop39
140
1.0
102
RTVSPost2010PropOp39
 70
     1
102
RTVSPost2010Prop40
 90
        0
102
RTVSPost2010PropOp40
 70
     1
102
RTVSPost2010Prop41ColorIndex
 90
       18
102
RTVSPost2010Prop41ColorRGB
 90
        0
102
RTVSPost2010PropOp41
 70
     1
102
RTVSPost2010Prop42
 90
       50
102
RTVSPost2010PropOp42
 70
     1
102
RTVSPost2010Prop43
 90
        3
102
RTVSPost2010PropOp43
 70
     1
102
RTVSPost2010Prop44ColorIndex
 90
        5
102
RTVSPost2010Prop44ColorRGB
 90
      255
102
RTVSPost2010PropOp44
 70
     1
102
RTVSPost2010Prop45
280
     0
102
RTVSPost2010PropOp45
 70
     1
102
RTVSPost2010Prop46
 90
       50
102
RTVSPost2010PropOp46
 70
     1
102
RTVSPost2010Prop47
 90
       50
102
RTVSPost2010PropOp47
 70
     1
102
RTVSPost2010Prop48
 90
       50
102
RTVSPost2010PropOp48
 70
     1
102
RTVSPost2010Prop49
280
     0
102
RTVSPost2010PropOp49
 70
     1
102
RTVSPost2010Prop50
 90
       50
102
RTVSPost2010PropOp50
 70
     1
102
RTVSPost2010Prop51ColorIndex
 90
      256
102
RTVSPost2010Prop51ColorRGB
 90
-16777216
102
RTVSPost2010PropOp51
 70
     0
102
RTVSPost2010Prop52
140
1.0
102
RTVSPost2010PropOp52
 70
     0
102
RTVSPost2010Prop53
 90
        2
102
RTVSPost2010PropOp53
 70
     1
102
RTVSPost2010Prop54
  1
strokes_ogs.tif
102
RTVSPost2010PropOp54
 70
     1
102
RTVSPost2010Prop55
280
     0
102
RTVSPost2010PropOp55
 70
     1
102
RTVSPost2010Prop56
140
1.0
102
RTVSPost2010PropOp56
 70
     1
102
RTVSPost2010Prop57
140
1.0
102
RTVSPost2010PropOp57
 70
     1
  0
XRECORD
  5
1BE
102
{ACAD_REACTORS
330
1BD
102
}
330
1BD
100
AcDbXrecord
280
     1
102
RTVSPost2010Prop28
280
     0
102
RTVSPost2010PropOp28
 70
     0
102
RTVSPost2010Prop29
280
     1
102
RTVSPost2010PropOp29
 70
     0
102
RTVSPost2010Prop30
280
     1
102
RTVSPost2010PropOp30
 70
     0
102
RTVSPost2010Prop31
280
     0
102
RTVSPost2010PropOp31
 70
     0
102
RTVSPost2010Prop32
280
     0
102
RTVSPost2010PropOp32
 70
     0
102
RTVSPost2010Prop33
280
     0
102
RTVSPost2010PropOp33
 70
     0
102
RTVSPost2010Prop34
280
     0
102
RTVSPost2010PropOp34
 70
     0
102
RTVSPost2010Prop35
280
     0
102
RTVSPost2010PropOp35
 70
     0
102
RTVSPost2010Prop36
280
     0
102
RTVSPost2010PropOp36
 70
     0
102
RTVSPost2010Prop37
 90
       50
102
RTVSPost2010PropOp37
 70
     0
102
RTVSPost2010Prop38
140
0.0
102
RTVSPost2010PropOp38
 70
     0
102
RTVSPost2010Prop39
140
1.0
102
RTVSPost2010PropOp39
 70
     0
102
RTVSPost2010Prop40
 90
        0
102
RTVSPost2010PropOp40
 70
     0
102
RTVSPost2010Prop41ColorIndex
 90
       18
102
RTVSPost2010Prop41ColorRGB
 90
        0
102
RTVSPost2010PropOp41
 70
     0
102
RTVSPost2010Prop42
 90
       50
102
RTVSPost2010PropOp42
 70
     0
102
RTVSPost2010Prop43
 90
        3
102
RTVSPost2010PropOp43
 70
     0
102
RTVSPost2010Prop44ColorIndex
 90
        5
102
RTVSPost2010Prop44ColorRGB
 90
      255
102
RTVSPost2010PropOp44
 70
     0
102
RTVSPost2010Prop45
280
     0
102
RTVSPost2010PropOp45
 70
     0
102
RTVSPost2010Prop46
 90
       50
102
RTVSPost2010PropOp46
 70
     0
102
RTVSPost2010Prop47
 90
       50
102
RTVSPost2010PropOp47
 70
     0
102
RTVSPost2010Prop48
 90
       50
102
RTVSPost2010PropOp48
 70
     0
102
RTVSPost2010Prop49
280
     0
102
RTVSPost2010PropOp49
 70
     0
102
RTVSPost2010Prop50
 90
       50
102
RTVSPost2010PropOp50
 70
     0
102
RTVSPost2010Prop51ColorIndex
 90
      256
102
RTVSPost2010Prop51ColorRGB
 90
-16777216
102
RTVSPost2010PropOp51
 70
     0
102
RTVSPost2010Prop52
140
1.0
102
RTVSPost2010PropOp52
 70
     0
102
RTVSPost2010Prop53
 90
        2
102
RTVSPost2010PropOp53
 70
     0
102
RTVSPost2010Prop54
  1
strokes_ogs.tif
102
RTVSPost2010PropOp54
 70
     0
102
RTVSPost2010Prop55
280
     0
102
RTVSPost2010PropOp55
 70
     0
102
RTVSPost2010Prop56
140
1.0
102
RTVSPost2010PropOp56
 70
     0
102
RTVSPost2010Prop57
140
1.0
102
RTVSPost2010PropOp57
 70
     0
  0
XRECORD
  5
1AC
102
{ACAD_REACTORS
330
1AB
102
}
330
1AB
100
AcDbXrecord
280
     1
102
RTVSPost2010Prop28
280
     0
102
RTVSPost2010PropOp28
 70
     1
102
RTVSPost2010Prop29
280
     1
102
RTVSPost2010PropOp29
 70
     1
102
RTVSPost2010Prop30
280
     1
102
RTVSPost2010PropOp30
 70
     1
102
RTVSPost2010Prop31
280
     0
102
RTVSPost2010PropOp31
 70
     1
102
RTVSPost2010Prop32
280
     0
102
RTVSPost2010PropOp32
 70
     1
102
RTVSPost2010Prop33
280
     0
102
RTVSPost2010PropOp33
 70
     1
102
RTVSPost2010Prop34
280
     0
102
RTVSPost2010PropOp34
 70
     1
102
RTVSPost2010Prop35
280
     0
102
RTVSPost2010PropOp35
 70
     1
102
RTVSPost2010Prop36
280
     0
102
RTVSPost2010PropOp36
 70
     1
102
RTVSPost2010Prop37
 90
       50
102
RTVSPost2010PropOp37
 70
     1
102
RTVSPost2010Prop38
140
0.0
102
RTVSPost2010PropOp38
 70
     1
102
RTVSPost2010Prop39
140
1.0
102
RTVSPost2010PropOp39
 70
     1
102
RTVSPost2010Prop40
 90
        0
102
RTVSPost2010PropOp40
 70
     1
102
RTVSPost2010Prop41ColorIndex
 90
       18
102
RTVSPost2010Prop41ColorRGB
 90
        0
102
RTVSPost2010PropOp41
 70
     1
102
RTVSPost2010Prop42
 90
       50
102
RTVSPost2010PropOp42
 70
     1
102
RTVSPost2010Prop43
 90
        3
102
RTVSPost2010PropOp43
 70
     1
102
RTVSPost2010Prop44ColorIndex
 90
        5
102
RTVSPost2010Prop44ColorRGB
 90
      255
102
RTVSPost2010PropOp44
 70
     1
102
RTVSPost2010Prop45
280
     0
102
RTVSPost2010PropOp45
 70
     1
102
RTVSPost2010Prop46
 90
       50
102
RTVSPost2010PropOp46
 70
     1
102
RTVSPost2010Prop47
 90
       50
102
RTVSPost2010PropOp47
 70
     1
102
RTVSPost2010Prop48
 90
       50
102
RTVSPost2010PropOp48
 70
     1
102
RTVSPost2010Prop49
280
     0
102
RTVSPost2010PropOp49
 70
     1
102
RTVSPost2010Prop50
 90
       50
102
RTVSPost2010PropOp50
 70
     1
102
RTVSPost2010Prop51ColorIndex
 90
      256
102
RTVSPost2010Prop51ColorRGB
 90
-16777216
102
RTVSPost2010PropOp51
 70
     0
102
RTVSPost2010Prop52
140
1.0
102
RTVSPost2010PropOp52
 70
     0
102
RTVSPost2010Prop53
 90
        2
102
RTVSPost2010PropOp53
 70
     1
102
RTVSPost2010Prop54
  1
strokes_ogs.tif
102
RTVSPost2010PropOp54
 70
     1
102
RTVSPost2010Prop55
280
     0
102
RTVSPost2010PropOp55
 70
     1
102
RTVSPost2010Prop56
140
1.0
102
RTVSPost2010PropOp56
 70
     1
102
RTVSPost2010Prop57
140
1.0
102
RTVSPost2010PropOp57
 70
     1
  0
XRECORD
  5
190
102
{ACAD_REACTORS
330
18F
102
}
330
18F
100
AcDbXrecord
280
     1
102
RTVSPost2010Prop28
280
     0
102
RTVSPost2010PropOp28
 70
     1
102
RTVSPost2010Prop29
280
     1
102
RTVSPost2010PropOp29
 70
     1
102
RTVSPost2010Prop30
280
     1
102
RTVSPost2010PropOp30
 70
     1
102
RTVSPost2010Prop31
280
     0
102
RTVSPost2010PropOp31
 70
     1
102
RTVSPost2010Prop32
280
     0
102
RTVSPost2010PropOp32
 70
     1
102
RTVSPost2010Prop33
280
     0
102
RTVSPost2010PropOp33
 70
     1
102
RTVSPost2010Prop34
280
     0
102
RTVSPost2010PropOp34
 70
     1
102
RTVSPost2010Prop35
280
     0
102
RTVSPost2010PropOp35
 70
     1
102
RTVSPost2010Prop36
280
     0
102
RTVSPost2010PropOp36
 70
     1
102
RTVSPost2010Prop37
 90
       50
102
RTVSPost2010PropOp37
 70
     1
102
RTVSPost2010Prop38
140
0.0
102
RTVSPost2010PropOp38
 70
     1
102
RTVSPost2010Prop39
140
1.0
102
RTVSPost2010PropOp39
 70
     1
102
RTVSPost2010Prop40
 90
        0
102
RTVSPost2010PropOp40
 70
     1
102
RTVSPost2010Prop41ColorIndex
 90
       18
102
RTVSPost2010Prop41ColorRGB
 90
        0
102
RTVSPost2010PropOp41
 70
     1
102
RTVSPost2010Prop42
 90
       50
102
RTVSPost2010PropOp42
 70
     1
102
RTVSPost2010Prop43
 90
        3
102
RTVSPost2010PropOp43
 70
     1
102
RTVSPost2010Prop44ColorIndex
 90
        5
102
RTVSPost2010Prop44ColorRGB
 90
      255
102
RTVSPost2010PropOp44
 70
     1
102
RTVSPost2010Prop45
280
     0
102
RTVSPost2010PropOp45
 70
     1
102
RTVSPost2010Prop46
 90
       50
102
RTVSPost2010PropOp46
 70
     1
102
RTVSPost2010Prop47
 90
       50
102
RTVSPost2010PropOp47
 70
     1
102
RTVSPost2010Prop48
 90
       50
102
RTVSPost2010PropOp48
 70
     1
102
RTVSPost2010Prop49
280
     0
102
RTVSPost2010PropOp49
 70
     1
102
RTVSPost2010Prop50
 90
       50
102
RTVSPost2010PropOp50
 70
     1
102
RTVSPost2010Prop51ColorIndex
 90
      256
102
RTVSPost2010Prop51ColorRGB
 90
-16777216
102
RTVSPost2010PropOp51
 70
     0
102
RTVSPost2010Prop52
140
1.0
102
RTVSPost2010PropOp52
 70
     0
102
RTVSPost2010Prop53
 90
        2
102
RTVSPost2010PropOp53
 70
     1
102
RTVSPost2010Prop54
  1
strokes_ogs.tif
102
RTVSPost2010PropOp54
 70
     1
102
RTVSPost2010Prop55
280
     0
102
RTVSPost2010PropOp55
 70
     1
102
RTVSPost2010Prop56
140
1.0
102
RTVSPost2010PropOp56
 70
     1
102
RTVSPost2010Prop57
140
1.0
102
RTVSPost2010PropOp57
 70
     1
  0
XRECORD
  5
192
102
{ACAD_REACTORS
330
191
102
}
330
191
100
AcDbXrecord
280
     1
102
RTVSPost2010Prop28
280
     0
102
RTVSPost2010PropOp28
 70
     1
102
RTVSPost2010Prop29
280
     1
102
RTVSPost2010PropOp29
 70
     1
102
RTVSPost2010Prop30
280
     1
102
RTVSPost2010PropOp30
 70
     1
102
RTVSPost2010Prop31
280
     0
102
RTVSPost2010PropOp31
 70
     1
102
RTVSPost2010Prop32
280
     0
102
RTVSPost2010PropOp32
 70
     1
102
RTVSPost2010Prop33
280
     0
102
RTVSPost2010PropOp33
 70
     1
102
RTVSPost2010Prop34
280
     0
102
RTVSPost2010PropOp34
 70
     1
102
RTVSPost2010Prop35
280
     0
102
RTVSPost2010PropOp35
 70
     1
102
RTVSPost2010Prop36
280
     0
102
RTVSPost2010PropOp36
 70
     1
102
RTVSPost2010Prop37
 90
       50
102
RTVSPost2010PropOp37
 70
     1
102
RTVSPost2010Prop38
140
0.0
102
RTVSPost2010PropOp38
 70
     1
102
RTVSPost2010Prop39
140
1.0
102
RTVSPost2010PropOp39
 70
     1
102
RTVSPost2010Prop40
 90
        0
102
RTVSPost2010PropOp40
 70
     1
102
RTVSPost2010Prop41ColorIndex
 90
       18
102
RTVSPost2010Prop41ColorRGB
 90
        0
102
RTVSPost2010PropOp41
 70
     1
102
RTVSPost2010Prop42
 90
       50
102
RTVSPost2010PropOp42
 70
     1
102
RTVSPost2010Prop43
 90
        3
102
RTVSPost2010PropOp43
 70
     1
102
RTVSPost2010Prop44ColorIndex
 90
        5
102
RTVSPost2010Prop44ColorRGB
 90
      255
102
RTVSPost2010PropOp44
 70
     1
102
RTVSPost2010Prop45
280
     0
102
RTVSPost2010PropOp45
 70
     1
102
RTVSPost2010Prop46
 90
       50
102
RTVSPost2010PropOp46
 70
     1
102
RTVSPost2010Prop47
 90
       50
102
RTVSPost2010PropOp47
 70
     1
102
RTVSPost2010Prop48
 90
       50
102
RTVSPost2010PropOp48
 70
     1
102
RTVSPost2010Prop49
280
     0
102
RTVSPost2010PropOp49
 70
     1
102
RTVSPost2010Prop50
 90
       50
102
RTVSPost2010PropOp50
 70
     1
102
RTVSPost2010Prop51ColorIndex
 90
      256
102
RTVSPost2010Prop51ColorRGB
 90
-16777216
102
RTVSPost2010PropOp51
 70
     0
102
RTVSPost2010Prop52
140
1.0
102
RTVSPost2010PropOp52
 70
     0
102
RTVSPost2010Prop53
 90
        2
102
RTVSPost2010PropOp53
 70
     1
102
RTVSPost2010Prop54
  1
strokes_ogs.tif
102
RTVSPost2010PropOp54
 70
     1
102
RTVSPost2010Prop55
280
     0
102
RTVSPost2010PropOp55
 70
     1
102
RTVSPost2010Prop56
140
1.0
102
RTVSPost2010PropOp56
 70
     1
102
RTVSPost2010Prop57
140
1.0
102
RTVSPost2010PropOp57
 70
     1
  0
XRECORD
  5
194
102
{ACAD_REACTORS
330
193
102
}
330
193
100
AcDbXrecord
280
     1
102
RTVSPost2010Prop28
280
     0
102
RTVSPost2010PropOp28
 70
     1
102
RTVSPost2010Prop29
280
     1
102
RTVSPost2010PropOp29
 70
     1
102
RTVSPost2010Prop30
280
     1
102
RTVSPost2010PropOp30
 70
     1
102
RTVSPost2010Prop31
280
     0
102
RTVSPost2010PropOp31
 70
     1
102
RTVSPost2010Prop32
280
     0
102
RTVSPost2010PropOp32
 70
     1
102
RTVSPost2010Prop33
280
     0
102
RTVSPost2010PropOp33
 70
     1
102
RTVSPost2010Prop34
280
     0
102
RTVSPost2010PropOp34
 70
     1
102
RTVSPost2010Prop35
280
     0
102
RTVSPost2010PropOp35
 70
     1
102
RTVSPost2010Prop36
280
     0
102
RTVSPost2010PropOp36
 70
     1
102
RTVSPost2010Prop37
 90
       50
102
RTVSPost2010PropOp37
 70
     1
102
RTVSPost2010Prop38
140
0.0
102
RTVSPost2010PropOp38
 70
     1
102
RTVSPost2010Prop39
140
1.0
102
RTVSPost2010PropOp39
 70
     1
102
RTVSPost2010Prop40
 90
        0
102
RTVSPost2010PropOp40
 70
     1
102
RTVSPost2010Prop41ColorIndex
 90
       18
102
RTVSPost2010Prop41ColorRGB
 90
        0
102
RTVSPost2010PropOp41
 70
     1
102
RTVSPost2010Prop42
 90
       50
102
RTVSPost2010PropOp42
 70
     1
102
RTVSPost2010Prop43
 90
        3
102
RTVSPost2010PropOp43
 70
     1
102
RTVSPost2010Prop44ColorIndex
 90
        5
102
RTVSPost2010Prop44ColorRGB
 90
      255
102
RTVSPost2010PropOp44
 70
     1
102
RTVSPost2010Prop45
280
     0
102
RTVSPost2010PropOp45
 70
     1
102
RTVSPost2010Prop46
 90
       50
102
RTVSPost2010PropOp46
 70
     1
102
RTVSPost2010Prop47
 90
       50
102
RTVSPost2010PropOp47
 70
     1
102
RTVSPost2010Prop48
 90
       50
102
RTVSPost2010PropOp48
 70
     1
102
RTVSPost2010Prop49
280
     0
102
RTVSPost2010PropOp49
 70
     1
102
RTVSPost2010Prop50
 90
       50
102
RTVSPost2010PropOp50
 70
     1
102
RTVSPost2010Prop51ColorIndex
 90
      256
102
RTVSPost2010Prop51ColorRGB
 90
-16777216
102
RTVSPost2010PropOp51
 70
     0
102
RTVSPost2010Prop52
140
1.0
102
RTVSPost2010PropOp52
 70
     0
102
RTVSPost2010Prop53
 90
        2
102
RTVSPost2010PropOp53
 70
     1
102
RTVSPost2010Prop54
  1
strokes_ogs.tif
102
RTVSPost2010PropOp54
 70
     1
102
RTVSPost2010Prop55
280
     0
102
RTVSPost2010PropOp55
 70
     1
102
RTVSPost2010Prop56
140
1.0
102
RTVSPost2010PropOp56
 70
     1
102
RTVSPost2010Prop57
140
1.0
102
RTVSPost2010PropOp57
 70
     1
  0
XRECORD
  5
196
102
{ACAD_REACTORS
330
195
102
}
330
195
100
AcDbXrecord
280
     1
102
RTVSPost2010Prop28
280
     0
102
RTVSPost2010PropOp28
 70
     1
102
RTVSPost2010Prop29
280
     1
102
RTVSPost2010PropOp29
 70
     1
102
RTVSPost2010Prop30
280
     1
102
RTVSPost2010PropOp30
 70
     1
102
RTVSPost2010Prop31
280
     0
102
RTVSPost2010PropOp31
 70
     1
102
RTVSPost2010Prop32
280
     0
102
RTVSPost2010PropOp32
 70
     1
102
RTVSPost2010Prop33
280
     0
102
RTVSPost2010PropOp33
 70
     1
102
RTVSPost2010Prop34
280
     0
102
RTVSPost2010PropOp34
 70
     1
102
RTVSPost2010Prop35
280
     0
102
RTVSPost2010PropOp35
 70
     1
102
RTVSPost2010Prop36
280
     0
102
RTVSPost2010PropOp36
 70
     1
102
RTVSPost2010Prop37
 90
       50
102
RTVSPost2010PropOp37
 70
     1
102
RTVSPost2010Prop38
140
0.0
102
RTVSPost2010PropOp38
 70
     1
102
RTVSPost2010Prop39
140
1.0
102
RTVSPost2010PropOp39
 70
     1
102
RTVSPost2010Prop40
 90
        0
102
RTVSPost2010PropOp40
 70
     1
102
RTVSPost2010Prop41ColorIndex
 90
       18
102
RTVSPost2010Prop41ColorRGB
 90
        0
102
RTVSPost2010PropOp41
 70
     1
102
RTVSPost2010Prop42
 90
       50
102
RTVSPost2010PropOp42
 70
     1
102
RTVSPost2010Prop43
 90
        3
102
RTVSPost2010PropOp43
 70
     1
102
RTVSPost2010Prop44ColorIndex
 90
        5
102
RTVSPost2010Prop44ColorRGB
 90
      255
102
RTVSPost2010PropOp44
 70
     1
102
RTVSPost2010Prop45
280
     0
102
RTVSPost2010PropOp45
 70
     1
102
RTVSPost2010Prop46
 90
       50
102
RTVSPost2010PropOp46
 70
     1
102
RTVSPost2010Prop47
 90
       50
102
RTVSPost2010PropOp47
 70
     1
102
RTVSPost2010Prop48
 90
       50
102
RTVSPost2010PropOp48
 70
     1
102
RTVSPost2010Prop49
280
     0
102
RTVSPost2010PropOp49
 70
     1
102
RTVSPost2010Prop50
 90
       50
102
RTVSPost2010PropOp50
 70
     1
102
RTVSPost2010Prop51ColorIndex
 90
      256
102
RTVSPost2010Prop51ColorRGB
 90
-16777216
102
RTVSPost2010PropOp51
 70
     0
102
RTVSPost2010Prop52
140
1.0
102
RTVSPost2010PropOp52
 70
     0
102
RTVSPost2010Prop53
 90
        2
102
RTVSPost2010PropOp53
 70
     1
102
RTVSPost2010Prop54
  1
strokes_ogs.tif
102
RTVSPost2010PropOp54
 70
     1
102
RTVSPost2010Prop55
280
     0
102
RTVSPost2010PropOp55
 70
     1
102
RTVSPost2010Prop56
140
1.0
102
RTVSPost2010PropOp56
 70
     1
102
RTVSPost2010Prop57
140
1.0
102
RTVSPost2010PropOp57
 70
     1
  0
XRECORD
  5
19E
102
{ACAD_REACTORS
330
19D
102
}
330
19D
100
AcDbXrecord
280
     1
102
RTVSPost2010Prop28
280
     0
102
RTVSPost2010PropOp28
 70
     1
102
RTVSPost2010Prop29
280
     1
102
RTVSPost2010PropOp29
 70
     1
102
RTVSPost2010Prop30
280
     1
102
RTVSPost2010PropOp30
 70
     1
102
RTVSPost2010Prop31
280
     0
102
RTVSPost2010PropOp31
 70
     1
102
RTVSPost2010Prop32
280
     0
102
RTVSPost2010PropOp32
 70
     1
102
RTVSPost2010Prop33
280
     0
102
RTVSPost2010PropOp33
 70
     1
102
RTVSPost2010Prop34
280
     0
102
RTVSPost2010PropOp34
 70
     1
102
RTVSPost2010Prop35
280
     0
102
RTVSPost2010PropOp35
 70
     1
102
RTVSPost2010Prop36
280
     0
102
RTVSPost2010PropOp36
 70
     1
102
RTVSPost2010Prop37
 90
       50
102
RTVSPost2010PropOp37
 70
     1
102
RTVSPost2010Prop38
140
0.0
102
RTVSPost2010PropOp38
 70
     1
102
RTVSPost2010Prop39
140
1.0
102
RTVSPost2010PropOp39
 70
     1
102
RTVSPost2010Prop40
 90
        0
102
RTVSPost2010PropOp40
 70
     1
102
RTVSPost2010Prop41ColorIndex
 90
       18
102
RTVSPost2010Prop41ColorRGB
 90
        0
102
RTVSPost2010PropOp41
 70
     1
102
RTVSPost2010Prop42
 90
       50
102
RTVSPost2010PropOp42
 70
     1
102
RTVSPost2010Prop43
 90
        3
102
RTVSPost2010PropOp43
 70
     1
102
RTVSPost2010Prop44ColorIndex
 90
        5
102
RTVSPost2010Prop44ColorRGB
 90
      255
102
RTVSPost2010PropOp44
 70
     1
102
RTVSPost2010Prop45
280
     0
102
RTVSPost2010PropOp45
 70
     1
102
RTVSPost2010Prop46
 90
       50
102
RTVSPost2010PropOp46
 70
     1
102
RTVSPost2010Prop47
 90
       50
102
RTVSPost2010PropOp47
 70
     1
102
RTVSPost2010Prop48
 90
       50
102
RTVSPost2010PropOp48
 70
     1
102
RTVSPost2010Prop49
280
     0
102
RTVSPost2010PropOp49
 70
     1
102
RTVSPost2010Prop50
 90
       50
102
RTVSPost2010PropOp50
 70
     1
102
RTVSPost2010Prop51ColorIndex
 90
      256
102
RTVSPost2010Prop51ColorRGB
 90
-16777216
102
RTVSPost2010PropOp51
 70
     0
102
RTVSPost2010Prop52
140
1.0
102
RTVSPost2010PropOp52
 70
     0
102
RTVSPost2010Prop53
 90
        2
102
RTVSPost2010PropOp53
 70
     1
102
RTVSPost2010Prop54
  1
strokes_ogs.tif
102
RTVSPost2010PropOp54
 70
     1
102
RTVSPost2010Prop55
280
     0
102
RTVSPost2010PropOp55
 70
     1
102
RTVSPost2010Prop56
140
1.0
102
RTVSPost2010PropOp56
 70
     1
102
RTVSPost2010Prop57
140
1.0
102
RTVSPost2010PropOp57
 70
     1
  0
XRECORD
  5
1BA
102
{ACAD_REACTORS
330
1B9
102
}
330
1B9
100
AcDbXrecord
280
     1
102
RTVSPost2010Prop28
280
     0
102
RTVSPost2010PropOp28
 70
     0
102
RTVSPost2010Prop29
280
     1
102
RTVSPost2010PropOp29
 70
     0
102
RTVSPost2010Prop30
280
     1
102
RTVSPost2010PropOp30
 70
     0
102
RTVSPost2010Prop31
280
     0
102
RTVSPost2010PropOp31
 70
     0
102
RTVSPost2010Prop32
280
     0
102
RTVSPost2010PropOp32
 70
     0
102
RTVSPost2010Prop33
280
     0
102
RTVSPost2010PropOp33
 70
     0
102
RTVSPost2010Prop34
280
     0
102
RTVSPost2010PropOp34
 70
     0
102
RTVSPost2010Prop35
280
     0
102
RTVSPost2010PropOp35
 70
     0
102
RTVSPost2010Prop36
280
     0
102
RTVSPost2010PropOp36
 70
     0
102
RTVSPost2010Prop37
 90
       50
102
RTVSPost2010PropOp37
 70
     0
102
RTVSPost2010Prop38
140
0.0
102
RTVSPost2010PropOp38
 70
     0
102
RTVSPost2010Prop39
140
1.0
102
RTVSPost2010PropOp39
 70
     0
102
RTVSPost2010Prop40
 90
        0
102
RTVSPost2010PropOp40
 70
     0
102
RTVSPost2010Prop41ColorIndex
 90
       18
102
RTVSPost2010Prop41ColorRGB
 90
        0
102
RTVSPost2010PropOp41
 70
     0
102
RTVSPost2010Prop42
 90
       50
102
RTVSPost2010PropOp42
 70
     0
102
RTVSPost2010Prop43
 90
        3
102
RTVSPost2010PropOp43
 70
     0
102
RTVSPost2010Prop44ColorIndex
 90
        5
102
RTVSPost2010Prop44ColorRGB
 90
      255
102
RTVSPost2010PropOp44
 70
     0
102
RTVSPost2010Prop45
280
     0
102
RTVSPost2010PropOp45
 70
     0
102
RTVSPost2010Prop46
 90
       50
102
RTVSPost2010PropOp46
 70
     0
102
RTVSPost2010Prop47
 90
       50
102
RTVSPost2010PropOp47
 70
     0
102
RTVSPost2010Prop48
 90
       50
102
RTVSPost2010PropOp48
 70
     0
102
RTVSPost2010Prop49
280
     0
102
RTVSPost2010PropOp49
 70
     0
102
RTVSPost2010Prop50
 90
       50
102
RTVSPost2010PropOp50
 70
     0
102
RTVSPost2010Prop51ColorIndex
 90
      256
102
RTVSPost2010Prop51ColorRGB
 90
-16777216
102
RTVSPost2010PropOp51
 70
     0
102
RTVSPost2010Prop52
140
1.0
102
RTVSPost2010PropOp52
 70
     0
102
RTVSPost2010Prop53
 90
        2
102
RTVSPost2010PropOp53
 70
     0
102
RTVSPost2010Prop54
  1
strokes_ogs.tif
102
RTVSPost2010PropOp54
 70
     0
102
RTVSPost2010Prop55
280
     0
102
RTVSPost2010PropOp55
 70
     0
102
RTVSPost2010Prop56
140
1.0
102
RTVSPost2010PropOp56
 70
     0
102
RTVSPost2010Prop57
140
1.0
102
RTVSPost2010PropOp57
 70
     0
  0
XRECORD
  5
1AA
102
{ACAD_REACTORS
330
1A9
102
}
330
1A9
100
AcDbXrecord
280
     1
102
RTVSPost2010Prop28
280
     0
102
RTVSPost2010PropOp28
 70
     1
102
RTVSPost2010Prop29
280
     1
102
RTVSPost2010PropOp29
 70
     1
102
RTVSPost2010Prop30
280
     1
102
RTVSPost2010PropOp30
 70
     1
102
RTVSPost2010Prop31
280
     0
102
RTVSPost2010PropOp31
 70
     1
102
RTVSPost2010Prop32
280
     0
102
RTVSPost2010PropOp32
 70
     1
102
RTVSPost2010Prop33
280
     0
102
RTVSPost2010PropOp33
 70
     1
102
RTVSPost2010Prop34
280
     0
102
RTVSPost2010PropOp34
 70
     1
102
RTVSPost2010Prop35
280
     0
102
RTVSPost2010PropOp35
 70
     1
102
RTVSPost2010Prop36
280
     0
102
RTVSPost2010PropOp36
 70
     1
102
RTVSPost2010Prop37
 90
       50
102
RTVSPost2010PropOp37
 70
     1
102
RTVSPost2010Prop38
140
0.0
102
RTVSPost2010PropOp38
 70
     1
102
RTVSPost2010Prop39
140
1.0
102
RTVSPost2010PropOp39
 70
     1
102
RTVSPost2010Prop40
 90
        0
102
RTVSPost2010PropOp40
 70
     1
102
RTVSPost2010Prop41ColorIndex
 90
       18
102
RTVSPost2010Prop41ColorRGB
 90
        0
102
RTVSPost2010PropOp41
 70
     1
102
RTVSPost2010Prop42
 90
       50
102
RTVSPost2010PropOp42
 70
     1
102
RTVSPost2010Prop43
 90
        3
102
RTVSPost2010PropOp43
 70
     1
102
RTVSPost2010Prop44ColorIndex
 90
        5
102
RTVSPost2010Prop44ColorRGB
 90
      255
102
RTVSPost2010PropOp44
 70
     1
102
RTVSPost2010Prop45
280
     0
102
RTVSPost2010PropOp45
 70
     1
102
RTVSPost2010Prop46
 90
       50
102
RTVSPost2010PropOp46
 70
     1
102
RTVSPost2010Prop47
 90
       50
102
RTVSPost2010PropOp47
 70
     1
102
RTVSPost2010Prop48
 90
       50
102
RTVSPost2010PropOp48
 70
     1
102
RTVSPost2010Prop49
280
     0
102
RTVSPost2010PropOp49
 70
     1
102
RTVSPost2010Prop50
 90
       50
102
RTVSPost2010PropOp50
 70
     1
102
RTVSPost2010Prop51ColorIndex
 90
      256
102
RTVSPost2010Prop51ColorRGB
 90
-16777216
102
RTVSPost2010PropOp51
 70
     0
102
RTVSPost2010Prop52
140
1.0
102
RTVSPost2010PropOp52
 70
     0
102
RTVSPost2010Prop53
 90
        2
102
RTVSPost2010PropOp53
 70
     1
102
RTVSPost2010Prop54
  1
strokes_ogs.tif
102
RTVSPost2010PropOp54
 70
     1
102
RTVSPost2010Prop55
280
     0
102
RTVSPost2010PropOp55
 70
     1
102
RTVSPost2010Prop56
140
1.0
102
RTVSPost2010PropOp56
 70
     1
102
RTVSPost2010Prop57
140
1.0
102
RTVSPost2010PropOp57
 70
     1
  0
XRECORD
  5
1BC
102
{ACAD_REACTORS
330
1BB
102
}
330
1BB
100
AcDbXrecord
280
     1
102
RTVSPost2010Prop28
280
     0
102
RTVSPost2010PropOp28
 70
     0
102
RTVSPost2010Prop29
280
     1
102
RTVSPost2010PropOp29
 70
     0
102
RTVSPost2010Prop30
280
     1
102
RTVSPost2010PropOp30
 70
     0
102
RTVSPost2010Prop31
280
     0
102
RTVSPost2010PropOp31
 70
     0
102
RTVSPost2010Prop32
280
     0
102
RTVSPost2010PropOp32
 70
     0
102
RTVSPost2010Prop33
280
     0
102
RTVSPost2010PropOp33
 70
     0
102
RTVSPost2010Prop34
280
     0
102
RTVSPost2010PropOp34
 70
     0
102
RTVSPost2010Prop35
280
     0
102
RTVSPost2010PropOp35
 70
     0
102
RTVSPost2010Prop36
280
     0
102
RTVSPost2010PropOp36
 70
     0
102
RTVSPost2010Prop37
 90
       50
102
RTVSPost2010PropOp37
 70
     0
102
RTVSPost2010Prop38
140
0.0
102
RTVSPost2010PropOp38
 70
     0
102
RTVSPost2010Prop39
140
1.0
102
RTVSPost2010PropOp39
 70
     0
102
RTVSPost2010Prop40
 90
        0
102
RTVSPost2010PropOp40
 70
     0
102
RTVSPost2010Prop41ColorIndex
 90
       18
102
RTVSPost2010Prop41ColorRGB
 90
        0
102
RTVSPost2010PropOp41
 70
     0
102
RTVSPost2010Prop42
 90
       50
102
RTVSPost2010PropOp42
 70
     0
102
RTVSPost2010Prop43
 90
        3
102
RTVSPost2010PropOp43
 70
     0
102
RTVSPost2010Prop44ColorIndex
 90
        5
102
RTVSPost2010Prop44ColorRGB
 90
      255
102
RTVSPost2010PropOp44
 70
     0
102
RTVSPost2010Prop45
280
     0
102
RTVSPost2010PropOp45
 70
     0
102
RTVSPost2010Prop46
 90
       50
102
RTVSPost2010PropOp46
 70
     0
102
RTVSPost2010Prop47
 90
       50
102
RTVSPost2010PropOp47
 70
     0
102
RTVSPost2010Prop48
 90
       50
102
RTVSPost2010PropOp48
 70
     0
102
RTVSPost2010Prop49
280
     0
102
RTVSPost2010PropOp49
 70
     0
102
RTVSPost2010Prop50
 90
       50
102
RTVSPost2010PropOp50
 70
     0
102
RTVSPost2010Prop51ColorIndex
 90
      256
102
RTVSPost2010Prop51ColorRGB
 90
-16777216
102
RTVSPost2010PropOp51
 70
     0
102
RTVSPost2010Prop52
140
1.0
102
RTVSPost2010PropOp52
 70
     0
102
RTVSPost2010Prop53
 90
        2
102
RTVSPost2010PropOp53
 70
     0
102
RTVSPost2010Prop54
  1
strokes_ogs.tif
102
RTVSPost2010PropOp54
 70
     0
102
RTVSPost2010Prop55
280
     0
102
RTVSPost2010PropOp55
 70
     0
102
RTVSPost2010Prop56
140
1.0
102
RTVSPost2010PropOp56
 70
     0
102
RTVSPost2010Prop57
140
1.0
102
RTVSPost2010PropOp57
 70
     0
  0
XRECORD
  5
1A2
102
{ACAD_REACTORS
330
1A1
102
}
330
1A1
100
AcDbXrecord
280
     1
102
RTVSPost2010Prop28
280
     0
102
RTVSPost2010PropOp28
 70
     1
102
RTVSPost2010Prop29
280
     1
102
RTVSPost2010PropOp29
 70
     1
102
RTVSPost2010Prop30
280
     1
102
RTVSPost2010PropOp30
 70
     1
102
RTVSPost2010Prop31
280
     0
102
RTVSPost2010PropOp31
 70
     1
102
RTVSPost2010Prop32
280
     0
102
RTVSPost2010PropOp32
 70
     1
102
RTVSPost2010Prop33
280
     0
102
RTVSPost2010PropOp33
 70
     1
102
RTVSPost2010Prop34
280
     0
102
RTVSPost2010PropOp34
 70
     1
102
RTVSPost2010Prop35
280
     0
102
RTVSPost2010PropOp35
 70
     1
102
RTVSPost2010Prop36
280
     0
102
RTVSPost2010PropOp36
 70
     1
102
RTVSPost2010Prop37
 90
       50
102
RTVSPost2010PropOp37
 70
     1
102
RTVSPost2010Prop38
140
0.0
102
RTVSPost2010PropOp38
 70
     1
102
RTVSPost2010Prop39
140
1.0
102
RTVSPost2010PropOp39
 70
     1
102
RTVSPost2010Prop40
 90
        0
102
RTVSPost2010PropOp40
 70
     1
102
RTVSPost2010Prop41ColorIndex
 90
       18
102
RTVSPost2010Prop41ColorRGB
 90
        0
102
RTVSPost2010PropOp41
 70
     1
102
RTVSPost2010Prop42
 90
       50
102
RTVSPost2010PropOp42
 70
     1
102
RTVSPost2010Prop43
 90
        3
102
RTVSPost2010PropOp43
 70
     1
102
RTVSPost2010Prop44ColorIndex
 90
        5
102
RTVSPost2010Prop44ColorRGB
 90
      255
102
RTVSPost2010PropOp44
 70
     1
102
RTVSPost2010Prop45
280
     0
102
RTVSPost2010PropOp45
 70
     1
102
RTVSPost2010Prop46
 90
       50
102
RTVSPost2010PropOp46
 70
     1
102
RTVSPost2010Prop47
 90
       50
102
RTVSPost2010PropOp47
 70
     1
102
RTVSPost2010Prop48
 90
       50
102
RTVSPost2010PropOp48
 70
     1
102
RTVSPost2010Prop49
280
     0
102
RTVSPost2010PropOp49
 70
     1
102
RTVSPost2010Prop50
 90
       50
102
RTVSPost2010PropOp50
 70
     1
102
RTVSPost2010Prop51ColorIndex
 90
      256
102
RTVSPost2010Prop51ColorRGB
 90
-16777216
102
RTVSPost2010PropOp51
 70
     0
102
RTVSPost2010Prop52
140
1.0
102
RTVSPost2010PropOp52
 70
     0
102
RTVSPost2010Prop53
 90
        2
102
RTVSPost2010PropOp53
 70
     1
102
RTVSPost2010Prop54
  1
strokes_ogs.tif
102
RTVSPost2010PropOp54
 70
     1
102
RTVSPost2010Prop55
280
     0
102
RTVSPost2010PropOp55
 70
     1
102
RTVSPost2010Prop56
140
1.0
102
RTVSPost2010PropOp56
 70
     1
102
RTVSPost2010Prop57
140
1.0
102
RTVSPost2010PropOp57
 70
     1
  0
XRECORD
  5
1B8
102
{ACAD_REACTORS
330
1B7
102
}
330
1B7
100
AcDbXrecord
280
     1
102
RTVSPost2010Prop28
280
     0
102
RTVSPost2010PropOp28
 70
     1
102
RTVSPost2010Prop29
280
     1
102
RTVSPost2010PropOp29
 70
     1
102
RTVSPost2010Prop30
280
     1
102
RTVSPost2010PropOp30
 70
     1
102
RTVSPost2010Prop31
280
     0
102
RTVSPost2010PropOp31
 70
     1
102
RTVSPost2010Prop32
280
     0
102
RTVSPost2010PropOp32
 70
     1
102
RTVSPost2010Prop33
280
     0
102
RTVSPost2010PropOp33
 70
     1
102
RTVSPost2010Prop34
280
     0
102
RTVSPost2010PropOp34
 70
     1
102
RTVSPost2010Prop35
280
     0
102
RTVSPost2010PropOp35
 70
     1
102
RTVSPost2010Prop36
280
     0
102
RTVSPost2010PropOp36
 70
     1
102
RTVSPost2010Prop37
 90
       50
102
RTVSPost2010PropOp37
 70
     1
102
RTVSPost2010Prop38
140
0.0
102
RTVSPost2010PropOp38
 70
     1
102
RTVSPost2010Prop39
140
1.0
102
RTVSPost2010PropOp39
 70
     1
102
RTVSPost2010Prop40
 90
        0
102
RTVSPost2010PropOp40
 70
     1
102
RTVSPost2010Prop41ColorIndex
 90
       18
102
RTVSPost2010Prop41ColorRGB
 90
        0
102
RTVSPost2010PropOp41
 70
     1
102
RTVSPost2010Prop42
 90
       50
102
RTVSPost2010PropOp42
 70
     1
102
RTVSPost2010Prop43
 90
        3
102
RTVSPost2010PropOp43
 70
     1
102
RTVSPost2010Prop44ColorIndex
 90
        5
102
RTVSPost2010Prop44ColorRGB
 90
      255
102
RTVSPost2010PropOp44
 70
     1
102
RTVSPost2010Prop45
280
     0
102
RTVSPost2010PropOp45
 70
     1
102
RTVSPost2010Prop46
 90
       50
102
RTVSPost2010PropOp46
 70
     1
102
RTVSPost2010Prop47
 90
       50
102
RTVSPost2010PropOp47
 70
     1
102
RTVSPost2010Prop48
 90
       50
102
RTVSPost2010PropOp48
 70
     1
102
RTVSPost2010Prop49
280
     0
102
RTVSPost2010PropOp49
 70
     1
102
RTVSPost2010Prop50
 90
       50
102
RTVSPost2010PropOp50
 70
     1
102
RTVSPost2010Prop51ColorIndex
 90
      256
102
RTVSPost2010Prop51ColorRGB
 90
-16777216
102
RTVSPost2010PropOp51
 70
     0
102
RTVSPost2010Prop52
140
1.0
102
RTVSPost2010PropOp52
 70
     0
102
RTVSPost2010Prop53
 90
        2
102
RTVSPost2010PropOp53
 70
     1
102
RTVSPost2010Prop54
  1
strokes_ogs.tif
102
RTVSPost2010PropOp54
 70
     1
102
RTVSPost2010Prop55
280
     0
102
RTVSPost2010PropOp55
 70
     1
102
RTVSPost2010Prop56
140
1.0
102
RTVSPost2010PropOp56
 70
     1
102
RTVSPost2010Prop57
140
1.0
102
RTVSPost2010PropOp57
 70
     1
  0
XRECORD
  5
1B6
102
{ACAD_REACTORS
330
1B5
102
}
330
1B5
100
AcDbXrecord
280
     1
102
RTVSPost2010Prop28
280
     0
102
RTVSPost2010PropOp28
 70
     1
102
RTVSPost2010Prop29
280
     1
102
RTVSPost2010PropOp29
 70
     1
102
RTVSPost2010Prop30
280
     1
102
RTVSPost2010PropOp30
 70
     1
102
RTVSPost2010Prop31
280
     0
102
RTVSPost2010PropOp31
 70
     1
102
RTVSPost2010Prop32
280
     0
102
RTVSPost2010PropOp32
 70
     1
102
RTVSPost2010Prop33
280
     0
102
RTVSPost2010PropOp33
 70
     1
102
RTVSPost2010Prop34
280
     0
102
RTVSPost2010PropOp34
 70
     1
102
RTVSPost2010Prop35
280
     0
102
RTVSPost2010PropOp35
 70
     1
102
RTVSPost2010Prop36
280
     0
102
RTVSPost2010PropOp36
 70
     1
102
RTVSPost2010Prop37
 90
       50
102
RTVSPost2010PropOp37
 70
     1
102
RTVSPost2010Prop38
140
0.0
102
RTVSPost2010PropOp38
 70
     1
102
RTVSPost2010Prop39
140
1.0
102
RTVSPost2010PropOp39
 70
     1
102
RTVSPost2010Prop40
 90
        0
102
RTVSPost2010PropOp40
 70
     1
102
RTVSPost2010Prop41ColorIndex
 90
       18
102
RTVSPost2010Prop41ColorRGB
 90
        0
102
RTVSPost2010PropOp41
 70
     1
102
RTVSPost2010Prop42
 90
       50
102
RTVSPost2010PropOp42
 70
     1
102
RTVSPost2010Prop43
 90
        3
102
RTVSPost2010PropOp43
 70
     1
102
RTVSPost2010Prop44ColorIndex
 90
        5
102
RTVSPost2010Prop44ColorRGB
 90
      255
102
RTVSPost2010PropOp44
 70
     1
102
RTVSPost2010Prop45
280
     0
102
RTVSPost2010PropOp45
 70
     1
102
RTVSPost2010Prop46
 90
       50
102
RTVSPost2010PropOp46
 70
     1
102
RTVSPost2010Prop47
 90
       50
102
RTVSPost2010PropOp47
 70
     1
102
RTVSPost2010Prop48
 90
       50
102
RTVSPost2010PropOp48
 70
     1
102
RTVSPost2010Prop49
280
     0
102
RTVSPost2010PropOp49
 70
     1
102
RTVSPost2010Prop50
 90
       50
102
RTVSPost2010PropOp50
 70
     1
102
RTVSPost2010Prop51ColorIndex
 90
      256
102
RTVSPost2010Prop51ColorRGB
 90
-16777216
102
RTVSPost2010PropOp51
 70
     0
102
RTVSPost2010Prop52
140
1.0
102
RTVSPost2010PropOp52
 70
     0
102
RTVSPost2010Prop53
 90
        2
102
RTVSPost2010PropOp53
 70
     1
102
RTVSPost2010Prop54
  1
strokes_ogs.tif
102
RTVSPost2010PropOp54
 70
     1
102
RTVSPost2010Prop55
280
     0
102
RTVSPost2010PropOp55
 70
     1
102
RTVSPost2010Prop56
140
1.0
102
RTVSPost2010PropOp56
 70
     1
102
RTVSPost2010Prop57
140
1.0
102
RTVSPost2010PropOp57
 70
     1
  0
XRECORD
  5
1B0
102
{ACAD_REACTORS
330
1AF
102
}
330
1AF
100
AcDbXrecord
280
     1
102
RTVSPost2010Prop28
280
     0
102
RTVSPost2010PropOp28
 70
     1
102
RTVSPost2010Prop29
280
     1
102
RTVSPost2010PropOp29
 70
     1
102
RTVSPost2010Prop30
280
     1
102
RTVSPost2010PropOp30
 70
     1
102
RTVSPost2010Prop31
280
     0
102
RTVSPost2010PropOp31
 70
     1
102
RTVSPost2010Prop32
280
     0
102
RTVSPost2010PropOp32
 70
     1
102
RTVSPost2010Prop33
280
     0
102
RTVSPost2010PropOp33
 70
     1
102
RTVSPost2010Prop34
280
     0
102
RTVSPost2010PropOp34
 70
     1
102
RTVSPost2010Prop35
280
     0
102
RTVSPost2010PropOp35
 70
     1
102
RTVSPost2010Prop36
280
     0
102
RTVSPost2010PropOp36
 70
     1
102
RTVSPost2010Prop37
 90
       50
102
RTVSPost2010PropOp37
 70
     1
102
RTVSPost2010Prop38
140
0.0
102
RTVSPost2010PropOp38
 70
     1
102
RTVSPost2010Prop39
140
1.0
102
RTVSPost2010PropOp39
 70
     1
102
RTVSPost2010Prop40
 90
        0
102
RTVSPost2010PropOp40
 70
     1
102
RTVSPost2010Prop41ColorIndex
 90
       18
102
RTVSPost2010Prop41ColorRGB
 90
        0
102
RTVSPost2010PropOp41
 70
     1
102
RTVSPost2010Prop42
 90
       50
102
RTVSPost2010PropOp42
 70
     1
102
RTVSPost2010Prop43
 90
        3
102
RTVSPost2010PropOp43
 70
     1
102
RTVSPost2010Prop44ColorIndex
 90
        5
102
RTVSPost2010Prop44ColorRGB
 90
      255
102
RTVSPost2010PropOp44
 70
     1
102
RTVSPost2010Prop45
280
     0
102
RTVSPost2010PropOp45
 70
     1
102
RTVSPost2010Prop46
 90
       50
102
RTVSPost2010PropOp46
 70
     1
102
RTVSPost2010Prop47
 90
       50
102
RTVSPost2010PropOp47
 70
     1
102
RTVSPost2010Prop48
 90
       50
102
RTVSPost2010PropOp48
 70
     1
102
RTVSPost2010Prop49
280
     0
102
RTVSPost2010PropOp49
 70
     1
102
RTVSPost2010Prop50
 90
       50
102
RTVSPost2010PropOp50
 70
     1
102
RTVSPost2010Prop51ColorIndex
 90
      256
102
RTVSPost2010Prop51ColorRGB
 90
-16777216
102
RTVSPost2010PropOp51
 70
     0
102
RTVSPost2010Prop52
140
1.0
102
RTVSPost2010PropOp52
 70
     0
102
RTVSPost2010Prop53
 90
        2
102
RTVSPost2010PropOp53
 70
     1
102
RTVSPost2010Prop54
  1
strokes_ogs.tif
102
RTVSPost2010PropOp54
 70
     1
102
RTVSPost2010Prop55
280
     0
102
RTVSPost2010PropOp55
 70
     1
102
RTVSPost2010Prop56
140
1.0
102
RTVSPost2010PropOp56
 70
     1
102
RTVSPost2010Prop57
140
1.0
102
RTVSPost2010PropOp57
 70
     1
  0
XRECORD
  5
1B2
102
{ACAD_REACTORS
330
1B1
102
}
330
1B1
100
AcDbXrecord
280
     1
102
RTVSPost2010Prop28
280
     0
102
RTVSPost2010PropOp28
 70
     1
102
RTVSPost2010Prop29
280
     1
102
RTVSPost2010PropOp29
 70
     1
102
RTVSPost2010Prop30
280
     1
102
RTVSPost2010PropOp30
 70
     1
102
RTVSPost2010Prop31
280
     0
102
RTVSPost2010PropOp31
 70
     1
102
RTVSPost2010Prop32
280
     0
102
RTVSPost2010PropOp32
 70
     1
102
RTVSPost2010Prop33
280
     0
102
RTVSPost2010PropOp33
 70
     1
102
RTVSPost2010Prop34
280
     0
102
RTVSPost2010PropOp34
 70
     1
102
RTVSPost2010Prop35
280
     0
102
RTVSPost2010PropOp35
 70
     1
102
RTVSPost2010Prop36
280
     0
102
RTVSPost2010PropOp36
 70
     1
102
RTVSPost2010Prop37
 90
       50
102
RTVSPost2010PropOp37
 70
     1
102
RTVSPost2010Prop38
140
0.0
102
RTVSPost2010PropOp38
 70
     1
102
RTVSPost2010Prop39
140
1.0
102
RTVSPost2010PropOp39
 70
     1
102
RTVSPost2010Prop40
 90
        0
102
RTVSPost2010PropOp40
 70
     1
102
RTVSPost2010Prop41ColorIndex
 90
       18
102
RTVSPost2010Prop41ColorRGB
 90
        0
102
RTVSPost2010PropOp41
 70
     1
102
RTVSPost2010Prop42
 90
       50
102
RTVSPost2010PropOp42
 70
     1
102
RTVSPost2010Prop43
 90
        3
102
RTVSPost2010PropOp43
 70
     1
102
RTVSPost2010Prop44ColorIndex
 90
        5
102
RTVSPost2010Prop44ColorRGB
 90
      255
102
RTVSPost2010PropOp44
 70
     1
102
RTVSPost2010Prop45
280
     0
102
RTVSPost2010PropOp45
 70
     1
102
RTVSPost2010Prop46
 90
       50
102
RTVSPost2010PropOp46
 70
     1
102
RTVSPost2010Prop47
 90
       50
102
RTVSPost2010PropOp47
 70
     1
102
RTVSPost2010Prop48
 90
       50
102
RTVSPost2010PropOp48
 70
     1
102
RTVSPost2010Prop49
280
     0
102
RTVSPost2010PropOp49
 70
     1
102
RTVSPost2010Prop50
 90
       50
102
RTVSPost2010PropOp50
 70
     1
102
RTVSPost2010Prop51ColorIndex
 90
      256
102
RTVSPost2010Prop51ColorRGB
 90
-16777216
102
RTVSPost2010PropOp51
 70
     0
102
RTVSPost2010Prop52
140
1.0
102
RTVSPost2010PropOp52
 70
     0
102
RTVSPost2010Prop53
 90
        2
102
RTVSPost2010PropOp53
 70
     1
102
RTVSPost2010Prop54
  1
strokes_ogs.tif
102
RTVSPost2010PropOp54
 70
     1
102
RTVSPost2010Prop55
280
     0
102
RTVSPost2010PropOp55
 70
     1
102
RTVSPost2010Prop56
140
1.0
102
RTVSPost2010PropOp56
 70
     1
102
RTVSPost2010Prop57
140
1.0
102
RTVSPost2010PropOp57
 70
     1
  0
XRECORD
  5
1A8
102
{ACAD_REACTORS
330
1A7
102
}
330
1A7
100
AcDbXrecord
280
     1
102
RTVSPost2010Prop28
280
     0
102
RTVSPost2010PropOp28
 70
     1
102
RTVSPost2010Prop29
280
     1
102
RTVSPost2010PropOp29
 70
     1
102
RTVSPost2010Prop30
280
     1
102
RTVSPost2010PropOp30
 70
     1
102
RTVSPost2010Prop31
280
     0
102
RTVSPost2010PropOp31
 70
     1
102
RTVSPost2010Prop32
280
     0
102
RTVSPost2010PropOp32
 70
     1
102
RTVSPost2010Prop33
280
     0
102
RTVSPost2010PropOp33
 70
     1
102
RTVSPost2010Prop34
280
     0
102
RTVSPost2010PropOp34
 70
     1
102
RTVSPost2010Prop35
280
     0
102
RTVSPost2010PropOp35
 70
     1
102
RTVSPost2010Prop36
280
     0
102
RTVSPost2010PropOp36
 70
     1
102
RTVSPost2010Prop37
 90
       50
102
RTVSPost2010PropOp37
 70
     1
102
RTVSPost2010Prop38
140
0.0
102
RTVSPost2010PropOp38
 70
     1
102
RTVSPost2010Prop39
140
1.0
102
RTVSPost2010PropOp39
 70
     1
102
RTVSPost2010Prop40
 90
        0
102
RTVSPost2010PropOp40
 70
     1
102
RTVSPost2010Prop41ColorIndex
 90
       18
102
RTVSPost2010Prop41ColorRGB
 90
        0
102
RTVSPost2010PropOp41
 70
     1
102
RTVSPost2010Prop42
 90
       50
102
RTVSPost2010PropOp42
 70
     1
102
RTVSPost2010Prop43
 90
        3
102
RTVSPost2010PropOp43
 70
     1
102
RTVSPost2010Prop44ColorIndex
 90
        5
102
RTVSPost2010Prop44ColorRGB
 90
      255
102
RTVSPost2010PropOp44
 70
     1
102
RTVSPost2010Prop45
280
     0
102
RTVSPost2010PropOp45
 70
     1
102
RTVSPost2010Prop46
 90
       50
102
RTVSPost2010PropOp46
 70
     1
102
RTVSPost2010Prop47
 90
       50
102
RTVSPost2010PropOp47
 70
     1
102
RTVSPost2010Prop48
 90
       50
102
RTVSPost2010PropOp48
 70
     1
102
RTVSPost2010Prop49
280
     0
102
RTVSPost2010PropOp49
 70
     1
102
RTVSPost2010Prop50
 90
       50
102
RTVSPost2010PropOp50
 70
     1
102
RTVSPost2010Prop51ColorIndex
 90
      256
102
RTVSPost2010Prop51ColorRGB
 90
-16777216
102
RTVSPost2010PropOp51
 70
     0
102
RTVSPost2010Prop52
140
1.0
102
RTVSPost2010PropOp52
 70
     0
102
RTVSPost2010Prop53
 90
        2
102
RTVSPost2010PropOp53
 70
     1
102
RTVSPost2010Prop54
  1
strokes_ogs.tif
102
RTVSPost2010PropOp54
 70
     1
102
RTVSPost2010Prop55
280
     0
102
RTVSPost2010PropOp55
 70
     1
102
RTVSPost2010Prop56
140
1.0
102
RTVSPost2010PropOp56
 70
     1
102
RTVSPost2010Prop57
140
1.0
102
RTVSPost2010PropOp57
 70
     1
  0
XRECORD
  5
19C
102
{ACAD_REACTORS
330
19B
102
}
330
19B
100
AcDbXrecord
280
     1
102
RTVSPost2010Prop28
280
     0
102
RTVSPost2010PropOp28
 70
     1
102
RTVSPost2010Prop29
280
     1
102
RTVSPost2010PropOp29
 70
     1
102
RTVSPost2010Prop30
280
     1
102
RTVSPost2010PropOp30
 70
     1
102
RTVSPost2010Prop31
280
     0
102
RTVSPost2010PropOp31
 70
     1
102
RTVSPost2010Prop32
280
     0
102
RTVSPost2010PropOp32
 70
     1
102
RTVSPost2010Prop33
280
     0
102
RTVSPost2010PropOp33
 70
     1
102
RTVSPost2010Prop34
280
     0
102
RTVSPost2010PropOp34
 70
     1
102
RTVSPost2010Prop35
280
     0
102
RTVSPost2010PropOp35
 70
     1
102
RTVSPost2010Prop36
280
     0
102
RTVSPost2010PropOp36
 70
     1
102
RTVSPost2010Prop37
 90
       50
102
RTVSPost2010PropOp37
 70
     1
102
RTVSPost2010Prop38
140
0.0
102
RTVSPost2010PropOp38
 70
     1
102
RTVSPost2010Prop39
140
1.0
102
RTVSPost2010PropOp39
 70
     1
102
RTVSPost2010Prop40
 90
        0
102
RTVSPost2010PropOp40
 70
     1
102
RTVSPost2010Prop41ColorIndex
 90
       18
102
RTVSPost2010Prop41ColorRGB
 90
        0
102
RTVSPost2010PropOp41
 70
     1
102
RTVSPost2010Prop42
 90
       50
102
RTVSPost2010PropOp42
 70
     1
102
RTVSPost2010Prop43
 90
        3
102
RTVSPost2010PropOp43
 70
     1
102
RTVSPost2010Prop44ColorIndex
 90
        5
102
RTVSPost2010Prop44ColorRGB
 90
      255
102
RTVSPost2010PropOp44
 70
     1
102
RTVSPost2010Prop45
280
     0
102
RTVSPost2010PropOp45
 70
     1
102
RTVSPost2010Prop46
 90
       50
102
RTVSPost2010PropOp46
 70
     1
102
RTVSPost2010Prop47
 90
       50
102
RTVSPost2010PropOp47
 70
     1
102
RTVSPost2010Prop48
 90
       50
102
RTVSPost2010PropOp48
 70
     1
102
RTVSPost2010Prop49
280
     0
102
RTVSPost2010PropOp49
 70
     1
102
RTVSPost2010Prop50
 90
       50
102
RTVSPost2010PropOp50
 70
     1
102
RTVSPost2010Prop51ColorIndex
 90
      256
102
RTVSPost2010Prop51ColorRGB
 90
-16777216
102
RTVSPost2010PropOp51
 70
     0
102
RTVSPost2010Prop52
140
1.0
102
RTVSPost2010PropOp52
 70
     0
102
RTVSPost2010Prop53
 90
        2
102
RTVSPost2010PropOp53
 70
     1
102
RTVSPost2010Prop54
  1
strokes_ogs.tif
102
RTVSPost2010PropOp54
 70
     1
102
RTVSPost2010Prop55
280
     0
102
RTVSPost2010PropOp55
 70
     1
102
RTVSPost2010Prop56
140
1.0
102
RTVSPost2010PropOp56
 70
     1
102
RTVSPost2010Prop57
140
1.0
102
RTVSPost2010PropOp57
 70
     1
  0
XRECORD
  5
1B4
102
{ACAD_REACTORS
330
1B3
102
}
330
1B3
100
AcDbXrecord
280
     1
102
RTVSPost2010Prop28
280
     0
102
RTVSPost2010PropOp28
 70
     1
102
RTVSPost2010Prop29
280
     1
102
RTVSPost2010PropOp29
 70
     1
102
RTVSPost2010Prop30
280
     1
102
RTVSPost2010PropOp30
 70
     1
102
RTVSPost2010Prop31
280
     0
102
RTVSPost2010PropOp31
 70
     1
102
RTVSPost2010Prop32
280
     0
102
RTVSPost2010PropOp32
 70
     1
102
RTVSPost2010Prop33
280
     0
102
RTVSPost2010PropOp33
 70
     1
102
RTVSPost2010Prop34
280
     0
102
RTVSPost2010PropOp34
 70
     1
102
RTVSPost2010Prop35
280
     0
102
RTVSPost2010PropOp35
 70
     1
102
RTVSPost2010Prop36
280
     0
102
RTVSPost2010PropOp36
 70
     1
102
RTVSPost2010Prop37
 90
       50
102
RTVSPost2010PropOp37
 70
     1
102
RTVSPost2010Prop38
140
0.0
102
RTVSPost2010PropOp38
 70
     1
102
RTVSPost2010Prop39
140
1.0
102
RTVSPost2010PropOp39
 70
     1
102
RTVSPost2010Prop40
 90
        0
102
RTVSPost2010PropOp40
 70
     1
102
RTVSPost2010Prop41ColorIndex
 90
       18
102
RTVSPost2010Prop41ColorRGB
 90
        0
102
RTVSPost2010PropOp41
 70
     1
102
RTVSPost2010Prop42
 90
       50
102
RTVSPost2010PropOp42
 70
     1
102
RTVSPost2010Prop43
 90
        3
102
RTVSPost2010PropOp43
 70
     1
102
RTVSPost2010Prop44ColorIndex
 90
        5
102
RTVSPost2010Prop44ColorRGB
 90
      255
102
RTVSPost2010PropOp44
 70
     1
102
RTVSPost2010Prop45
280
     0
102
RTVSPost2010PropOp45
 70
     1
102
RTVSPost2010Prop46
 90
       50
102
RTVSPost2010PropOp46
 70
     1
102
RTVSPost2010Prop47
 90
       50
102
RTVSPost2010PropOp47
 70
     1
102
RTVSPost2010Prop48
 90
       50
102
RTVSPost2010PropOp48
 70
     1
102
RTVSPost2010Prop49
280
     0
102
RTVSPost2010PropOp49
 70
     1
102
RTVSPost2010Prop50
 90
       50
102
RTVSPost2010PropOp50
 70
     1
102
RTVSPost2010Prop51ColorIndex
 90
      256
102
RTVSPost2010Prop51ColorRGB
 90
-16777216
102
RTVSPost2010PropOp51
 70
     0
102
RTVSPost2010Prop52
140
1.0
102
RTVSPost2010PropOp52
 70
     0
102
RTVSPost2010Prop53
 90
        2
102
RTVSPost2010PropOp53
 70
     1
102
RTVSPost2010Prop54
  1
strokes_ogs.tif
102
RTVSPost2010PropOp54
 70
     1
102
RTVSPost2010Prop55
280
     0
102
RTVSPost2010PropOp55
 70
     1
102
RTVSPost2010Prop56
140
1.0
102
RTVSPost2010PropOp56
 70
     1
102
RTVSPost2010Prop57
140
1.0
102
RTVSPost2010PropOp57
 70
     1
  0
ENDSEC
  0
EOF
