  0
SECTION
  2
HEADER
  9
$ACADVER
  1
AC1024
  9
$ACADMAINTVER
 70
   205
  9
$DWGCODEPAGE
  3
ANSI_1251
  9
$INSBASE
 10
0.0
 20
0.0
 30
0.0
  9
$EXTMIN
 10
1.000000000000000E+20
 20
1.000000000000000E+20
 30
1.000000000000000E+20
  9
$EXTMAX
 10
-1.000000000000000E+20
 20
-1.000000000000000E+20
 30
-1.000000000000000E+20
  9
$LIMMIN
 10
0.0
 20
0.0
  9
$LIMMAX
 10
12.0
 20
9.0
  9
$ORTHOMODE
 70
     0
  9
$REGENMODE
 70
     1
  9
$FILLMODE
 70
     1
  9
$QTEXTMODE
 70
     0
  9
$MIRRTEXT
 70
     1
  9
$LTSCALE
 40
1.0
  9
$ATTMODE
 70
     1
  9
$TEXTSIZE
 40
0.2
  9
$TRACEWID
 40
0.05
  9
$TEXTSTYLE
  7
Standard
  9
$CLAYER
  8
OracDecor_cornice_mouldings
  9
$CELTYPE
  6
ByLayer
  9
$CECOLOR
 62
   256
  9
$CELTSCALE
 40
1.0
  9
$DISPSILH
 70
     0
  9
$DIMSCALE
 40
1.0
  9
$DIMASZ
 40
0.18
  9
$DIMEXO
 40
0.0625
  9
$DIMDLI
 40
0.38
  9
$DIMRND
 40
0.0
  9
$DIMDLE
 40
0.0
  9
$DIMEXE
 40
0.18
  9
$DIMTP
 40
0.0
  9
$DIMTM
 40
0.0
  9
$DIMTXT
 40
0.18
  9
$DIMCEN
 40
0.09
  9
$DIMTSZ
 40
0.0
  9
$DIMTOL
 70
     0
  9
$DIMLIM
 70
     0
  9
$DIMTIH
 70
     1
  9
$DIMTOH
 70
     1
  9
$DIMSE1
 70
     0
  9
$DIMSE2
 70
     0
  9
$DIMTAD
 70
     0
  9
$DIMZIN
 70
     0
  9
$DIMBLK
  1

  9
$DIMASO
 70
     1
  9
$DIMSHO
 70
     1
  9
$DIMPOST
  1

  9
$DIMAPOST
  1

  9
$DIMALT
 70
     0
  9
$DIMALTD
 70
     2
  9
$DIMALTF
 40
25.4
  9
$DIMLFAC
 40
1.0
  9
$DIMTOFL
 70
     0
  9
$DIMTVP
 40
0.0
  9
$DIMTIX
 70
     0
  9
$DIMSOXD
 70
     0
  9
$DIMSAH
 70
     0
  9
$DIMBLK1
  1

  9
$DIMBLK2
  1

  9
$DIMSTYLE
  2
Standard
  9
$DIMCLRD
 70
     0
  9
$DIMCLRE
 70
     0
  9
$DIMCLRT
 70
     0
  9
$DIMTFAC
 40
1.0
  9
$DIMGAP
 40
0.09
  9
$DIMJUST
 70
     0
  9
$DIMSD1
 70
     0
  9
$DIMSD2
 70
     0
  9
$DIMTOLJ
 70
     1
  9
$DIMTZIN
 70
     0
  9
$DIMALTZ
 70
     0
  9
$DIMALTTZ
 70
     0
  9
$DIMUPT
 70
     0
  9
$DIMDEC
 70
     4
  9
$DIMTDEC
 70
     4
  9
$DIMALTU
 70
     2
  9
$DIMALTTD
 70
     2
  9
$DIMTXSTY
  7
Standard
  9
$DIMAUNIT
 70
     0
  9
$DIMADEC
 70
     0
  9
$DIMALTRND
 40
0.0
  9
$DIMAZIN
 70
     0
  9
$DIMDSEP
 70
    46
  9
$DIMATFIT
 70
     3
  9
$DIMFRAC
 70
     0
  9
$DIMLDRBLK
  1

  9
$DIMLUNIT
 70
     2
  9
$DIMLWD
 70
    -2
  9
$DIMLWE
 70
    -2
  9
$DIMTMOVE
 70
     0
  9
$DIMFXL
 40
1.0
  9
$DIMFXLON
 70
     0
  9
$DIMJOGANG
 40
0.7853981633974483
  9
$DIMTFILL
 70
     0
  9
$DIMTFILLCLR
 70
     0
  9
$DIMARCSYM
 70
     0
  9
$DIMLTYPE
  6

  9
$DIMLTEX1
  6

  9
$DIMLTEX2
  6

  9
$DIMTXTDIRECTION
 70
     0
  9
$LUNITS
 70
     2
  9
$LUPREC
 70
     4
  9
$SKETCHINC
 40
0.1
  9
$FILLETRAD
 40
0.5
  9
$AUNITS
 70
     0
  9
$AUPREC
 70
     0
  9
$MENU
  1
.
  9
$ELEVATION
 40
0.0
  9
$PELEVATION
 40
0.0
  9
$THICKNESS
 40
0.0
  9
$LIMCHECK
 70
     0
  9
$CHAMFERA
 40
0.5
  9
$CHAMFERB
 40
0.5
  9
$CHAMFERC
 40
1.0
  9
$CHAMFERD
 40
0.0
  9
$SKPOLY
 70
     0
  9
$TDCREATE
 40
2451380.930432396
  9
$TDUCREATE
 40
2451380.805432396
  9
$TDUPDATE
 40
2451380.966180555
  9
$TDUUPDATE
 40
2451380.841180556
  9
$TDINDWG
 40
0.0075637847
  9
$TDUSRTIMER
 40
0.0075547454
  9
$USRTIMER
 70
     1
  9
$ANGBASE
 50
0.0
  9
$ANGDIR
 70
     0
  9
$PDMODE
 70
     0
  9
$PDSIZE
 40
0.0
  9
$PLINEWID
 40
0.0
  9
$SPLFRAME
 70
     0
  9
$SPLINETYPE
 70
     6
  9
$SPLINESEGS
 70
     8
  9
$HANDSEED
  5
1ED
  9
$SURFTAB1
 70
     6
  9
$SURFTAB2
 70
     6
  9
$SURFTYPE
 70
     6
  9
$SURFU
 70
     6
  9
$SURFV
 70
     6
  9
$UCSBASE
  2

  9
$UCSNAME
  2

  9
$UCSORG
 10
0.0
 20
0.0
 30
0.0
  9
$UCSXDIR
 10
1.0
 20
0.0
 30
0.0
  9
$UCSYDIR
 10
0.0
 20
1.0
 30
0.0
  9
$UCSORTHOREF
  2

  9
$UCSORTHOVIEW
 70
     0
  9
$UCSORGTOP
 10
0.0
 20
0.0
 30
0.0
  9
$UCSORGBOTTOM
 10
0.0
 20
0.0
 30
0.0
  9
$UCSORGLEFT
 10
0.0
 20
0.0
 30
0.0
  9
$UCSORGRIGHT
 10
0.0
 20
0.0
 30
0.0
  9
$UCSORGFRONT
 10
0.0
 20
0.0
 30
0.0
  9
$UCSORGBACK
 10
0.0
 20
0.0
 30
0.0
  9
$PUCSBASE
  2

  9
$PUCSNAME
  2

  9
$PUCSORG
 10
0.0
 20
0.0
 30
0.0
  9
$PUCSXDIR
 10
1.0
 20
0.0
 30
0.0
  9
$PUCSYDIR
 10
0.0
 20
1.0
 30
0.0
  9
$PUCSORTHOREF
  2

  9
$PUCSORTHOVIEW
 70
     0
  9
$PUCSORGTOP
 10
0.0
 20
0.0
 30
0.0
  9
$PUCSORGBOTTOM
 10
0.0
 20
0.0
 30
0.0
  9
$PUCSORGLEFT
 10
0.0
 20
0.0
 30
0.0
  9
$PUCSORGRIGHT
 10
0.0
 20
0.0
 30
0.0
  9
$PUCSORGFRONT
 10
0.0
 20
0.0
 30
0.0
  9
$PUCSORGBACK
 10
0.0
 20
0.0
 30
0.0
  9
$USERI1
 70
     0
  9
$USERI2
 70
     0
  9
$USERI3
 70
     0
  9
$USERI4
 70
     0
  9
$USERI5
 70
     0
  9
$USERR1
 40
0.0
  9
$USERR2
 40
0.0
  9
$USERR3
 40
0.0
  9
$USERR4
 40
0.0
  9
$USERR5
 40
0.0
  9
$WORLDVIEW
 70
     1
  9
$SHADEDGE
 70
     3
  9
$SHADEDIF
 70
    70
  9
$TILEMODE
 70
     1
  9
$MAXACTVP
 70
    64
  9
$PINSBASE
 10
0.0
 20
0.0
 30
0.0
  9
$PLIMCHECK
 70
     0
  9
$PEXTMIN
 10
1.000000000000000E+20
 20
1.000000000000000E+20
 30
1.000000000000000E+20
  9
$PEXTMAX
 10
-1.000000000000000E+20
 20
-1.000000000000000E+20
 30
-1.000000000000000E+20
  9
$PLIMMIN
 10
0.0
 20
0.0
  9
$PLIMMAX
 10
12.0
 20
9.0
  9
$UNITMODE
 70
     0
  9
$VISRETAIN
 70
     1
  9
$PLINEGEN
 70
     0
  9
$PSLTSCALE
 70
     1
  9
$TREEDEPTH
 70
  3020
  9
$CMLSTYLE
  2
Standard
  9
$CMLJUST
 70
     0
  9
$CMLSCALE
 40
1.0
  9
$PROXYGRAPHICS
 70
     1
  9
$MEASUREMENT
 70
     1
  9
$CELWEIGHT
370
    -1
  9
$ENDCAPS
280
     0
  9
$JOINSTYLE
280
     0
  9
$LWDISPLAY
290
     0
  9
$INSUNITS
 70
     4
  9
$HYPERLINKBASE
  1

  9
$STYLESHEET
  1

  9
$XEDIT
290
     1
  9
$CEPSNTYPE
380
     0
  9
$PSTYLEMODE
290
     1
  9
$FINGERPRINTGUID
  2
{12F50282-3ED8-11D3-A8B7-0060B0F84BC6}
  9
$VERSIONGUID
  2
{12F50293-3ED8-11D3-A8B7-0060B0F84BC6}
  9
$EXTNAMES
290
     1
  9
$PSVPSCALE
 40
0.0
  9
$OLESTARTUP
290
     0
  9
$SORTENTS
280
   127
  9
$INDEXCTL
280
     0
  9
$HIDETEXT
280
     0
  9
$XCLIPFRAME
280
     2
  9
$HALOGAP
280
     0
  9
$OBSCOLOR
 70
   257
  9
$OBSLTYPE
280
     0
  9
$INTERSECTIONDISPLAY
280
     0
  9
$INTERSECTIONCOLOR
 70
   257
  9
$DIMASSOC
280
     1
  9
$PROJECTNAME
  1

  9
$CAMERADISPLAY
290
     0
  9
$LENSLENGTH
 40
50.0
  9
$CAMERAHEIGHT
 40
0.0
  9
$STEPSPERSEC
 40
2.0
  9
$STEPSIZE
 40
6.0
  9
$3DDWFPREC
 40
2.0
  9
$PSOLWIDTH
 40
0.25
  9
$PSOLHEIGHT
 40
4.0
  9
$LOFTANG1
 40
1.570796326794896
  9
$LOFTANG2
 40
1.570796326794896
  9
$LOFTMAG1
 40
0.0
  9
$LOFTMAG2
 40
0.0
  9
$LOFTPARAM
 70
     7
  9
$LOFTNORMALS
280
     1
  9
$LATITUDE
 40
37.795
  9
$LONGITUDE
 40
-122.394
  9
$NORTHDIRECTION
 40
0.0
  9
$TIMEZONE
 70
 -8000
  9
$LIGHTGLYPHDISPLAY
280
     1
  9
$TILEMODELIGHTSYNCH
280
     1
  9
$CMATERIAL
347
AB
  9
$SOLIDHIST
280
     0
  9
$SHOWHIST
280
     1
  9
$DWFFRAME
280
     2
  9
$DGNFRAME
280
     0
  9
$REALWORLDSCALE
290
     1
  9
$INTERFERECOLOR
 62
     1
  9
$INTERFEREOBJVS
345
CD
  9
$INTERFEREVPVS
346
CA
  9
$CSHADOW
280
     0
  9
$SHADOWPLANELOCATION
 40
0.0
  0
ENDSEC
  0
SECTION
  2
CLASSES
  0
CLASS
  1
ACDBDICTIONARYWDFLT
  2
AcDbDictionaryWithDefault
  3
ObjectDBX Classes
 90
        0
 91
        1
280
     0
281
     0
  0
CLASS
  1
ACDBPLACEHOLDER
  2
AcDbPlaceHolder
  3
ObjectDBX Classes
 90
        0
 91
        2
280
     0
281
     0
  0
CLASS
  1
LAYOUT
  2
AcDbLayout
  3
ObjectDBX Classes
 90
        0
 91
        3
280
     0
281
     0
  0
CLASS
  1
MATERIAL
  2
AcDbMaterial
  3
ObjectDBX Classes
 90
     1153
 91
        3
280
     0
281
     0
  0
CLASS
  1
VISUALSTYLE
  2
AcDbVisualStyle
  3
ObjectDBX Classes
 90
     4095
 91
       24
280
     0
281
     0
  0
CLASS
  1
TABLESTYLE
  2
AcDbTableStyle
  3
ObjectDBX Classes
 90
     4095
 91
        1
280
     0
281
     0
  0
CLASS
  1
SCALE
  2
AcDbScale
  3
ObjectDBX Classes
 90
     1153
 91
       17
280
     0
281
     0
  0
CLASS
  1
MLEADERSTYLE
  2
AcDbMLeaderStyle
  3
ACDB_MLEADERSTYLE_CLASS
 90
     4095
 91
        1
280
     0
281
     0
  0
CLASS
  1
ACDBSECTIONVIEWSTYLE
  2
AcDbSectionViewStyle
  3
ObjectDBX Classes
 90
     1025
 91
        1
280
     0
281
     0
  0
CLASS
  1
ACDBDETAILVIEWSTYLE
  2
AcDbDetailViewStyle
  3
ObjectDBX Classes
 90
     1025
 91
        1
280
     0
281
     0
  0
CLASS
  1
MESH
  2
AcDbSubDMesh
  3
ObjectDBX Classes
 90
        0
 91
        1
280
     0
281
     1
  0
CLASS
  1
DICTIONARYVAR
  2
AcDbDictionaryVar
  3
ObjectDBX Classes
 90
        0
 91
        9
280
     0
281
     0
  0
CLASS
  1
CELLSTYLEMAP
  2
AcDbCellStyleMap
  3
ObjectDBX Classes
 90
     1152
 91
        1
280
     0
281
     0
  0
ENDSEC
  0
SECTION
  2
TABLES
  0
TABLE
  2
VPORT
  5
8
330
0
100
AcDbSymbolTable
 70
     1
  0
VPORT
  5
A8
330
8
100
AcDbSymbolTableRecord
100
AcDbViewportTableRecord
  2
*Active
 70
     0
 10
0.0
 20
0.0
 11
1.0
 21
1.0
 12
-0.0007336923736148
 22
-42.86649322509766
 13
0.0
 23
0.0
 14
0.5
 24
0.5
 15
0.5
 25
0.5
 16
-1.0
 26
-1.0
 36
1.0
 17
0.0
 27
0.0
 37
0.0
 40
1194.99928471637
 41
1.579862126965694
 42
50.0
 43
0.0
 44
0.0
 50
0.0
 51
0.0
 71
     0
 72
   100
 73
     1
 74
     3
 75
     0
 76
     0
 77
     0
 78
     0
281
     0
 65
     1
110
0.0
120
0.0
130
0.0
111
1.0
121
0.0
131
0.0
112
0.0
122
1.0
132
0.0
 79
     0
146
0.0
348
C9
 60
     3
 61
     5
292
     1
282
     1
141
0.0
142
0.0
 63
   250
421
  3355443
  0
ENDTAB
  0
TABLE
  2
LTYPE
  5
5
330
0
100
AcDbSymbolTable
 70
     1
  0
LTYPE
  5
14
330
5
100
AcDbSymbolTableRecord
100
AcDbLinetypeTableRecord
  2
ByBlock
 70
     0
  3

 72
    65
 73
     0
 40
0.0
  0
LTYPE
  5
15
330
5
100
AcDbSymbolTableRecord
100
AcDbLinetypeTableRecord
  2
ByLayer
 70
     0
  3

 72
    65
 73
     0
 40
0.0
  0
LTYPE
  5
16
330
5
100
AcDbSymbolTableRecord
100
AcDbLinetypeTableRecord
  2
Continuous
 70
     0
  3
Solid line
 72
    65
 73
     0
 40
0.0
  0
ENDTAB
  0
TABLE
  2
LAYER
  5
2
330
0
100
AcDbSymbolTable
 70
     3
  0
LAYER
  5
10
330
2
100
AcDbSymbolTableRecord
100
AcDbLayerTableRecord
  2
0
 70
     0
 62
     7
  6
Continuous
370
    -3
390
F
347
BB
  0
LAYER
  5
2B
330
2
100
AcDbSymbolTableRecord
100
AcDbLayerTableRecord
  2
ASHADE
 70
     4
 62
     7
  6
Continuous
370
    -3
390
2D
347
BB
  0
LAYER
  5
F8
330
2
100
AcDbSymbolTableRecord
100
AcDbLayerTableRecord
  2
OracDecor_cornice_mouldings
 70
     0
 62
   194
420
  5577905
  6
Continuous
370
    -3
390
F
347
BB
  0
ENDTAB
  0
TABLE
  2
STYLE
  5
3
330
0
100
AcDbSymbolTable
 70
     2
  0
STYLE
  5
11
330
3
100
AcDbSymbolTableRecord
100
AcDbTextStyleTableRecord
  2
Standard
 70
     0
 40
0.0
 41
1.0
 50
0.0
 71
     0
 42
0.2
  3
txt
  4

  0
STYLE
  5
2C
330
3
100
AcDbSymbolTableRecord
100
AcDbTextStyleTableRecord
  2
ASHADE
 70
     0
 40
0.2
 41
1.0
 50
0.0
 71
     0
 42
0.2
  3
simplex
  4

  0
ENDTAB
  0
TABLE
  2
VIEW
  5
6
330
0
100
AcDbSymbolTable
 70
     0
  0
ENDTAB
  0
TABLE
  2
UCS
  5
7
330
0
100
AcDbSymbolTable
 70
     0
  0
ENDTAB
  0
TABLE
  2
APPID
  5
9
330
0
100
AcDbSymbolTable
 70
     6
  0
APPID
  5
12
330
9
100
AcDbSymbolTableRecord
100
AcDbRegAppTableRecord
  2
ACAD
 70
     0
  0
APPID
  5
8F
330
9
100
AcDbSymbolTableRecord
100
AcDbRegAppTableRecord
  2
AVE_RENDER
 70
     0
  0
APPID
  5
90
330
9
100
AcDbSymbolTableRecord
100
AcDbRegAppTableRecord
  2
AVE_ENTITY_MATERIAL
 70
     0
  0
APPID
  5
9C
330
9
100
AcDbSymbolTableRecord
100
AcDbRegAppTableRecord
  2
AVE_FINISH
 70
     0
  0
APPID
  5
9D
330
9
100
AcDbSymbolTableRecord
100
AcDbRegAppTableRecord
  2
AVE_MATERIAL
 70
     0
  0
APPID
  5
9E
330
9
100
AcDbSymbolTableRecord
100
AcDbRegAppTableRecord
  2
AVE_GLOBAL
 70
     0
  0
ENDTAB
  0
TABLE
  2
DIMSTYLE
  5
A
330
0
100
AcDbSymbolTable
 70
     1
100
AcDbDimStyleTable
 71
     0
  0
DIMSTYLE
105
27
330
A
100
AcDbSymbolTableRecord
100
AcDbDimStyleTableRecord
  2
Standard
 70
     0
340
11
  0
ENDTAB
  0
TABLE
  2
BLOCK_RECORD
  5
1
330
0
100
AcDbSymbolTable
 70
     6
  0
BLOCK_RECORD
  5
1F
330
1
100
AcDbSymbolTableRecord
100
AcDbBlockTableRecord
  2
*Model_Space
340
22
 70
     0
280
     1
281
     0
  0
BLOCK_RECORD
  5
1B
330
1
100
AcDbSymbolTableRecord
100
AcDbBlockTableRecord
  2
*Paper_Space
340
1E
 70
     0
280
     1
281
     0
  0
BLOCK_RECORD
  5
23
330
1
100
AcDbSymbolTableRecord
100
AcDbBlockTableRecord
  2
*Paper_Space0
340
26
 70
     0
280
     1
281
     0
  0
BLOCK_RECORD
  5
2E
330
1
100
AcDbSymbolTableRecord
100
AcDbBlockTableRecord
  2
direct
340
0
 70
     0
280
     1
281
     0
  0
BLOCK_RECORD
  5
42
330
1
100
AcDbSymbolTableRecord
100
AcDbBlockTableRecord
  2
overhead
340
0
 70
     0
280
     1
281
     0
  0
BLOCK_RECORD
  5
5F
330
1
100
AcDbSymbolTableRecord
100
AcDbBlockTableRecord
  2
sh_spot
340
0
 70
     0
280
     1
281
     0
  0
BLOCK_RECORD
  5
91
330
1
100
AcDbSymbolTableRecord
100
AcDbBlockTableRecord
  2
AVE_RENDER
340
0
102
{BLKREFS
331
94
331
95
331
96
331
97
331
98
331
99
331
9A
331
9B
102
}
 70
     0
280
     1
281
     0
  0
BLOCK_RECORD
  5
9F
330
1
100
AcDbSymbolTableRecord
100
AcDbBlockTableRecord
  2
AVE_GLOBAL
340
0
102
{BLKREFS
331
A2
102
}
 70
     0
280
     1
281
     0
  0
ENDTAB
  0
ENDSEC
  0
SECTION
  2
BLOCKS
  0
BLOCK
  5
20
330
1F
100
AcDbEntity
  8
0
100
AcDbBlockBegin
  2
*Model_Space
 70
     0
 10
0.0
 20
0.0
 30
0.0
  3
*Model_Space
  1

  0
ENDBLK
  5
21
330
1F
100
AcDbEntity
  8
0
100
AcDbBlockEnd
  0
BLOCK
  5
1C
330
1B
100
AcDbEntity
 67
     1
  8
0
100
AcDbBlockBegin
  2
*Paper_Space
 70
     0
 10
0.0
 20
0.0
 30
0.0
  3
*Paper_Space
  1

  0
ENDBLK
  5
1D
330
1B
100
AcDbEntity
 67
     1
  8
0
100
AcDbBlockEnd
  0
BLOCK
  5
24
330
23
100
AcDbEntity
 67
     1
  8
0
100
AcDbBlockBegin
  2
*Paper_Space0
 70
     0
 10
0.0
 20
0.0
 30
0.0
  3
*Paper_Space0
  1

  0
ENDBLK
  5
25
330
23
100
AcDbEntity
 67
     1
  8
0
100
AcDbBlockEnd
  0
BLOCK
  5
40
330
2E
100
AcDbEntity
  8
0
100
AcDbBlockBegin
  2
direct
 70
     2
 10
0.0
 20
0.0
 30
0.0
  3
direct
  1

  0
ATTDEF
  5
2F
330
2E
100
AcDbEntity
  8
ASHADE
  6
Continuous
 62
     1
100
AcDbText
 10
0.0
 20
-0.1
 30
0.0
 40
0.2
  1

  7
ASHADE
 72
     1
 11
0.0
 21
-0.1
 31
0.0
100
AcDbAttributeDefinition
280
     0
  3
Light Name
  2
SNAME
 70
     0
280
     0
  0
ARC
  5
30
330
2E
100
AcDbEntity
  8
ASHADE
  6
Continuous
 62
     7
100
AcDbCircle
 10
0.0
 20
0.0
 30
0.0
 40
0.3
100
AcDbArc
 50
205.6792886194569
 51
334.3207113805431
  0
ARC
  5
31
330
2E
100
AcDbEntity
  8
ASHADE
  6
Continuous
 62
     7
100
AcDbCircle
 10
0.0
 20
0.0
 30
0.0
 40
0.3
100
AcDbArc
 50
25.67928861945685
 51
154.3207113805431
  0
LINE
  5
32
330
2E
100
AcDbEntity
  8
ASHADE
  6
Continuous
 62
     7
100
AcDbLine
 10
-0.21
 20
0.2142428528562855
 30
0.0
 11
-0.21
 21
0.5
 31
0.0
  0
LINE
  5
33
330
2E
100
AcDbEntity
  8
ASHADE
  6
Continuous
 62
     7
100
AcDbLine
 10
-0.11
 20
0.2791057147390572
 30
0.0
 11
-0.11
 21
0.5
 31
0.0
  0
LINE
  5
34
330
2E
100
AcDbEntity
  8
ASHADE
  6
Continuous
 62
     7
100
AcDbLine
 10
0.21
 20
0.2142428528562855
 30
0.0
 11
0.21
 21
0.5
 31
0.0
  0
ATTDEF
  5
35
330
2E
100
AcDbEntity
  8
ASHADE
  6
Continuous
 62
     7
100
AcDbText
 10
0.0
 20
0.25
 30
0.0
 40
0.01
  1

100
AcDbAttributeDefinition
280
     0
  3
Look-at Y
  2
LAY
 70
     1
280
     0
  0
ATTDEF
  5
36
330
2E
100
AcDbEntity
  8
ASHADE
  6
Continuous
 62
     7
100
AcDbText
 10
0.0
 20
0.22
 30
0.0
 40
0.01
  1
1
100
AcDbAttributeDefinition
280
     0
  3
Light Intensity
  2
INTENSITY
 70
     1
280
     0
  0
ATTDEF
  5
37
330
2E
100
AcDbEntity
  8
ASHADE
  6
Continuous
 62
     7
100
AcDbText
 10
0.0
 20
0.16
 30
0.0
 40
0.01
  1
-1
100
AcDbAttributeDefinition
280
     0
  3
*not used*
  2
BEAMD
 70
     1
280
     0
  0
ATTDEF
  5
38
330
2E
100
AcDbEntity
  8
ASHADE
  6
Continuous
 62
     7
100
AcDbText
 10
0.0
 20
0.175
 30
0.0
 40
0.01
  1
-1
100
AcDbAttributeDefinition
280
     0
  3
*not used*
  2
CONED
 70
     1
280
     0
  0
ATTDEF
  5
39
330
2E
100
AcDbEntity
  8
ASHADE
  6
Continuous
 62
     7
100
AcDbText
 10
0.0
 20
0.19
 30
0.0
 40
0.01
  1
0
100
AcDbAttributeDefinition
280
     0
  3
Depth Map Size
  2
CONEA
 70
     1
280
     0
  0
ATTDEF
  5
3A
330
2E
100
AcDbEntity
  8
ASHADE
  6
Continuous
 62
     7
100
AcDbText
 10
0.0
 20
0.2050000000000001
 30
0.0
 40
0.01
  1
1,1,1
100
AcDbAttributeDefinition
280
     0
  3
Light Color (RGB)
  2
COLOR
 70
     1
280
     0
  0
ATTDEF
  5
3B
330
2E
100
AcDbEntity
  8
ASHADE
  6
Continuous
 62
     7
100
AcDbText
 10
0.0
 20
0.235
 30
0.0
 40
0.01
  1

100
AcDbAttributeDefinition
280
     0
  3
Look-at Z
  2
LAZ
 70
     1
280
     0
  0
LINE
  5
3C
330
2E
100
AcDbEntity
  8
ASHADE
  6
Continuous
 62
     7
100
AcDbLine
 10
0.0
 20
0.3
 30
0.0
 11
0.0
 21
0.5
 31
0.0
  0
LINE
  5
3D
330
2E
100
AcDbEntity
  8
ASHADE
  6
Continuous
 62
     7
100
AcDbLine
 10
0.11
 20
0.2791057147390572
 30
0.0
 11
0.11
 21
0.5
 31
0.0
  0
ATTDEF
  5
3E
330
2E
100
AcDbEntity
  8
ASHADE
  6
Continuous
 62
     7
100
AcDbText
 10
0.0
 20
0.265
 30
0.0
 40
0.01
  1

100
AcDbAttributeDefinition
280
     0
  3
Look-at X
  2
LAX
 70
     1
280
     0
  0
ATTDEF
  5
3F
330
2E
100
AcDbEntity
  8
ASHADE
  6
Continuous
 62
     7
100
AcDbText
 10
0.0
 20
0.28
 30
0.0
 40
0.01
  1

100
AcDbAttributeDefinition
280
     0
  3

  2
GNAME
 70
     1
280
     0
  0
ENDBLK
  5
41
330
2E
100
AcDbEntity
  8
0
100
AcDbBlockEnd
  0
BLOCK
  5
5D
330
42
100
AcDbEntity
  8
0
100
AcDbBlockBegin
  2
overhead
 70
     2
 10
0.0
 20
0.0
 30
0.0
  3
overhead
  1

  0
ATTDEF
  5
43
330
42
100
AcDbEntity
  8
ASHADE
  6
Continuous
 62
     1
100
AcDbText
 10
0.0
 20
-0.1
 30
0.0
 40
0.2
  1

  7
ASHADE
 72
     1
 11
0.0
 21
-0.1
 31
0.0
100
AcDbAttributeDefinition
280
     0
  3
Light Name
  2
SNAME
 70
     0
280
     0
  0
ARC
  5
44
330
42
100
AcDbEntity
  8
ASHADE
  6
Continuous
 62
     7
100
AcDbCircle
 10
0.0
 20
0.0
 30
0.0
 40
0.3
100
AcDbArc
 50
205.6792886194569
 51
334.3207113805431
  0
LINE
  5
45
330
42
100
AcDbEntity
  8
ASHADE
  6
Continuous
 62
     7
100
AcDbLine
 10
-0.2041413561583015
 20
-0.2198324514393848
 30
0.0
 11
-0.2721884748777353
 21
-0.2931099352525131
 31
0.0
  0
LINE
  5
46
330
42
100
AcDbEntity
  8
ASHADE
  6
Continuous
 62
     7
100
AcDbLine
 10
-0.1096591641591904
 20
-0.2792398032442862
 30
0.0
 11
-0.1279356915190555
 21
-0.3257797704516673
 31
0.0
  0
LINE
  5
47
330
42
100
AcDbEntity
  8
ASHADE
  6
Continuous
 62
     7
100
AcDbLine
 10
0.0
 20
-0.2999999999999999
 30
0.0
 11
0.0
 21
-0.4
 31
0.0
  0
LINE
  5
48
330
42
100
AcDbEntity
  8
ASHADE
  6
Continuous
 62
     7
100
AcDbLine
 10
0.1096591641591904
 20
-0.2792398032442862
 30
0.0
 11
0.1279356915190555
 21
-0.3257797704516673
 31
0.0
  0
LINE
  5
49
330
42
100
AcDbEntity
  8
ASHADE
  6
Continuous
 62
     7
100
AcDbLine
 10
0.2041413561583015
 20
-0.2198324514393848
 30
0.0
 11
0.2721884748777353
 21
-0.2931099352525131
 31
0.0
  0
ARC
  5
4A
330
42
100
AcDbEntity
  8
ASHADE
  6
Continuous
 62
     7
100
AcDbCircle
 10
0.0
 20
0.0
 30
0.0
 40
0.3
100
AcDbArc
 50
25.67928861945685
 51
154.3207113805431
  0
LINE
  5
4B
330
42
100
AcDbEntity
  8
ASHADE
  6
Continuous
 62
     7
100
AcDbLine
 10
-0.2703701166919155
 20
0.13
 30
0.0
 11
-0.3154318028072347
 21
0.1516666666666666
 31
0.0
  0
LINE
  5
4C
330
42
100
AcDbEntity
  8
ASHADE
  6
Continuous
 62
     7
100
AcDbLine
 10
-0.2703701166919155
 20
-0.13
 30
0.0
 11
-0.3154318028072347
 21
-0.1516666666666666
 31
0.0
  0
LINE
  5
4D
330
42
100
AcDbEntity
  8
ASHADE
  6
Continuous
 62
     7
100
AcDbLine
 10
-0.2041413561583015
 20
0.2198324514393849
 30
0.0
 11
-0.2721884748777353
 21
0.2931099352525131
 31
0.0
  0
LINE
  5
4E
330
42
100
AcDbEntity
  8
ASHADE
  6
Continuous
 62
     7
100
AcDbLine
 10
-0.1096591641591904
 20
0.2792398032442862
 30
0.0
 11
-0.1279356915190555
 21
0.3257797704516674
 31
0.0
  0
LINE
  5
4F
330
42
100
AcDbEntity
  8
ASHADE
  6
Continuous
 62
     7
100
AcDbLine
 10
0.2703701166919155
 20
-0.13
 30
0.0
 11
0.3154318028072347
 21
-0.1516666666666666
 31
0.0
  0
LINE
  5
50
330
42
100
AcDbEntity
  8
ASHADE
  6
Continuous
 62
     7
100
AcDbLine
 10
0.2703701166919155
 20
0.13
 30
0.0
 11
0.3154318028072347
 21
0.1516666666666666
 31
0.0
  0
LINE
  5
51
330
42
100
AcDbEntity
  8
ASHADE
  6
Continuous
 62
     7
100
AcDbLine
 10
0.0
 20
0.3
 30
0.0
 11
0.0
 21
0.4
 31
0.0
  0
ATTDEF
  5
52
330
42
100
AcDbEntity
  8
ASHADE
  6
Continuous
 62
     7
100
AcDbText
 10
0.0
 20
0.22
 30
0.0
 40
0.01
  1
1
100
AcDbAttributeDefinition
280
     0
  3
Light Intensity
  2
INTENSITY
 70
     1
280
     0
  0
ATTDEF
  5
53
330
42
100
AcDbEntity
  8
ASHADE
  6
Continuous
 62
     7
100
AcDbText
 10
0.0
 20
0.16
 30
0.0
 40
0.01
  1
-1
100
AcDbAttributeDefinition
280
     0
  3
*not used*
  2
BEAMD
 70
     1
280
     0
  0
ATTDEF
  5
54
330
42
100
AcDbEntity
  8
ASHADE
  6
Continuous
 62
     7
100
AcDbText
 10
0.0
 20
0.175
 30
0.0
 40
0.01
  1
-1
100
AcDbAttributeDefinition
280
     0
  3
*not used*
  2
CONED
 70
     1
280
     0
  0
ATTDEF
  5
55
330
42
100
AcDbEntity
  8
ASHADE
  6
Continuous
 62
     7
100
AcDbText
 10
0.0
 20
0.19
 30
0.0
 40
0.01
  1
0
100
AcDbAttributeDefinition
280
     0
  3
Depth Map Size
  2
CONEA
 70
     1
280
     0
  0
ATTDEF
  5
56
330
42
100
AcDbEntity
  8
ASHADE
  6
Continuous
 62
     7
100
AcDbText
 10
0.0
 20
0.2050000000000001
 30
0.0
 40
0.01
  1
1,1,1
100
AcDbAttributeDefinition
280
     0
  3
Light Color (RGB)
  2
COLOR
 70
     1
280
     0
  0
ATTDEF
  5
57
330
42
100
AcDbEntity
  8
ASHADE
  6
Continuous
 62
     7
100
AcDbText
 10
0.0
 20
0.235
 30
0.0
 40
0.01
  1

100
AcDbAttributeDefinition
280
     0
  3
Look-at Z
  2
LAZ
 70
     1
280
     0
  0
ATTDEF
  5
58
330
42
100
AcDbEntity
  8
ASHADE
  6
Continuous
 62
     7
100
AcDbText
 10
0.0
 20
0.25
 30
0.0
 40
0.01
  1

100
AcDbAttributeDefinition
280
     0
  3
Look-at Y
  2
LAY
 70
     1
280
     0
  0
ATTDEF
  5
59
330
42
100
AcDbEntity
  8
ASHADE
  6
Continuous
 62
     7
100
AcDbText
 10
0.0
 20
0.265
 30
0.0
 40
0.01
  1

100
AcDbAttributeDefinition
280
     0
  3
Look-at X
  2
LAX
 70
     1
280
     0
  0
ATTDEF
  5
5A
330
42
100
AcDbEntity
  8
ASHADE
  6
Continuous
 62
     7
100
AcDbText
 10
0.0
 20
0.28
 30
0.0
 40
0.01
  1

100
AcDbAttributeDefinition
280
     0
  3

  2
GNAME
 70
     1
280
     0
  0
LINE
  5
5B
330
42
100
AcDbEntity
  8
ASHADE
  6
Continuous
 62
     7
100
AcDbLine
 10
0.1096591641591904
 20
0.2792398032442862
 30
0.0
 11
0.1279356915190555
 21
0.3257797704516674
 31
0.0
  0
LINE
  5
5C
330
42
100
AcDbEntity
  8
ASHADE
  6
Continuous
 62
     7
100
AcDbLine
 10
0.2041413561583015
 20
0.2198324514393849
 30
0.0
 11
0.2721884748777353
 21
0.2931099352525131
 31
0.0
  0
ENDBLK
  5
5E
330
42
100
AcDbEntity
  8
0
100
AcDbBlockEnd
  0
BLOCK
  5
85
330
5F
100
AcDbEntity
  8
0
100
AcDbBlockBegin
  2
sh_spot
 70
     2
 10
0.0
 20
0.0
 30
0.0
  3
sh_spot
  1

  0
LINE
  5
60
330
5F
100
AcDbEntity
  8
ASHADE
  6
Continuous
 62
     7
100
AcDbLine
 10
0.25
 20
0.26
 30
0.0
 11
-0.25
 21
0.26
 31
0.0
  0
LINE
  5
61
330
5F
100
AcDbEntity
  8
ASHADE
  6
Continuous
 62
     7
100
AcDbLine
 10
-0.25
 20
-0.3399999999999999
 30
0.0
 11
0.25
 21
-0.3399999999999999
 31
0.0
  0
ATTDEF
  5
62
330
5F
100
AcDbEntity
  8
ASHADE
  6
Continuous
 62
     1
100
AcDbText
 10
0.0
 20
-0.1
 30
0.0
 40
0.2
  1

  7
ASHADE
 72
     1
 11
0.0
 21
-0.1
 31
0.0
100
AcDbAttributeDefinition
280
     0
  3
Light Name
  2
SNAME
 70
     0
280
     0
  0
LINE
  5
63
330
5F
100
AcDbEntity
  8
ASHADE
  6
Continuous
 62
     7
100
AcDbLine
 10
-0.25
 20
-0.13
 30
0.0
 11
-0.25
 21
-0.3399999999999999
 31
0.0
  0
LINE
  5
64
330
5F
100
AcDbEntity
  8
ASHADE
  6
Continuous
 62
     7
100
AcDbLine
 10
-0.25
 20
-0.18
 30
0.0
 11
-0.29
 21
-0.18
 31
0.0
  0
LINE
  5
65
330
5F
100
AcDbEntity
  8
ASHADE
  6
Continuous
 62
     7
100
AcDbLine
 10
-0.29
 20
-0.22
 30
0.0
 11
-0.25
 21
-0.22
 31
0.0
  0
LINE
  5
66
330
5F
100
AcDbEntity
  8
ASHADE
  6
Continuous
 62
     7
100
AcDbLine
 10
-0.29
 20
-0.18
 30
0.0
 11
-0.29
 21
-0.22
 31
0.0
  0
LINE
  5
67
330
5F
100
AcDbEntity
  8
ASHADE
  6
Continuous
 62
     7
100
AcDbLine
 10
-0.1045454545454545
 20
0.26
 30
0.0
 11
-0.15
 21
0.46
 31
0.0
  0
LINE
  5
68
330
5F
100
AcDbEntity
  8
ASHADE
  6
Continuous
 62
     7
100
AcDbLine
 10
-0.21
 20
0.26
 30
0.0
 11
-0.301304347826087
 21
0.46
 31
0.0
  0
LINE
  5
69
330
5F
100
AcDbEntity
  8
ASHADE
  6
Continuous
 62
     7
100
AcDbLine
 10
-0.25
 20
0.26
 30
0.0
 11
-0.25
 21
0.13
 31
0.0
  0
LINE
  5
6A
330
5F
100
AcDbEntity
  8
ASHADE
  6
Continuous
 62
     7
100
AcDbLine
 10
-0.25
 20
0.22
 30
0.0
 11
-0.29
 21
0.22
 31
0.0
  0
LINE
  5
6B
330
5F
100
AcDbEntity
  8
ASHADE
  6
Continuous
 62
     7
100
AcDbLine
 10
-0.29
 20
0.1799999999999999
 30
0.0
 11
-0.25
 21
0.1799999999999999
 31
0.0
  0
LINE
  5
6C
330
5F
100
AcDbEntity
  8
ASHADE
  6
Continuous
 62
     7
100
AcDbLine
 10
-0.29
 20
0.22
 30
0.0
 11
-0.29
 21
0.1799999999999999
 31
0.0
  0
ATTDEF
  5
6D
330
5F
100
AcDbEntity
  8
ASHADE
  6
Continuous
 62
     7
100
AcDbText
 10
0.0
 20
-0.24
 30
0.0
 40
0.01
  1
0
100
AcDbAttributeDefinition
280
     0
  3
Depth Map Size
  2
ZSIZE
 70
     1
280
     0
  0
ATTDEF
  5
6E
330
5F
100
AcDbEntity
  8
ASHADE
  6
Continuous
 62
     7
100
AcDbText
 10
0.0
 20
-0.3300000000000001
 30
0.0
 40
0.01
  1
0,0,0
100
AcDbAttributeDefinition
280
     0
  3
Look-from XYZ
  2
LFXYZ
 70
     1
280
     0
  0
ATTDEF
  5
6F
330
5F
100
AcDbEntity
  8
ASHADE
  6
Continuous
 62
     7
100
AcDbText
 10
0.0
 20
-0.315
 30
0.0
 40
0.01
  1
0.0
100
AcDbAttributeDefinition
280
     0
  3
Beam Distribution
  2
BEAMDI
 70
     1
280
     0
  0
ATTDEF
  5
70
330
5F
100
AcDbEntity
  8
ASHADE
  6
Continuous
 62
     7
100
AcDbText
 10
0.0
 20
-0.3
 30
0.0
 40
0.01
  1
0.0
100
AcDbAttributeDefinition
280
     0
  3
Cone Delta
  2
CONEDE
 70
     1
280
     0
  0
ATTDEF
  5
71
330
5F
100
AcDbEntity
  8
ASHADE
  6
Continuous
 62
     7
100
AcDbText
 10
0.0
 20
-0.2850000000000001
 30
0.0
 40
0.01
  1
10.0
100
AcDbAttributeDefinition
280
     0
  3
Cone Angle
  2
CONEAN
 70
     1
280
     0
  0
ATTDEF
  5
72
330
5F
100
AcDbEntity
  8
ASHADE
  6
Continuous
 62
     7
100
AcDbText
 10
0.0
 20
-0.27
 30
0.0
 40
0.01
  1
-1
100
AcDbAttributeDefinition
280
     0
  3
*not used*
  2
BIASMAX
 70
     1
280
     0
  0
ATTDEF
  5
73
330
5F
100
AcDbEntity
  8
ASHADE
  6
Continuous
 62
     7
100
AcDbText
 10
0.0
 20
-0.255
 30
0.0
 40
0.01
  1
-1
100
AcDbAttributeDefinition
280
     0
  3
*not used*
  2
BIASMIN
 70
     1
280
     0
  0
ATTDEF
  5
74
330
5F
100
AcDbEntity
  8
ASHADE
  6
Continuous
 62
     7
100
AcDbText
 10
0.0
 20
-0.225
 30
0.0
 40
0.01
  1
1,1,1
100
AcDbAttributeDefinition
280
     0
  3
Light Color (RGB)
  2
COLOR
 70
     1
280
     0
  0
ATTDEF
  5
75
330
5F
100
AcDbEntity
  8
ASHADE
  6
Continuous
 62
     7
100
AcDbText
 10
0.0
 20
-0.21
 30
0.0
 40
0.01
  1
1
100
AcDbAttributeDefinition
280
     0
  3
Light Intensity
  2
INTENSITY
 70
     1
280
     0
  0
ATTDEF
  5
76
330
5F
100
AcDbEntity
  8
ASHADE
  6
Continuous
 62
     7
100
AcDbText
 10
0.0
 20
-0.15
 30
0.0
 40
0.01
  1

100
AcDbAttributeDefinition
280
     0
  3

  2
GNAME
 70
     1
280
     0
  0
ATTDEF
  5
77
330
5F
100
AcDbEntity
  8
ASHADE
  6
Continuous
 62
     7
100
AcDbText
 10
0.0
 20
-0.195
 30
0.0
 40
0.01
  1

100
AcDbAttributeDefinition
280
     0
  3
Look-at Z
  2
LAZ
 70
     1
280
     0
  0
ATTDEF
  5
78
330
5F
100
AcDbEntity
  8
ASHADE
  6
Continuous
 62
     7
100
AcDbText
 10
0.0
 20
-0.18
 30
0.0
 40
0.01
  1

100
AcDbAttributeDefinition
280
     0
  3
Look-at Y
  2
LAY
 70
     1
280
     0
  0
ATTDEF
  5
79
330
5F
100
AcDbEntity
  8
ASHADE
  6
Continuous
 62
     7
100
AcDbText
 10
0.0
 20
-0.165
 30
0.0
 40
0.01
  1

100
AcDbAttributeDefinition
280
     0
  3
Look-at X
  2
LAX
 70
     1
280
     0
  0
LINE
  5
7A
330
5F
100
AcDbEntity
  8
ASHADE
  6
Continuous
 62
     7
100
AcDbLine
 10
0.25
 20
-0.3399999999999999
 30
0.0
 11
0.25
 21
-0.13
 31
0.0
  0
LINE
  5
7B
330
5F
100
AcDbEntity
  8
ASHADE
  6
Continuous
 62
     7
100
AcDbLine
 10
0.25
 20
-0.18
 30
0.0
 11
0.29
 21
-0.18
 31
0.0
  0
LINE
  5
7C
330
5F
100
AcDbEntity
  8
ASHADE
  6
Continuous
 62
     7
100
AcDbLine
 10
0.29
 20
-0.22
 30
0.0
 11
0.25
 21
-0.22
 31
0.0
  0
LINE
  5
7D
330
5F
100
AcDbEntity
  8
ASHADE
  6
Continuous
 62
     7
100
AcDbLine
 10
0.29
 20
-0.18
 30
0.0
 11
0.29
 21
-0.22
 31
0.0
  0
LINE
  5
7E
330
5F
100
AcDbEntity
  8
ASHADE
  6
Continuous
 62
     7
100
AcDbLine
 10
0.21
 20
0.26
 30
0.0
 11
0.301304347826087
 21
0.46
 31
0.0
  0
LINE
  5
7F
330
5F
100
AcDbEntity
  8
ASHADE
  6
Continuous
 62
     7
100
AcDbLine
 10
0.1045454545454545
 20
0.26
 30
0.0
 11
0.15
 21
0.46
 31
0.0
  0
LINE
  5
80
330
5F
100
AcDbEntity
  8
ASHADE
  6
Continuous
 62
     7
100
AcDbLine
 10
0.0
 20
0.26
 30
0.0
 11
0.0
 21
0.46
 31
0.0
  0
LINE
  5
81
330
5F
100
AcDbEntity
  8
ASHADE
  6
Continuous
 62
     7
100
AcDbLine
 10
0.25
 20
0.13
 30
0.0
 11
0.25
 21
0.26
 31
0.0
  0
LINE
  5
82
330
5F
100
AcDbEntity
  8
ASHADE
  6
Continuous
 62
     7
100
AcDbLine
 10
0.25
 20
0.22
 30
0.0
 11
0.29
 21
0.22
 31
0.0
  0
LINE
  5
83
330
5F
100
AcDbEntity
  8
ASHADE
  6
Continuous
 62
     7
100
AcDbLine
 10
0.29
 20
0.1799999999999999
 30
0.0
 11
0.25
 21
0.1799999999999999
 31
0.0
  0
LINE
  5
84
330
5F
100
AcDbEntity
  8
ASHADE
  6
Continuous
 62
     7
100
AcDbLine
 10
0.29
 20
0.22
 30
0.0
 11
0.29
 21
0.1799999999999999
 31
0.0
  0
ENDBLK
  5
86
330
5F
100
AcDbEntity
  8
0
100
AcDbBlockEnd
  0
BLOCK
  5
92
330
91
100
AcDbEntity
  8
ASHADE
100
AcDbBlockBegin
  2
AVE_RENDER
 70
     0
 10
0.0
 20
0.0
 30
0.0
  3
AVE_RENDER
  1
AVE_RENDER
  0
ENDBLK
  5
93
330
91
100
AcDbEntity
  8
0
100
AcDbBlockEnd
  0
BLOCK
  5
A0
330
9F
100
AcDbEntity
  8
ASHADE
100
AcDbBlockBegin
  2
AVE_GLOBAL
 70
     0
 10
0.0
 20
0.0
 30
0.0
  3
AVE_GLOBAL
  1
AVE_GLOBAL
  0
ENDBLK
  5
A1
330
9F
100
AcDbEntity
  8
0
100
AcDbBlockEnd
  0
ENDSEC
  0
SECTION
  2
ENTITIES
  0
INSERT
  5
94
330
1F
100
AcDbEntity
  8
ASHADE
 62
     1
100
AcDbBlockReference
  2
AVE_RENDER
 10
0.0
 20
0.0
 30
0.0
1001
AVE_RENDER
1002
{
1070
     7
1000
Pref
1070
    30
1070
    20
1070
     1
1070
     0
1000

1070
    10
1070
     1
1070
    10
1040
1.0
1070
     1
1040
0.3
1040
0.7
1040
0.0
1040
10.0
1010
-1.0
1020
-1.0
1030
-1.0
1040
0.3
1070
    49
1070
     0
1070
     0
1010
1.0
1020
1.0
1030
1.0
1040
45.0
1070
     1
1070
     0
1000
WCS
1040
0.0
1070
     0
1040
10.0
1002
}
  0
INSERT
  5
95
330
1F
100
AcDbEntity
  8
ASHADE
 62
     3
100
AcDbBlockReference
  2
AVE_RENDER
 10
0.0
 20
0.0
 30
0.0
1001
AVE_RENDER
1002
{
1070
     0
1000
Full Opt
1070
     0
1070
     1
1070
     1
1070
     1
1070
     0
1070
     0
1070
     0
1070
     1
1070
     1
1040
0.0001
1040
0.0001
1002
}
  0
INSERT
  5
96
330
1F
100
AcDbEntity
  8
ASHADE
 62
     4
100
AcDbBlockReference
  2
AVE_RENDER
 10
0.0
 20
0.0
 30
0.0
1001
AVE_RENDER
1002
{
1070
     0
1000
Quick Opt
1070
     0
1070
     1
1070
     1
1070
     1
1070
     0
1070
     0
1070
     1
1002
}
  0
INSERT
  5
97
330
1F
100
AcDbEntity
  8
ASHADE
 62
     5
100
AcDbBlockReference
  2
AVE_RENDER
 10
0.0
 20
0.0
 30
0.0
1001
AVE_RENDER
1002
{
1070
     1
1000
Scanl Opt
1070
     2
1070
     0
1070
     2
1040
2.0
1040
4.0
1070
     0
1070
     1
1070
     0
1040
0.03
1002
}
  0
INSERT
  5
98
330
1F
100
AcDbEntity
  8
ASHADE
 62
     6
100
AcDbBlockReference
  2
AVE_RENDER
 10
0.0
 20
0.0
 30
0.0
1001
AVE_RENDER
1002
{
1070
     2
1000
Raytr Opt
1070
     2
1070
     0
1070
     2
1040
2.0
1040
4.0
1070
     0
1070
     1
1070
     1
1040
0.03
1070
     3
1040
0.03
1002
}
  0
INSERT
  5
99
330
1F
100
AcDbEntity
  8
ASHADE
 62
     7
100
AcDbBlockReference
  2
AVE_RENDER
 10
0.0
 20
0.0
 30
0.0
1001
AVE_RENDER
1002
{
1070
     0
1000
RFile Opt
1070
     1
1070
   640
1070
   480
1070
 10000
1070
     1
1070
     8
1070
     8
1070
     0
1070
     0
1070
     0
1070
     0
1070
     0
1070
     0
1070
     0
1002
}
  0
INSERT
  5
9A
330
1F
100
AcDbEntity
  8
ASHADE
 62
     8
100
AcDbBlockReference
  2
AVE_RENDER
 10
0.0
 20
0.0
 30
0.0
1001
AVE_RENDER
1002
{
1070
     0
1000
Fog Opt
1070
     0
1070
     0
1040
0.0
1040
1.0
1040
0.0
1040
1.0
1010
0.5
1020
0.5
1030
0.5
1002
}
  0
INSERT
  5
9B
330
1F
100
AcDbEntity
  8
ASHADE
 62
     9
100
AcDbBlockReference
  2
AVE_RENDER
 10
0.0
 20
0.0
 30
0.0
1001
AVE_RENDER
1002
{
1070
     0
1000
BG Opt
1070
     0
1070
     1
1010
0.0
1020
0.0
1030
0.0
1010
1.0
1020
0.0
1030
0.0
1010
0.0
1020
1.0
1030
0.0
1010
0.0
1020
0.0
1030
1.0
1040
0.5
1040
0.33
1040
0.0
1000

1070
     1
1000

1070
     1
1070
     1
1040
1.0
1040
1.0
1040
0.0
1040
0.0
1070
     0
1002
}
  0
INSERT
  5
A2
330
1F
100
AcDbEntity
  8
ASHADE
 62
     1
100
AcDbBlockReference
  2
AVE_GLOBAL
 10
0.0
 20
0.0
 30
0.0
1001
AVE_MATERIAL
1002
{
1000
*GLOBAL*
1000
2
1000
Global finish.
1002
{
1002
}
1002
{
1070
    63
1002
{
1002
{
1010
-1.0
1020
-1.0
1030
-1.0
1002
}
1040
0.1000000014901161
1000

1040
0.0
1002
{
1002
}
1040
0.0
1002
{
1002
}
1040
0.0
1002
}
1002
{
1002
{
1010
-1.0
1020
-1.0
1030
-1.0
1002
}
1040
0.6999999880790711
1000

1040
0.0
1002
{
1002
}
1040
0.0
1002
{
1002
}
1040
0.0
1002
}
1002
{
1002
{
1010
-1.0
1020
-1.0
1030
-1.0
1002
}
1040
0.2000000029802322
1000

1040
0.0
1002
{
1002
}
1040
0.0
1002
{
1002
}
1040
0.0
1002
}
1002
{
1070
     0
1002
{
1070
     1
1002
{
1040
1.0
1040
1.0
1000

1040
0.0
1002
{
1002
}
1040
0.0
1002
{
1002
}
1040
0.0
1002
}
1002
}
1040
1.0
1040
0.0
1040
0.0
1002
}
1002
{
1040
1.0
1040
1.0
1000

1040
0.0
1002
{
1002
}
1040
0.0
1002
{
1002
}
1040
0.0
1002
}
1002
{
1040
0.5
1040
1.0
1000

1040
0.0
1002
{
1002
}
1040
0.0
1002
{
1002
}
1040
0.0
1002
}
1002
{
1070
     0
1040
0.0
1002
{
1002
}
1040
1.0
1002
{
1002
}
1040
0.0
1002
}
1002
{
1040
0.0
1002
{
1002
{
1010
0.0
1020
0.0
1030
0.0
1002
}
1040
1.0
1000

1040
0.0
1002
{
1002
}
1040
0.0
1002
{
1002
}
1040
0.0
1002
}
1002
}
1002
{
1002
{
1070
     1
1002
{
1040
0.0
1040
1.0
1000

1040
0.0
1002
{
1002
}
1040
0.0
1002
{
1002
}
1040
0.0
1002
}
1002
}
1040
0.0
1002
{
1002
}
1010
1.0
1020
0.0
1030
0.0
1010
0.0
1020
1.0
1030
0.0
1010
0.0
1020
0.0
1030
1.0
1070
     0
1002
}
1002
{
1002
{
1040
1.0
1040
1.0
1002
{
1070
     1
1002
{
1040
1.0
1040
1.0
1000

1040
0.0
1002
{
1002
}
1040
0.0
1002
{
1002
}
1040
0.0
1002
}
1002
}
1002
}
1070
     0
1040
0.0
1002
{
1002
}
1002
}
1002
{
1002
}
1002
}
1002
{
1071
        3
1070
     3
1070
     0
1002
{
1070
     2
1070
     0
1070
     0
1040
0.0
1002
}
1070
     0
1070
     2
1002
{
1002
}
1002
}
1002
{
1040
8030.0
1040
190.3000030517578
1040
0.3050000071525574
1040
228.0
1040
545.0
1040
14.0
1040
17.39999961853027
1040
0.4560000002384186
1002
}
1002
}
  0
MESH
  5
F9
330
1F
100
AcDbEntity
  8
OracDecor_cornice_mouldings
 62
   214
420
  9510065
160
             52712
310
E8CD0000B80500000C00000013000000020000003C000000060000000200000000000060FC3F8F4000000040C801A53E0000000000405AC000000060FC3F8F4000000000000023C00000000000405AC00C000000130000000A0000003C0000000600000002000000000000A000408FC0000000E0FFFF22C00000000000405A
310
C000000060FC3F8F4000000000000023C00000000000405AC00C00000013000000120000003C0000000600000002000000000000A000408FC000000040C801B53E0000000000405AC0000000A000408FC0000000E0FFFF22C00000000000405AC00C000000130000001A0000003C0000000600000002000000000000A00040
310
8FC000000040C801B53E0000000000405AC000000060FC3F8F4000000040C801A53E0000000000405AC00C00000013000000220000003C000000060000000200000000000060FC3F8F4000000000000023C00000000000405AC000000060FC3F8F4000000080898423C000000060D13D5AC00C000000130000002A0000003C
310
0000000600000002000000000000A000408FC000000060898423C000000060D13D5AC000000060FC3F8F4000000080898423C000000060D13D5AC00C00000013000000320000003C0000000600000002000000000000A000408FC0000000E0FFFF22C00000000000405AC0000000A000408FC000000060898423C000000060
310
D13D5AC00C000000130000003A0000003C000000060000000200000000000060FC3F8F4000000000FAFF23C0000000406D375AC000000060FC3F8F4000000080898423C000000060D13D5AC00C00000013000000420000003C0000000600000002000000000000A000408FC0000000E0F9FF23C0000000406D375AC0000000
310
60FC3F8F4000000000FAFF23C0000000406D375AC00C000000130000004A0000003C0000000600000002000000000000A000408FC000000060898423C000000060D13D5AC0000000A000408FC0000000E0F9FF23C0000000406D375AC00C00000013000000520000003C000000060000000200000000000060FC3F8F400000
310
0000FAFF23C0000000406D375AC000000060FC3F8F40000000000A6A24C000000040412D5AC00C000000130000005A0000003C0000000600000002000000000000A000408FC0000000E0096A24C000000040412D5AC000000060FC3F8F40000000000A6A24C000000040412D5AC00C00000013000000620000003C00000006
310
00000002000000000000A000408FC0000000E0F9FF23C0000000406D375AC0000000A000408FC0000000E0096A24C000000040412D5AC00C000000130000006A0000003C000000060000000200000000000060FC3F8F400000008069BB24C000000040FF1F5AC000000060FC3F8F40000000000A6A24C000000040412D5AC0
310
0C00000013000000720000003C0000000600000002000000000000A000408FC00000006069BB24C000000040FF1F5AC000000060FC3F8F400000008069BB24C000000040FF1F5AC00C000000130000007A0000003C0000000600000002000000000000A000408FC0000000E0096A24C000000040412D5AC0000000A000408F
310
C00000006069BB24C000000040FF1F5AC00C00000013000000820000003C000000060000000200000000000060FC3F8F400000008069BB24C000000040FF1F5AC000000060FC3F8F40000000008BEE24C00000004091105AC00C000000130000008A0000003C0000000600000002000000000000A000408FC0000000E08AEE
310
24C00000004091105AC000000060FC3F8F40000000008BEE24C00000004091105AC00C00000013000000920000003C0000000600000002000000000000A000408FC00000006069BB24C000000040FF1F5AC0000000A000408FC0000000E08AEE24C00000004091105AC00C000000130000009A0000003C0000000600000002
310
00000000000060FC3F8F40000000008BEE24C00000004091105AC000000060FC3F8F4000000000000025C00000000000005AC00C00000013000000A20000003C0000000600000002000000000000A000408FC0000000E0FFFF24C00000000000005AC000000060FC3F8F4000000000000025C00000000000005AC00C000000
310
13000000AA0000003C0000000600000002000000000000A000408FC0000000E0FFFF24C00000000000005AC0000000A000408FC0000000E08AEE24C00000004091105AC00C00000013000000B20000003C000000060000000200000000000060FC3F8F4000000000000025C00000000000005AC000000060FC3F8F40000000
310
00000025C000000000E76857C00C00000013000000BA0000003C0000000600000002000000000000A000408FC0000000E0FFFF24C000000000E76857C000000060FC3F8F4000000000000025C000000000E76857C00C00000013000000C20000003C0000000600000002000000000000A000408FC0000000E0FFFF24C00000
310
000000005AC0000000A000408FC0000000E0FFFF24C000000000E76857C00C00000013000000CA0000003C000000060000000200000000000060FC3F8F4000000080CE0D25C0000000A0245A57C000000060FC3F8F4000000000000025C000000000E76857C00C00000013000000D20000003C000000060000000200000000
310
0000A000408FC000000060CE0D25C0000000A0245A57C000000060FC3F8F4000000080CE0D25C0000000A0245A57C00C00000013000000DA0000003C0000000600000002000000000000A000408FC0000000E0FFFF24C000000000E76857C0000000A000408FC000000060CE0D25C0000000A0245A57C00C00000013000000
310
E20000003C000000060000000200000000000060FC3F8F4000000080753625C0000000E02D4C57C000000060FC3F8F4000000080CE0D25C0000000A0245A57C00C00000013000000EA0000003C0000000600000002000000000000A000408FC000000060753625C0000000E02D4C57C000000060FC3F8F4000000080753625
310
C0000000E02D4C57C00C00000013000000F20000003C0000000600000002000000000000A000408FC000000060CE0D25C0000000A0245A57C0000000A000408FC000000060753625C0000000E02D4C57C00C00000013000000FA0000003C000000060000000200000000000060FC3F8F4000000000CA7725C0000000C0C33F
310
57C000000060FC3F8F4000000080753625C0000000E02D4C57C00C00000013000000020100003C0000000600000002000000000000A000408FC0000000E0C97725C0000000C0C33F57C000000060FC3F8F4000000000CA7725C0000000C0C33F57C00C000000130000000A0100003C0000000600000002000000000000A000
310
408FC000000060753625C0000000E02D4C57C0000000A000408FC0000000E0C97725C0000000C0C33F57C00C00000013000000120100003C000000060000000200000000000060FC3F8F400000000041CE25C000000000913557C000000060FC3F8F4000000000CA7725C0000000C0C33F57C00C000000130000001A010000
310
3C0000000600000002000000000000A000408FC0000000E040CE25C000000000913557C000000060FC3F8F400000000041CE25C000000000913557C00C00000013000000220100003C0000000600000002000000000000A000408FC0000000E0C97725C0000000C0C33F57C0000000A000408FC0000000E040CE25C0000000
310
00913557C00C000000130000002A0100003C000000060000000200000000000060FC3F8F4000000080353526C000000020232E57C000000060FC3F8F400000000041CE25C000000000913557C00C00000013000000320100003C0000000600000002000000000000A000408FC000000060353526C000000020232E57C00000
310
0060FC3F8F4000000080353526C000000020232E57C00C000000130000003A0100003C0000000600000002000000000000A000408FC0000000E040CE25C000000000913557C0000000A000408FC000000060353526C000000020232E57C00C00000013000000420100003C000000060000000200000000000060FC3F8F4000
310
00008017A726C0000000E0DF2957C000000060FC3F8F4000000080353526C000000020232E57C00C000000130000004A0100003C0000000600000002000000000000A000408FC00000006017A726C0000000E0DF2957C000000060FC3F8F400000008017A726C0000000E0DF2957C00C00000013000000520100003C000000
310
0600000002000000000000A000408FC00000006017A726C0000000E0DF2957C0000000A000408FC000000060353526C000000020232E57C00C000000130000005A0100003C000000060000000200000000000060FC3F8F400000008017A726C0000000E0DF2957C000000060FC3F8F40000000805AA333C0000000C013CC56
310
C00C00000013000000620100003C0000000600000002000000000000A000408FC0000000805AA333C0000000C013CC56C000000060FC3F8F40000000805AA333C0000000C013CC56C00C000000130000006A0100003C0000000600000002000000000000A000408FC00000006017A726C0000000E0DF2957C0000000A00040
310
8FC0000000805AA333C0000000C013CC56C00C00000013000000720100003C000000060000000200000000000060FC3F8F40000000C0BFDF33C0000000406FC756C000000060FC3F8F40000000805AA333C0000000C013CC56C00C000000130000007A0100003C0000000600000002000000000000A000408FC0000000C0BF
310
DF33C0000000406FC756C000000060FC3F8F40000000C0BFDF33C0000000406FC756C00C00000013000000820100003C0000000600000002000000000000A000408FC0000000805AA333C0000000C013CC56C0000000A000408FC0000000C0BFDF33C0000000406FC756C00C000000130000008A0100003C00000006000000
310
0200000000000060FC3F8F40000000C0BFDF33C0000000406FC756C000000060FC3F8F4000000020BD1534C0000000803DBF56C00C00000013000000920100003C0000000600000002000000000000A000408FC000000020BD1534C0000000803DBF56C000000060FC3F8F4000000020BD1534C0000000803DBF56C00C0000
310
00130000009A0100003C0000000600000002000000000000A000408FC0000000C0BFDF33C0000000406FC756C0000000A000408FC000000020BD1534C0000000803DBF56C00C00000013000000A20100003C000000060000000200000000000060FC3F8F4000000060164234C0000000E0FAB356C000000060FC3F8F400000
310
0020BD1534C0000000803DBF56C00C00000013000000AA0100003C0000000600000002000000000000A000408FC000000060164234C0000000E0FAB356C000000060FC3F8F4000000060164234C0000000E0FAB356C00C00000013000000B20100003C0000000600000002000000000000A000408FC000000020BD1534C000
310
0000803DBF56C0000000A000408FC000000060164234C0000000E0FAB356C00C00000013000000BA0100003C000000060000000200000000000060FC3F8F4000000060164234C0000000E0FAB356C000000060FC3F8F40000000A0066234C0000000405CA656C00C00000013000000C20100003C0000000600000002000000
310
000000A000408FC0000000A0066234C0000000405CA656C000000060FC3F8F40000000A0066234C0000000405CA656C00C00000013000000CA0100003C0000000600000002000000000000A000408FC000000060164234C0000000E0FAB356C0000000A000408FC0000000A0066234C0000000405CA656C00C000000130000
310
00D20100003C000000060000000200000000000060FC3F8F40000000E0AA7334C0000000A02F9756C000000060FC3F8F40000000A0066234C0000000405CA656C00C00000013000000DA0100003C0000000600000002000000000000A000408FC0000000E0AA7334C0000000A02F9756C000000060FC3F8F40000000E0AA73
310
34C0000000A02F9756C00C00000013000000E20100003C0000000600000002000000000000A000408FC0000000A0066234C0000000405CA656C0000000A000408FC0000000E0AA7334C0000000A02F9756C00C00000013000000EA0100003C000000060000000200000000000060FC3F8F4000000020E67534C0000000E067
310
8756C000000060FC3F8F40000000E0AA7334C0000000A02F9756C00C00000013000000F20100003C0000000600000002000000000000A000408FC000000020E67534C0000000E0678756C000000060FC3F8F4000000020E67534C0000000E0678756C00C00000013000000FA0100003C0000000600000002000000000000A0
310
00408FC0000000E0AA7334C0000000A02F9756C0000000A000408FC000000020E67534C0000000E0678756C00C00000013000000020200003C000000060000000200000000000060FC3F8F40000000209B6834C000000080F67756C000000060FC3F8F4000000020E67534C0000000E0678756C00C000000130000000A0200
310
003C0000000600000002000000000000A000408FC0000000209B6834C000000080F67756C000000060FC3F8F40000000209B6834C000000080F67756C00C00000013000000120200003C0000000600000002000000000000A000408FC0000000209B6834C000000080F67756C0000000A000408FC000000020E67534C00000
310
00E0678756C00C000000130000001A0200003C000000060000000200000000000060FC3F8F40000000209B6834C000000080F67756C000000060FC3F8F40000000603B0534C000000060842356C00C00000013000000220200003C0000000600000002000000000000A000408FC0000000603B0534C000000060842356C000
310
000060FC3F8F40000000603B0534C000000060842356C00C000000130000002A0200003C0000000600000002000000000000A000408FC0000000209B6834C000000080F67756C0000000A000408FC0000000603B0534C000000060842356C00C00000013000000320200003C000000060000000200000000000060FC3F8F40
310
000000603B0534C000000060842356C000000060FC3F8F40000000C021B033C0000000E0FDB255C00C000000130000003A0200003C0000000600000002000000000000A000408FC0000000C021B033C0000000E0FDB255C000000060FC3F8F40000000C021B033C0000000E0FDB255C00C00000013000000420200003C0000
310
000600000002000000000000A000408FC0000000603B0534C000000060842356C0000000A000408FC0000000C021B033C0000000E0FDB255C00C000000130000004A0200003C000000060000000200000000000060FC3F8F40000000C021B033C0000000E0FDB255C000000060FC3F8F4000000080EC9033C0000000C0A13E
310
55C00C00000013000000520200003C0000000600000002000000000000A000408FC000000080EC9033C0000000C0A13E55C000000060FC3F8F4000000080EC9033C0000000C0A13E55C00C000000130000005A0200003C0000000600000002000000000000A000408FC0000000C021B033C0000000E0FDB255C0000000A000
310
408FC000000080EC9033C0000000C0A13E55C00C00000013000000620200003C000000060000000200000000000060FC3F8F400000000072AA33C000000000F4C554C000000060FC3F8F4000000080EC9033C0000000C0A13E55C00C000000130000006A0200003C0000000600000002000000000000A000408FC000000000
310
72AA33C000000000F4C554C000000060FC3F8F400000000072AA33C000000000F4C554C00C00000013000000720200003C0000000600000002000000000000A000408FC000000080EC9033C0000000C0A13E55C0000000A000408FC00000000072AA33C000000000F4C554C00C000000130000007A0200003C000000060000
310
000200000000000060FC3F8F400000000072AA33C000000000F4C554C000000060FC3F8F40000000C05A0A34C0000000C08F4054C00C00000013000000820200003C0000000600000002000000000000A000408FC0000000C05A0A34C0000000C08F4054C000000060FC3F8F40000000C05A0A34C0000000C08F4054C00C00
310
0000130000008A0200003C0000000600000002000000000000A000408FC00000000072AA33C000000000F4C554C0000000A000408FC0000000C05A0A34C0000000C08F4054C00C00000013000000920200003C000000060000000200000000000060FC3F8F40000000C05A0A34C0000000C08F4054C000000060FC3F8F4000
310
0000C055B534C0000000605EB553C00C000000130000009A0200003C0000000600000002000000000000A000408FC0000000C055B534C0000000605EB553C000000060FC3F8F40000000C055B534C0000000605EB553C00C00000013000000A20200003C0000000600000002000000000000A000408FC0000000C05A0A34C0
310
000000C08F4054C0000000A000408FC0000000C055B534C0000000605EB553C00C00000013000000AA0200003C000000060000000200000000000060FC3F8F40000000C055B534C0000000605EB553C000000060FC3F8F40000000C034A535C000000080EF2D53C00C00000013000000B20200003C00000006000000020000
310
00000000A000408FC0000000C034A535C000000080EF2D53C000000060FC3F8F40000000C034A535C000000080EF2D53C00C00000013000000BA0200003C0000000600000002000000000000A000408FC0000000C055B534C0000000605EB553C0000000A000408FC0000000C034A535C000000080EF2D53C00C0000001300
310
0000C20200003C000000060000000200000000000060FC3F8F40000000601BE736C0000000C0B3A352C000000060FC3F8F40000000C034A535C000000080EF2D53C00C00000013000000CA0200003C0000000600000002000000000000A000408FC0000000601BE736C0000000C0B3A352C000000060FC3F8F40000000601B
310
E736C0000000C0B3A352C00C00000013000000D20200003C0000000600000002000000000000A000408FC0000000C034A535C000000080EF2D53C0000000A000408FC0000000601BE736C0000000C0B3A352C00C00000013000000DA0200003C000000060000000200000000000060FC3F8F40000000601BE736C0000000C0
310
B3A352C000000060FC3F8F40000000201E7E38C000000000831952C00C00000013000000E20200003C0000000600000002000000000000A000408FC0000000201E7E38C000000000831952C000000060FC3F8F40000000201E7E38C000000000831952C00C00000013000000EA0200003C0000000600000002000000000000
310
A000408FC0000000601BE736C0000000C0B3A352C0000000A000408FC0000000201E7E38C000000000831952C00C00000013000000F20200003C000000060000000200000000000060FC3F8F40000000A0A0653AC000000000D19351C000000060FC3F8F40000000201E7E38C000000000831952C00C00000013000000FA02
310
00003C0000000600000002000000000000A000408FC0000000A0A0653AC000000000D19351C000000060FC3F8F40000000A0A0653AC000000000D19351C00C00000013000000020300003C0000000600000002000000000000A000408FC0000000201E7E38C000000000831952C0000000A000408FC0000000A0A0653AC000
310
000000D19351C00C000000130000000A0300003C000000060000000200000000000060FC3F8F4000000040BF903CC000000040CD1751C000000060FC3F8F40000000A0A0653AC000000000D19351C00C00000013000000120300003C0000000600000002000000000000A000408FC000000040BF903CC000000040CD1751C0
310
00000060FC3F8F4000000040BF903CC000000040CD1751C00C000000130000001A0300003C0000000600000002000000000000A000408FC0000000A0A0653AC000000000D19351C0000000A000408FC000000040BF903CC000000040CD1751C00C00000013000000220300003C000000060000000200000000000060FC3F8F
310
40000000C07DEA3EC0000000C08AAA50C000000060FC3F8F4000000040BF903CC000000040CD1751C00C000000130000002A0300003C0000000600000002000000000000A000408FC0000000C07DEA3EC0000000C08AAA50C000000060FC3F8F40000000C07DEA3EC0000000C08AAA50C00C00000013000000320300003C00
310
00000600000002000000000000A000408FC000000040BF903CC000000040CD1751C0000000A000408FC0000000C07DEA3EC0000000C08AAA50C00C000000130000003A0300003C000000060000000200000000000060FC3F8F400000004096AB40C0000000C0325050C000000060FC3F8F40000000C07DEA3EC0000000C08A
310
AA50C00C00000013000000420300003C0000000600000002000000000000A000408FC00000004096AB40C0000000C0325050C000000060FC3F8F400000004096AB40C0000000C0325050C00C000000130000004A0300003C0000000600000002000000000000A000408FC0000000C07DEA3EC0000000C08AAA50C0000000A0
310
00408FC00000004096AB40C0000000C0325050C00C00000013000000520300003C000000060000000200000000000060FC3F8F400000004096AB40C0000000C0325050C000000060FC3F8F40000000406ADF41C0000000007B0A50C00C000000130000005A0300003C0000000600000002000000000000A000408FC0000000
310
406ADF41C0000000007B0A50C000000060FC3F8F40000000406ADF41C0000000007B0A50C00C00000013000000620300003C0000000600000002000000000000A000408FC00000004096AB40C0000000C0325050C0000000A000408FC0000000406ADF41C0000000007B0A50C00C000000130000006A0300003C0000000600
310
00000200000000000060FC3F8F4000000080400B43C0000000E078B14FC000000060FC3F8F40000000406ADF41C0000000007B0A50C00C00000013000000720300003C0000000600000002000000000000A000408FC000000080400B43C0000000E078B14FC000000060FC3F8F4000000080400B43C0000000E078B14FC00C
310
000000130000007A0300003C0000000600000002000000000000A000408FC0000000406ADF41C0000000007B0A50C0000000A000408FC000000080400B43C0000000E078B14FC00C00000013000000820300003C000000060000000200000000000060FC3F8F4000000080400B43C0000000E078B14FC000000060FC3F8F40
310
00000020F5BE43C0000000E0D6854FC00C000000130000008A0300003C0000000600000002000000000000A000408FC000000020F5BE43C0000000E0D6854FC000000060FC3F8F4000000020F5BE43C0000000E0D6854FC00C00000013000000920300003C0000000600000002000000000000A000408FC000000080400B43
310
C0000000E078B14FC0000000A000408FC000000020F5BE43C0000000E0D6854FC00C000000130000009A0300003C000000060000000200000000000060FC3F8F40000000C0DCDF43C0000000407A7A4FC000000060FC3F8F4000000020F5BE43C0000000E0D6854FC00C00000013000000A20300003C000000060000000200
310
0000000000A000408FC0000000C0DCDF43C0000000407A7A4FC000000060FC3F8F40000000C0DCDF43C0000000407A7A4FC00C00000013000000AA0300003C0000000600000002000000000000A000408FC000000020F5BE43C0000000E0D6854FC0000000A000408FC0000000C0DCDF43C0000000407A7A4FC00C00000013
310
000000B20300003C000000060000000200000000000060FC3F8F40000000C0DCDF43C0000000407A7A4FC000000060FC3F8F40000000A07BFC43C000000000AD664FC00C00000013000000BA0300003C0000000600000002000000000000A000408FC0000000A07BFC43C000000000AD664FC000000060FC3F8F40000000A0
310
7BFC43C000000000AD664FC00C00000013000000C20300003C0000000600000002000000000000A000408FC0000000C0DCDF43C0000000407A7A4FC0000000A000408FC0000000A07BFC43C000000000AD664FC00C00000013000000CA0300003C000000060000000200000000000060FC3F8F40000000A0B51244C0000000
310
40E64B4FC000000060FC3F8F40000000A07BFC43C000000000AD664FC00C00000013000000D20300003C0000000600000002000000000000A000408FC0000000A0B51244C000000040E64B4FC000000060FC3F8F40000000A0B51244C000000040E64B4FC00C00000013000000DA0300003C00000006000000020000000000
310
00A000408FC0000000A07BFC43C000000000AD664FC0000000A000408FC0000000A0B51244C000000040E64B4FC00C00000013000000E20300003C000000060000000200000000000060FC3F8F40000000A0B51244C000000040E64B4FC000000060FC3F8F4000000020E72044C000000060202C4FC00C00000013000000EA
310
0300003C0000000600000002000000000000A000408FC000000020E72044C000000060202C4FC000000060FC3F8F4000000020E72044C000000060202C4FC00C00000013000000F20300003C0000000600000002000000000000A000408FC0000000A0B51244C000000040E64B4FC0000000A000408FC000000020E72044C0
310
00000060202C4FC00C00000013000000FA0300003C000000060000000200000000000060FC3F8F40000000C0032644C000000060B3094FC000000060FC3F8F4000000020E72044C000000060202C4FC00C00000013000000020400003C0000000600000002000000000000A000408FC0000000C0032644C000000060B3094F
310
C000000060FC3F8F40000000C0032644C000000060B3094FC00C000000130000000A0400003C0000000600000002000000000000A000408FC000000020E72044C000000060202C4FC0000000A000408FC0000000C0032644C000000060B3094FC00C00000013000000120400003C000000060000000200000000000060FC3F
310
8F40000000C0032644C000000060B3094FC000000060FC3F8F4000000040A92144C0000000C029E74EC00C000000130000001A0400003C0000000600000002000000000000A000408FC000000040A92144C0000000C029E74EC000000060FC3F8F4000000040A92144C0000000C029E74EC00C00000013000000220400003C
310
0000000600000002000000000000A000408FC000000040A92144C0000000C029E74EC0000000A000408FC0000000C0032644C000000060B3094FC00C000000130000002A0400003C000000060000000200000000000060FC3F8F4000000000E9F642C000000040358C4AC000000060FC3F8F4000000040A92144C0000000C0
310
29E74EC00C00000013000000320400003C0000000600000002000000000000A000408FC000000000E9F642C000000040358C4AC000000060FC3F8F4000000000E9F642C000000040358C4AC00C000000130000003A0400003C0000000600000002000000000000A000408FC000000040A92144C0000000C029E74EC0000000
310
A000408FC000000000E9F642C000000040358C4AC00C00000013000000420400003C000000060000000200000000000060FC3F8F4000000000E9F642C000000040358C4AC000000060FC3F8F400000006093F242C000000020AE6D4AC00C000000130000004A0400003C0000000600000002000000000000A000408FC00000
310
006093F242C000000020AE6D4AC000000060FC3F8F400000006093F242C000000020AE6D4AC00C00000013000000520400003C0000000600000002000000000000A000408FC000000000E9F642C000000040358C4AC0000000A000408FC00000006093F242C000000020AE6D4AC00C000000130000005A0400003C00000006
310
0000000200000000000060FC3F8F400000006093F242C000000020AE6D4AC000000060FC3F8F40000000E0A9F542C000000020044F4AC00C00000013000000620400003C0000000600000002000000000000A000408FC0000000E0A9F542C000000020044F4AC000000060FC3F8F40000000E0A9F542C000000020044F4AC0
310
0C000000130000006A0400003C0000000600000002000000000000A000408FC00000006093F242C000000020AE6D4AC0000000A000408FC0000000E0A9F542C000000020044F4AC00C00000013000000720400003C000000060000000200000000000060FC3F8F40000000E0A9F542C000000020044F4AC000000060FC3F8F
310
4000000020FFFF42C000000040F7314AC00C000000130000007A0400003C0000000600000002000000000000A000408FC000000020FFFF42C000000040F7314AC000000060FC3F8F4000000020FFFF42C000000040F7314AC00C00000013000000820400003C0000000600000002000000000000A000408FC0000000E0A9F5
310
42C000000020044F4AC0000000A000408FC000000020FFFF42C000000040F7314AC00C000000130000008A0400003C000000060000000200000000000060FC3F8F40000000A0FA1043C0000000003B184AC000000060FC3F8F4000000020FFFF42C000000040F7314AC00C00000013000000920400003C0000000600000002
310
000000000000A000408FC0000000A0FA1043C0000000003B184AC000000060FC3F8F40000000A0FA1043C0000000003B184AC00C000000130000009A0400003C0000000600000002000000000000A000408FC000000020FFFF42C000000040F7314AC0000000A000408FC0000000A0FA1043C0000000003B184AC00C000000
310
13000000A20400003C000000060000000200000000000060FC3F8F40000000A0FA1043C0000000003B184AC000000060FC3F8F40000000409C2743C0000000604F034AC00C00000013000000AA0400003C0000000600000002000000000000A000408FC0000000409C2743C0000000604F034AC000000060FC3F8F40000000
310
409C2743C0000000604F034AC00C00000013000000B20400003C0000000600000002000000000000A000408FC0000000A0FA1043C0000000003B184AC0000000A000408FC0000000409C2743C0000000604F034AC00C00000013000000BA0400003C000000060000000200000000000060FC3F8F4000000040994243C00000
310
004066F449C000000060FC3F8F40000000409C2743C0000000604F034AC00C00000013000000C20400003C0000000600000002000000000000A000408FC000000040994243C00000004066F449C000000060FC3F8F4000000040994243C00000004066F449C00C00000013000000CA0400003C000000060000000200000000
310
0000A000408FC000000040994243C00000004066F449C0000000A000408FC0000000409C2743C0000000604F034AC00C00000013000000D20400003C000000060000000200000000000060FC3F8F4000000040994243C00000004066F449C000000060FC3F8F4000000020F3AF4BC000000000C68C46C00C00000013000000
310
DA0400003C0000000600000002000000000000A000408FC000000020F3AF4BC000000000C68C46C000000060FC3F8F4000000020F3AF4BC000000000C68C46C00C00000013000000E20400003C0000000600000002000000000000A000408FC000000040994243C00000004066F449C0000000A000408FC000000020F3AF4B
310
C000000000C68C46C00C00000013000000EA0400003C000000060000000200000000000060FC3F8F4000000020F3AF4BC000000000C68C46C000000060FC3F8F400000008083CA4BC0000000E02A7E46C00C00000013000000F20400003C0000000600000002000000000000A000408FC00000008083CA4BC0000000E02A7E
310
46C000000060FC3F8F400000008083CA4BC0000000E02A7E46C00C00000013000000FA0400003C0000000600000002000000000000A000408FC000000020F3AF4BC000000000C68C46C0000000A000408FC00000008083CA4BC0000000E02A7E46C00C00000013000000020500003C000000060000000200000000000060FC
310
3F8F400000008083CA4BC0000000E02A7E46C000000060FC3F8F4000000000E4E04BC000000080BC6946C00C000000130000000A0500003C0000000600000002000000000000A000408FC000000000E4E04BC000000080BC6946C000000060FC3F8F4000000000E4E04BC000000080BC6946C00C0000001300000012050000
310
3C0000000600000002000000000000A000408FC00000008083CA4BC0000000E02A7E46C0000000A000408FC000000000E4E04BC000000080BC6946C00C000000130000001A0500003C000000060000000200000000000060FC3F8F4000000000E4E04BC000000080BC6946C000000060FC3F8F4000000000D9F14BC0000000
310
A0985046C00C00000013000000220500003C0000000600000002000000000000A000408FC000000000D9F14BC0000000A0985046C000000060FC3F8F4000000000D9F14BC0000000A0985046C00C000000130000002A0500003C0000000600000002000000000000A000408FC000000000E4E04BC000000080BC6946C00000
310
00A000408FC000000000D9F14BC0000000A0985046C00C00000013000000320500003C000000060000000200000000000060FC3F8F4000000000D9F14BC0000000A0985046C000000060FC3F8F40000000C068FC4BC0000000E0313446C00C000000130000003A0500003C0000000600000002000000000000A000408FC000
310
0000C068FC4BC0000000E0313446C000000060FC3F8F40000000C068FC4BC0000000E0313446C00C00000013000000420500003C0000000600000002000000000000A000408FC000000000D9F14BC0000000A0985046C0000000A000408FC0000000C068FC4BC0000000E0313446C00C000000130000004A0500003C000000
310
060000000200000000000060FC3F8F400000000000004CC000000000181646C000000060FC3F8F40000000C068FC4BC0000000E0313446C00C00000013000000520500003C0000000600000002000000000000A000408FC00000000000004CC000000000181646C000000060FC3F8F400000000000004CC000000000181646
310
C00C000000130000005A0500003C0000000600000002000000000000A000408FC00000000000004CC000000000181646C0000000A000408FC0000000C068FC4BC0000000E0313446C00C00000013000000620500003C000000060000000200000000000060FC3F8F400000000000004CC000000000EA5A41C000000060FC3F
310
8F400000000000004CC000000000181646C00C000000130000006A0500003C0000000600000002000000000000A000408FC00000000000004CC000000000EA5A41C000000060FC3F8F400000000000004CC000000000EA5A41C00C00000013000000720500003C0000000600000002000000000000A000408FC00000000000
310
004CC000000000181646C0000000A000408FC00000000000004CC000000000EA5A41C00C000000130000007A0500003C000000060000000200000000000060FC3F8F400000000000004CC000000000EA5A41C000000060FC3F8F4000000040820A4CC000000020281641C00C00000013000000820500003C00000006000000
310
02000000000000A000408FC000000040820A4CC000000020281641C000000060FC3F8F4000000040820A4CC000000020281641C00C000000130000008A0500003C0000000600000002000000000000A000408FC00000000000004CC000000000EA5A41C0000000A000408FC000000040820A4CC000000020281641C00C0000
310
0013000000920500003C000000060000000200000000000060FC3F8F40000000A015334CC0000000003FC340C000000060FC3F8F4000000040820A4CC000000020281641C00C000000130000009A0500003C0000000600000002000000000000A000408FC0000000A015334CC0000000003FC340C000000060FC3F8F400000
310
00A015334CC0000000003FC340C00C00000013000000A20500003C0000000600000002000000000000A000408FC000000040820A4CC000000020281641C0000000A000408FC0000000A015334CC0000000003FC340C00C00000013000000AA0500003C000000060000000200000000000060FC3F8F400000000087764CC000
310
000040378440C000000060FC3F8F40000000A015334CC0000000003FC340C00C00000013000000B20500003C0000000600000002000000000000A000408FC00000000087764CC000000040378440C000000060FC3F8F400000000087764CC000000040378440C00C00000013000000BA0500003C0000000600000002000000
310
000000A000408FC0000000A015334CC0000000003FC340C0000000A000408FC00000000087764CC000000040378440C00C00000013000000C20500003C000000060000000200000000000060FC3F8F4000000080FFCB4CC000000080556140C000000060FC3F8F400000000087764CC000000040378440C00C000000130000
310
00CA0500003C0000000600000002000000000000A000408FC000000080FFCB4CC000000080556140C000000060FC3F8F4000000080FFCB4CC000000080556140C00C00000013000000D20500003C0000000600000002000000000000A000408FC00000000087764CC000000040378440C0000000A000408FC000000080FFCB
310
4CC000000080556140C00C00000013000000DA0500003C000000060000000200000000000060FC3F8F40000000A04F114DC000000080805B40C000000060FC3F8F4000000080FFCB4CC000000080556140C00C00000013000000E20500003C0000000600000002000000000000A000408FC0000000A04F114DC00000008080
310
5B40C000000060FC3F8F40000000A04F114DC000000080805B40C00C00000013000000EA0500003C0000000600000002000000000000A000408FC000000080FFCB4CC000000080556140C0000000A000408FC0000000A04F114DC000000080805B40C00C00000013000000F20500003C000000060000000200000000000060
310
FC3F8F4000000020433F4DC0000000A0DA6240C000000060FC3F8F40000000A04F114DC000000080805B40C00C00000013000000FA0500003C0000000600000002000000000000A000408FC000000020433F4DC0000000A0DA6240C000000060FC3F8F4000000020433F4DC0000000A0DA6240C00C00000013000000020600
310
003C0000000600000002000000000000A000408FC000000020433F4DC0000000A0DA6240C0000000A000408FC0000000A04F114DC000000080805B40C00C000000130000000A0600003C000000060000000200000000000060FC3F8F4000000020433F4DC0000000A0DA6240C000000060FC3F8F40000000E0021A4EC00000
310
00A0E39040C00C00000013000000120600003C0000000600000002000000000000A000408FC0000000E0021A4EC0000000A0E39040C000000060FC3F8F40000000E0021A4EC0000000A0E39040C00C000000130000001A0600003C0000000600000002000000000000A000408FC000000020433F4DC0000000A0DA6240C000
310
0000A000408FC0000000E0021A4EC0000000A0E39040C00C00000013000000220600003C000000060000000200000000000060FC3F8F400000004054DD4FC00000006049BC40C000000060FC3F8F40000000E0021A4EC0000000A0E39040C00C000000130000002A0600003C0000000600000002000000000000A000408FC0
310
0000004054DD4FC00000006049BC40C000000060FC3F8F400000004054DD4FC00000006049BC40C00C00000013000000320600003C0000000600000002000000000000A000408FC0000000E0021A4EC0000000A0E39040C0000000A000408FC00000004054DD4FC00000006049BC40C00C000000130000003A0600003C0000
310
00060000000200000000000060FC3F8F400000004054DD4FC00000006049BC40C000000060FC3F8F400000004066D650C000000020708E40C00C00000013000000420600003C0000000600000002000000000000A000408FC00000004066D650C000000020708E40C000000060FC3F8F400000004066D650C000000020708E
310
40C00C000000130000004A0600003C0000000600000002000000000000A000408FC00000004054DD4FC00000006049BC40C0000000A000408FC00000004066D650C000000020708E40C00C00000013000000520600003C000000060000000200000000000060FC3F8F4000000040247C51C00000004000FC3FC000000060FC
310
3F8F400000004066D650C000000020708E40C00C000000130000005A0600003C0000000600000002000000000000A000408FC000000040247C51C00000004000FC3FC000000060FC3F8F4000000040247C51C00000004000FC3FC00C00000013000000620600003C0000000600000002000000000000A000408FC000000040
310
66D650C000000020708E40C0000000A000408FC000000040247C51C00000004000FC3FC00C000000130000006A0600003C000000060000000200000000000060FC3F8F4000000040247C51C00000004000FC3FC000000060FC3F8F4000000080980352C000000080D5103EC00C00000013000000720600003C000000060000
310
0002000000000000A000408FC000000080980352C000000080D5103EC000000060FC3F8F4000000080980352C000000080D5103EC00C000000130000007A0600003C0000000600000002000000000000A000408FC000000040247C51C00000004000FC3FC0000000A000408FC000000080980352C000000080D5103EC00C00
310
000013000000820600003C000000060000000200000000000060FC3F8F4000000020F36752C00000004095573BC000000060FC3F8F4000000080980352C000000080D5103EC00C000000130000008A0600003C0000000600000002000000000000A000408FC000000020F36752C00000004095573BC000000060FC3F8F4000
310
000020F36752C00000004095573BC00C00000013000000920600003C0000000600000002000000000000A000408FC000000080980352C000000080D5103EC0000000A000408FC000000020F36752C00000004095573BC00C000000130000009A0600003C000000060000000200000000000060FC3F8F40000000004DA152C0
310
00000080318537C000000060FC3F8F4000000020F36752C00000004095573BC00C00000013000000A20600003C0000000600000002000000000000A000408FC0000000004DA152C000000080318537C000000060FC3F8F40000000004DA152C000000080318537C00C00000013000000AA0600003C00000006000000020000
310
00000000A000408FC000000020F36752C00000004095573BC0000000A000408FC0000000004DA152C000000080318537C00C00000013000000B20600003C000000060000000200000000000060FC3F8F400000000007CF52C0000000E03F2033C000000060FC3F8F40000000004DA152C000000080318537C00C0000001300
310
0000BA0600003C0000000600000002000000000000A000408FC00000000007CF52C0000000E03F2033C000000060FC3F8F400000000007CF52C0000000E03F2033C00C00000013000000C20600003C0000000600000002000000000000A000408FC0000000004DA152C000000080318537C0000000A000408FC00000000007
310
CF52C0000000E03F2033C00C00000013000000CA0600003C000000060000000200000000000060FC3F8F4000000080742053C0000000C0D25B2FC000000060FC3F8F400000000007CF52C0000000E03F2033C00C00000013000000D20600003C0000000600000002000000000000A000408FC000000080742053C0000000A0
310
D25B2FC000000060FC3F8F4000000080742053C0000000C0D25B2FC00C00000013000000DA0600003C0000000600000002000000000000A000408FC00000000007CF52C0000000E03F2033C0000000A000408FC000000080742053C0000000A0D25B2FC00C00000013000000E20600003C0000000600000002000000000000
310
60FC3F8F40000000004A9D53C0000000C00A212AC000000060FC3F8F4000000080742053C0000000C0D25B2FC00C00000013000000EA0600003C0000000600000002000000000000A000408FC0000000004A9D53C0000000A00A212AC000000060FC3F8F40000000004A9D53C0000000C00A212AC00C00000013000000F206
310
00003C0000000600000002000000000000A000408FC000000080742053C0000000A0D25B2FC0000000A000408FC0000000004A9D53C0000000A00A212AC00C00000013000000FA0600003C000000060000000200000000000060FC3F8F40000000A0183B54C000000040DB5B26C000000060FC3F8F40000000004A9D53C000
310
0000C00A212AC00C00000013000000020700003C0000000600000002000000000000A000408FC0000000A0183B54C0000000A0DB5B26C000000060FC3F8F40000000A0183B54C000000040DB5B26C00C000000130000000A0700003C0000000600000002000000000000A000408FC0000000004A9D53C0000000A00A212AC0
310
000000A000408FC0000000A0183B54C0000000A0DB5B26C00C00000013000000120700003C000000060000000200000000000060FC3F8F40000000A0183B54C000000040DB5B26C000000060FC3F8F40000000600AF154C000000080774524C00C000000130000001A0700003C0000000600000002000000000000A000408F
310
C0000000600AF154C0000000A0774524C000000060FC3F8F40000000600AF154C000000080774524C00C00000013000000220700003C0000000600000002000000000000A000408FC0000000A0183B54C0000000A0DB5B26C0000000A000408FC0000000600AF154C0000000A0774524C00C000000130000002A0700003C00
310
0000060000000200000000000060FC3F8F40000000E03DCB55C0000000000FFE23C000000060FC3F8F40000000600AF154C000000080774524C00C00000013000000320700003C0000000600000002000000000000A000408FC0000000E03DCB55C0000000200FFE23C000000060FC3F8F40000000E03DCB55C0000000000F
310
FE23C00C000000130000003A0700003C0000000600000002000000000000A000408FC0000000600AF154C0000000A0774524C0000000A000408FC0000000E03DCB55C0000000200FFE23C00C00000013000000420700003C000000060000000200000000000060FC3F8F40000000A0383356C000000000A86E24C000000060
310
FC3F8F40000000E03DCB55C0000000000FFE23C00C000000130000004A0700003C0000000600000002000000000000A000408FC0000000A0383356C000000020A86E24C000000060FC3F8F40000000A0383356C000000000A86E24C00C00000013000000520700003C0000000600000002000000000000A000408FC0000000
310
E03DCB55C0000000200FFE23C0000000A000408FC0000000A0383356C000000020A86E24C00C000000130000005A0700003C000000060000000200000000000060FC3F8F4000000000564356C000000000447824C000000060FC3F8F40000000A0383356C000000000A86E24C00C00000013000000620700003C0000000600
310
000002000000000000A000408FC000000000564356C000000020447824C000000060FC3F8F4000000000564356C000000000447824C00C000000130000006A0700003C0000000600000002000000000000A000408FC0000000A0383356C000000020A86E24C0000000A000408FC000000000564356C000000020447824C00C
310
00000013000000720700003C000000060000000200000000000060FC3F8F40000000003B5356C0000000C04C6124C000000060FC3F8F4000000000564356C000000000447824C00C000000130000007A0700003C0000000600000002000000000000A000408FC0000000003B5356C0000000A04C6124C000000060FC3F8F40
310
000000003B5356C0000000C04C6124C00C00000013000000820700003C0000000600000002000000000000A000408FC000000000564356C000000020447824C0000000A000408FC0000000003B5356C0000000A04C6124C00C000000130000008A0700003C000000060000000200000000000060FC3F8F4000000020E76156
310
C000000080392B24C000000060FC3F8F40000000003B5356C0000000C04C6124C00C00000013000000920700003C0000000600000002000000000000A000408FC000000020E76156C0000000A0392B24C000000060FC3F8F4000000020E76156C000000080392B24C00C000000130000009A0700003C000000060000000200
310
0000000000A000408FC0000000003B5356C0000000A04C6124C0000000A000408FC000000020E76156C0000000A0392B24C00C00000013000000A20700003C000000060000000200000000000060FC3F8F4000000020E76156C000000080392B24C000000060FC3F8F40000000806B6E56C0000000006FD923C00C00000013
310
000000AA0700003C0000000600000002000000000000A000408FC0000000806B6E56C0000000206FD923C000000060FC3F8F40000000806B6E56C0000000006FD923C00C00000013000000B20700003C0000000600000002000000000000A000408FC000000020E76156C0000000A0392B24C0000000A000408FC000000080
310
6B6E56C0000000206FD923C00C00000013000000BA0700003C000000060000000200000000000060FC3F8F4000000020F97756C000000040377123C000000060FC3F8F40000000806B6E56C0000000006FD923C00C00000013000000C20700003C0000000600000002000000000000A000408FC000000020F97756C0000000
310
A0377123C000000060FC3F8F4000000020F97756C000000040377123C00C00000013000000CA0700003C0000000600000002000000000000A000408FC0000000806B6E56C0000000206FD923C0000000A000408FC000000020F97756C0000000A0377123C00C00000013000000D20700003C00000006000000020000000000
310
0060FC3F8F40000000A0F57D56C00000004034F922C000000060FC3F8F4000000020F97756C000000040377123C00C00000013000000DA0700003C0000000600000002000000000000A000408FC0000000A0F57D56C0000000A034F922C000000060FC3F8F40000000A0F57D56C00000004034F922C00C00000013000000E2
310
0700003C0000000600000002000000000000A000408FC000000020F97756C0000000A0377123C0000000A000408FC0000000A0F57D56C0000000A034F922C00C00000013000000EA0700003C000000060000000200000000000060FC3F8F4000000000008056C000000040F77822C000000060FC3F8F40000000A0F57D56C0
310
0000004034F922C00C00000013000000F20700003C0000000600000002000000000000A000408FC000000000008056C0000000A0F77822C000000060FC3F8F4000000000008056C000000040F77822C00C00000013000000FA0700003C0000000600000002000000000000A000408FC000000000008056C0000000A0F77822
310
C0000000A000408FC0000000A0F57D56C0000000A034F922C00C00000013000000020800003C000000060000000200000000000060FC3F8F4000000000008056C0000000008701A2BE00000060FC3F8F4000000000008056C000000040F77822C00C000000130000000A0800003C0000000600000002000000000000A00040
310
8FC000000000008056C0000000008701B2BE00000060FC3F8F4000000000008056C0000000008701A2BE0C00000013000000120800003C0000000600000002000000000000A000408FC000000000008056C0000000A0F77822C0000000A000408FC000000000008056C0000000008701B2BE0C000000130000001A0800003C
310
000000060000000200000000000060FC3F8F4000000000008056C0000000008701A2BE00000060FC3F8F400000006077BB54C0000000606197A0BE0C00000013000000220800003C0000000600000002000000000000A000408FC00000006077BB54C0000000606197B0BE00000060FC3F8F400000006077BB54C000000060
310
6197A0BE0C000000130000002A0800003C0000000600000002000000000000A000408FC000000000008056C0000000008701B2BE000000A000408FC00000006077BB54C0000000606197B0BE0C00000013000000320800003C000000060000000200000000000060FC3F8F400000006077BB54C0000000606197A0BE000000
310
60FC3F8F40000000A071AC54C000000000D228DFBF0C000000130000003A0800003C0000000600000002000000000000A000408FC0000000A071AC54C000000020D428DFBF00000060FC3F8F40000000A071AC54C000000000D228DFBF0C00000013000000420800003C0000000600000002000000000000A000408FC00000
310
006077BB54C0000000606197B0BE000000A000408FC0000000A071AC54C000000020D428DFBF0C000000130000004A0800003C000000060000000200000000000060FC3F8F40000000A071AC54C000000000D228DFBF00000060FC3F8F4000000000068C54C000000000F9CCEFBF0C00000013000000520800003C00000006
310
00000002000000000000A000408FC000000000068C54C000000000FACCEFBF00000060FC3F8F4000000000068C54C000000000F9CCEFBF0C000000130000005A0800003C0000000600000002000000000000A000408FC0000000A071AC54C000000020D428DFBF000000A000408FC000000000068C54C000000000FACCEFBF
310
0C00000013000000620800003C000000060000000200000000000060FC3F8F4000000000068C54C000000000F9CCEFBF00000060FC3F8F40000000C07A6154C0000000800C2FF4BF0C000000130000006A0800003C0000000600000002000000000000A000408FC0000000C07A6154C0000000000D2FF4BF00000060FC3F8F
310
40000000C07A6154C0000000800C2FF4BF0C00000013000000720800003C0000000600000002000000000000A000408FC000000000068C54C000000000FACCEFBF000000A000408FC0000000C07A6154C0000000000D2FF4BF0C000000130000007A0800003C000000060000000200000000000060FC3F8F40000000C07A61
310
54C0000000800C2FF4BF00000060FC3F8F4000000000A03354C0000000804CF4F3BF0C00000013000000820800003C0000000600000002000000000000A000408FC000000000A03354C0000000004DF4F3BF00000060FC3F8F4000000000A03354C0000000804CF4F3BF0C000000130000008A0800003C0000000600000002
310
000000000000A000408FC0000000C07A6154C0000000000D2FF4BF000000A000408FC000000000A03354C0000000004DF4F3BF0C00000013000000920800003C000000060000000200000000000060FC3F8F4000000040331354C00000008008F1F0BF00000060FC3F8F4000000000A03354C0000000804CF4F3BF0C000000
310
130000009A0800003C0000000600000002000000000000A000408FC000000040331354C00000000009F1F0BF00000060FC3F8F4000000040331354C00000008008F1F0BF0C00000013000000A20800003C0000000600000002000000000000A000408FC000000040331354C00000000009F1F0BF000000A000408FC0000000
310
00A03354C0000000004DF4F3BF0C00000013000000AA0800003C000000060000000200000000000060FC3F8F4000000040331354C00000008008F1F0BF00000060FC3F8F4000000060D39D53C0000000A095659FBE0C00000013000000B20800003C0000000600000002000000000000A000408FC000000060D39D53C00000
310
00A09565AFBE00000060FC3F8F4000000060D39D53C0000000A095659FBE0C00000013000000BA0800003C0000000600000002000000000000A000408FC000000040331354C00000000009F1F0BF000000A000408FC000000060D39D53C0000000A09565AFBE0C00000013000000C20800003C000000060000000200000000
310
000060FC3F8F4000000060D39D53C0000000A095659FBE00000060FC3F8F4000000020B91952C0000000206AF89CBE0C00000013000000CA0800003C0000000600000002000000000000A000408FC000000020B91952C0000000206AF8ACBE00000060FC3F8F4000000020B91952C0000000206AF89CBE0C00000013000000
310
D20800003C0000000600000002000000000000A000408FC000000020B91952C0000000206AF8ACBE000000A000408FC000000060D39D53C0000000A09565AFBE0C00000013000000DA0800003C000000060000000200000000000060FC3F8F4000000020B91952C0000000206AF89CBE00000060FC3F8F40000000E09D0E52
310
C0000000C09185D6BF0C00000013000000E20800003C0000000600000002000000000000A000408FC0000000E09D0E52C0000000A09385D6BF00000060FC3F8F40000000E09D0E52C0000000C09185D6BF0C00000013000000EA0800003C0000000600000002000000000000A000408FC000000020B91952C0000000206AF8
310
ACBE000000A000408FC0000000E09D0E52C0000000A09385D6BF0C00000013000000F20800003C000000060000000200000000000060FC3F8F40000000C0170452C0000000E0F84FEDBF00000060FC3F8F40000000E09D0E52C0000000C09185D6BF0C00000013000000FA0800003C0000000600000002000000000000A000
310
408FC0000000C0170452C0000000C0F94FEDBF00000060FC3F8F40000000C0170452C0000000E0F84FEDBF0C00000013000000020900003C0000000600000002000000000000A000408FC0000000E09D0E52C0000000A09385D6BF000000A000408FC0000000C0170452C0000000C0F94FEDBF0C000000130000000A090000
310
3C000000060000000200000000000060FC3F8F4000000000000052C0000000800000F8BF00000060FC3F8F40000000C0170452C0000000E0F84FEDBF0C00000013000000120900003C0000000600000002000000000000A000408FC000000000000052C0000000E00000F8BF00000060FC3F8F4000000000000052C0000000
310
800000F8BF0C000000130000001A0900003C0000000600000002000000000000A000408FC000000000000052C0000000E00000F8BF000000A000408FC0000000C0170452C0000000C0F94FEDBF0C00000013000000220900003C000000060000000200000000000060FC3F8F4000000000000052C0000000800000F8BF0000
310
0060FC3F8F4000000000000052C000000020F8B218C00C000000130000002A0900003C0000000600000002000000000000A000408FC000000000000052C000000040F8B218C000000060FC3F8F4000000000000052C000000020F8B218C00C00000013000000320900003C0000000600000002000000000000A000408FC000
310
000000000052C0000000E00000F8BF000000A000408FC000000000000052C000000040F8B218C00C000000130000003A0900003C000000060000000200000000000060FC3F8F400000004043FB51C0000000A0B6351BC000000060FC3F8F4000000000000052C000000020F8B218C00C00000013000000420900003C000000
310
0600000002000000000000A000408FC00000004043FB51C000000040B7351BC000000060FC3F8F400000004043FB51C0000000A0B6351BC00C000000130000004A0900003C0000000600000002000000000000A000408FC000000000000052C000000040F8B218C0000000A000408FC00000004043FB51C000000040B7351B
310
C00C00000013000000520900003C000000060000000200000000000060FC3F8F400000004043FB51C0000000A0B6351BC000000060FC3F8F4000000020B4E851C0000000209E5D1EC00C000000130000005A0900003C0000000600000002000000000000A000408FC000000020B4E851C0000000409E5D1EC000000060FC3F
310
8F4000000020B4E851C0000000209E5D1EC00C00000013000000620900003C0000000600000002000000000000A000408FC00000004043FB51C000000040B7351BC0000000A000408FC000000020B4E851C0000000409E5D1EC00C000000130000006A0900003C000000060000000200000000000060FC3F8F40000000204C
310
D251C0000000003A3C20C000000060FC3F8F4000000020B4E851C0000000209E5D1EC00C00000013000000720900003C0000000600000002000000000000A000408FC0000000204CD251C0000000203A3C20C000000060FC3F8F40000000204CD251C0000000003A3C20C00C000000130000007A0900003C00000006000000
310
02000000000000A000408FC0000000204CD251C0000000203A3C20C0000000A000408FC000000020B4E851C0000000409E5D1EC00C00000013000000820900003C000000060000000200000000000060FC3F8F40000000204CD251C0000000003A3C20C000000060FC3F8F40000000206F8E51C00000000052FB22C00C0000
310
00130000008A0900003C0000000600000002000000000000A000408FC0000000206F8E51C00000002052FB22C000000060FC3F8F40000000206F8E51C00000000052FB22C00C00000013000000920900003C0000000600000002000000000000A000408FC0000000204CD251C0000000203A3C20C0000000A000408FC00000
310
00206F8E51C00000002052FB22C00C000000130000009A0900003C000000060000000200000000000060FC3F8F40000000C0D73E51C0000000C0F6EA26C000000060FC3F8F40000000206F8E51C00000000052FB22C00C00000013000000A20900003C0000000600000002000000000000A000408FC0000000C0D73E51C000
310
000020F7EA26C000000060FC3F8F40000000C0D73E51C0000000C0F6EA26C00C00000013000000AA0900003C0000000600000002000000000000A000408FC0000000206F8E51C00000002052FB22C0000000A000408FC0000000C0D73E51C000000020F7EA26C00C00000013000000B20900003C0000000600000002000000
310
00000060FC3F8F40000000C0D73E51C0000000C0F6EA26C000000060FC3F8F40000000408CFD50C000000000CB212BC00C00000013000000BA0900003C0000000600000002000000000000A000408FC0000000408CFD50C000000020CB212BC000000060FC3F8F40000000408CFD50C000000000CB212BC00C000000130000
310
00C20900003C0000000600000002000000000000A000408FC0000000C0D73E51C000000020F7EA26C0000000A000408FC0000000408CFD50C000000020CB212BC00C00000013000000CA0900003C000000060000000200000000000060FC3F8F400000004095C550C0000000C0021F30C000000060FC3F8F40000000408CFD
310
50C000000000CB212BC00C00000013000000D20900003C0000000600000002000000000000A000408FC00000004095C550C0000000C0021F30C000000060FC3F8F400000004095C550C0000000C0021F30C00C00000013000000DA0900003C0000000600000002000000000000A000408FC0000000408CFD50C000000020CB
310
212BC0000000A000408FC00000004095C550C0000000C0021F30C00C00000013000000E20900003C000000060000000200000000000060FC3F8F400000004095C550C0000000C0021F30C000000060FC3F8F40000000402CA950C000000020B20232C00C00000013000000EA0900003C0000000600000002000000000000A0
310
00408FC0000000402CA950C000000040B20232C000000060FC3F8F40000000402CA950C000000020B20232C00C00000013000000F20900003C0000000600000002000000000000A000408FC00000004095C550C0000000C0021F30C0000000A000408FC0000000402CA950C000000040B20232C00C00000013000000FA0900
310
003C000000060000000200000000000060FC3F8F40000000801A9350C000000040913234C000000060FC3F8F40000000402CA950C000000020B20232C00C00000013000000020A00003C0000000600000002000000000000A000408FC0000000801A9350C000000040913234C000000060FC3F8F40000000801A9350C00000
310
0040913234C00C000000130000000A0A00003C0000000600000002000000000000A000408FC0000000402CA950C000000040B20232C0000000A000408FC0000000801A9350C000000040913234C00C00000013000000120A00003C000000060000000200000000000060FC3F8F40000000801A9350C000000040913234C000
310
000060FC3F8F40000000A0C98150C0000000C06D3F36C00C000000130000001A0A00003C0000000600000002000000000000A000408FC0000000A0C98150C0000000C06D3F36C000000060FC3F8F40000000A0C98150C0000000C06D3F36C00C00000013000000220A00003C0000000600000002000000000000A000408FC0
310
000000801A9350C000000040913234C0000000A000408FC0000000A0C98150C0000000C06D3F36C00C000000130000002A0A00003C000000060000000200000000000060FC3F8F4000000080327650C0000000C006EB36C000000060FC3F8F40000000A0C98150C0000000C06D3F36C00C00000013000000320A00003C0000
310
000600000002000000000000A000408FC000000080327650C0000000C006EB36C000000060FC3F8F4000000080327650C0000000C006EB36C00C000000130000003A0A00003C0000000600000002000000000000A000408FC0000000A0C98150C0000000C06D3F36C0000000A000408FC000000080327650C0000000C006EB
310
36C00C00000013000000420A00003C000000060000000200000000000060FC3F8F4000000080327650C0000000C006EB36C000000060FC3F8F40000000C0C05850C0000000C0C9B737C00C000000130000004A0A00003C0000000600000002000000000000A000408FC0000000C0C05850C0000000C0C9B737C000000060FC
310
3F8F40000000C0C05850C0000000C0C9B737C00C00000013000000520A00003C0000000600000002000000000000A000408FC000000080327650C0000000C006EB36C0000000A000408FC0000000C0C05850C0000000C0C9B737C00C000000130000005A0A00003C000000060000000200000000000060FC3F8F40000000C0
310
C05850C0000000C0C9B737C000000060FC3F8F40000000801A2D50C000000040E85638C00C00000013000000620A00003C0000000600000002000000000000A000408FC0000000801A2D50C000000040E85638C000000060FC3F8F40000000801A2D50C000000040E85638C00C000000130000006A0A00003C000000060000
310
0002000000000000A000408FC0000000C0C05850C0000000C0C9B737C0000000A000408FC0000000801A2D50C000000040E85638C00C00000013000000720A00003C000000060000000200000000000060FC3F8F4000000000D4EE4FC0000000C039B938C000000060FC3F8F40000000801A2D50C000000040E85638C00C00
310
0000130000007A0A00003C0000000600000002000000000000A000408FC000000000D4EE4FC0000000C039B938C000000060FC3F8F4000000000D4EE4FC0000000C039B938C00C00000013000000820A00003C0000000600000002000000000000A000408FC0000000801A2D50C000000040E85638C0000000A000408FC000
310
000000D4EE4FC0000000C039B938C00C000000130000008A0A00003C000000060000000200000000000060FC3F8F40000000A08D794FC0000000A069D538C000000060FC3F8F4000000000D4EE4FC0000000C039B938C00C00000013000000920A00003C0000000600000002000000000000A000408FC0000000A08D794FC0
310
000000A069D538C000000060FC3F8F40000000A08D794FC0000000A069D538C00C000000130000009A0A00003C0000000600000002000000000000A000408FC0000000A08D794FC0000000A069D538C0000000A000408FC000000000D4EE4FC0000000C039B938C00C00000013000000A20A00003C00000006000000020000
310
0000000060FC3F8F40000000A08D794FC0000000A069D538C000000060FC3F8F40000000205EF84EC000000080E9B638C00C00000013000000AA0A00003C0000000600000002000000000000A000408FC0000000205EF84EC000000080E9B638C000000060FC3F8F40000000205EF84EC000000080E9B638C00C0000001300
310
0000B20A00003C0000000600000002000000000000A000408FC0000000A08D794FC0000000A069D538C0000000A000408FC0000000205EF84EC000000080E9B638C00C00000013000000BA0A00003C000000060000000200000000000060FC3F8F40000000205EF84EC000000080E9B638C000000060FC3F8F400000008027
310
714EC000000020708038C00C00000013000000C20A00003C0000000600000002000000000000A000408FC00000008027714EC000000020708038C000000060FC3F8F400000008027714EC000000020708038C00C00000013000000CA0A00003C0000000600000002000000000000A000408FC0000000205EF84EC000000080
310
E9B638C0000000A000408FC00000008027714EC000000020708038C00C00000013000000D20A00003C000000060000000200000000000060FC3F8F400000008027714EC000000020708038C000000060FC3F8F4000000040C9A94DC000000060E63338C00C00000013000000DA0A00003C0000000600000002000000000000
310
A000408FC000000040C9A94DC000000060E63338C000000060FC3F8F4000000040C9A94DC000000060E63338C00C00000013000000E20A00003C0000000600000002000000000000A000408FC00000008027714EC000000020708038C0000000A000408FC000000040C9A94DC000000060E63338C00C00000013000000EA0A
310
00003C000000060000000200000000000060FC3F8F4000000040C9A94DC000000060E63338C000000060FC3F8F4000000060E2C94CC000000080B62038C00C00000013000000F20A00003C0000000600000002000000000000A000408FC000000060E2C94CC000000080B62038C000000060FC3F8F4000000060E2C94CC000
310
000080B62038C00C00000013000000FA0A00003C0000000600000002000000000000A000408FC000000040C9A94DC000000060E63338C0000000A000408FC000000060E2C94CC000000080B62038C00C00000013000000020B00003C000000060000000200000000000060FC3F8F4000000060E2C94CC000000080B62038C0
310
00000060FC3F8F400000004077EB4BC0000000E08F5738C00C000000130000000A0B00003C0000000600000002000000000000A000408FC00000004077EB4BC0000000E08F5738C000000060FC3F8F400000004077EB4BC0000000E08F5738C00C00000013000000120B00003C0000000600000002000000000000A000408F
310
C000000060E2C94CC000000080B62038C0000000A000408FC00000004077EB4BC0000000E08F5738C00C000000130000001A0B00003C000000060000000200000000000060FC3F8F400000004077EB4BC0000000E08F5738C000000060FC3F8F40000000A09B144BC000000080F1D638C00C00000013000000220B00003C00
310
00000600000002000000000000A000408FC0000000A09B144BC000000080F1D638C000000060FC3F8F40000000A09B144BC000000080F1D638C00C000000130000002A0B00003C0000000600000002000000000000A000408FC00000004077EB4BC0000000E08F5738C0000000A000408FC0000000A09B144BC000000080F1
310
D638C00C00000013000000320B00003C000000060000000200000000000060FC3F8F40000000A09B144BC000000080F1D638C000000060FC3F8F40000000402E4B4AC000000000609B39C00C000000130000003A0B00003C0000000600000002000000000000A000408FC0000000402E4B4AC000000000609B39C000000060
310
FC3F8F40000000402E4B4AC000000000609B39C00C00000013000000420B00003C0000000600000002000000000000A000408FC0000000A09B144BC000000080F1D638C0000000A000408FC0000000402E4B4AC000000000609B39C00C000000130000004A0B00003C000000060000000200000000000060FC3F8F40000000
310
402E4B4AC000000000609B39C000000060FC3F8F40000000C0AF9449C0000000007D9F3AC00C00000013000000520B00003C0000000600000002000000000000A000408FC0000000C0AF9449C0000000007D9F3AC000000060FC3F8F40000000C0AF9449C0000000007D9F3AC00C000000130000005A0B00003C0000000600
310
000002000000000000A000408FC0000000402E4B4AC000000000609B39C0000000A000408FC0000000C0AF9449C0000000007D9F3AC00C00000013000000620B00003C000000060000000200000000000060FC3F8F40000000C0AF9449C0000000007D9F3AC000000060FC3F8F40000000401CF648C0000000E02CDC3BC00C
310
000000130000006A0B00003C0000000600000002000000000000A000408FC0000000401CF648C0000000E02CDC3BC000000060FC3F8F40000000401CF648C0000000E02CDC3BC00C00000013000000720B00003C0000000600000002000000000000A000408FC0000000C0AF9449C0000000007D9F3AC0000000A000408FC0
310
000000401CF648C0000000E02CDC3BC00C000000130000007A0B00003C000000060000000200000000000060FC3F8F4000000040C97348C000000060C9483DC000000060FC3F8F40000000401CF648C0000000E02CDC3BC00C00000013000000820B00003C0000000600000002000000000000A000408FC000000040C97348
310
C000000060C9483DC000000060FC3F8F4000000040C97348C000000060C9483DC00C000000130000008A0B00003C0000000600000002000000000000A000408FC0000000401CF648C0000000E02CDC3BC0000000A000408FC000000040C97348C000000060C9483DC00C00000013000000920B00003C000000060000000200
310
000000000060FC3F8F4000000040C97348C000000060C9483DC000000060FC3F8F4000000040461148C0000000805CDB3EC00C000000130000009A0B00003C0000000600000002000000000000A000408FC000000040461148C0000000805CDB3EC000000060FC3F8F4000000040461148C0000000805CDB3EC00C00000013
310
000000A20B00003C0000000600000002000000000000A000408FC000000040C97348C000000060C9483DC0000000A000408FC000000040461148C0000000805CDB3EC00C00000013000000AA0B00003C000000060000000200000000000060FC3F8F400000000045D147C000000080734440C000000060FC3F8F4000000040
310
461148C0000000805CDB3EC00C00000013000000B20B00003C0000000600000002000000000000A000408FC00000000045D147C000000080734440C000000060FC3F8F400000000045D147C000000080734440C00C00000013000000BA0B00003C0000000600000002000000000000A000408FC000000040461148C0000000
310
805CDB3EC0000000A000408FC00000000045D147C000000080734440C00C00000013000000C20B00003C000000060000000200000000000060FC3F8F400000000045D147C000000080734440C000000060FC3F8F400000008085B547C000000040D62241C00C00000013000000CA0B00003C00000006000000020000000000
310
00A000408FC00000008085B547C000000040D62241C000000060FC3F8F400000008085B547C000000040D62241C00C00000013000000D20B00003C0000000600000002000000000000A000408FC00000000045D147C000000080734440C0000000A000408FC00000008085B547C000000040D62241C00C00000013000000DA
310
0B00003C000000060000000200000000000060FC3F8F400000008085B547C000000040D62241C000000060FC3F8F400000004033B347C0000000A0EB8242C00C00000013000000E20B00003C0000000600000002000000000000A000408FC00000004033B347C0000000A0EB8242C000000060FC3F8F400000004033B347C0
310
000000A0EB8242C00C00000013000000EA0B00003C0000000600000002000000000000A000408FC00000008085B547C000000040D62241C0000000A000408FC00000004033B347C0000000A0EB8242C00C00000013000000F20B00003C000000060000000200000000000060FC3F8F400000004033B347C0000000A0EB8242
310
C000000060FC3F8F4000000080B3A847C0000000206ED742C00C00000013000000FA0B00003C0000000600000002000000000000A000408FC000000080B3A847C0000000206ED742C000000060FC3F8F4000000080B3A847C0000000206ED742C00C00000013000000020C00003C0000000600000002000000000000A00040
310
8FC00000004033B347C0000000A0EB8242C0000000A000408FC000000080B3A847C0000000206ED742C00C000000130000000A0C00003C000000060000000200000000000060FC3F8F4000000040AB7F47C0000000C0F24043C000000060FC3F8F4000000080B3A847C0000000206ED742C00C00000013000000120C00003C
310
0000000600000002000000000000A000408FC000000040AB7F47C0000000C0F24043C000000060FC3F8F4000000040AB7F47C0000000C0F24043C00C000000130000001A0C00003C0000000600000002000000000000A000408FC000000080B3A847C0000000206ED742C0000000A000408FC000000040AB7F47C0000000C0
310
F24043C00C00000013000000220C00003C000000060000000200000000000060FC3F8F4000000040AB7F47C0000000C0F24043C000000060FC3F8F40000000C0963947C000000040D79943C00C000000130000002A0C00003C0000000600000002000000000000A000408FC0000000C0963947C000000040D79943C0000000
310
60FC3F8F40000000C0963947C000000040D79943C00C00000013000000320C00003C0000000600000002000000000000A000408FC000000040AB7F47C0000000C0F24043C0000000A000408FC0000000C0963947C000000040D79943C00C000000130000003A0C00003C000000060000000200000000000060FC3F8F400000
310
00E015F646C000000060CACD43C000000060FC3F8F40000000C0963947C000000040D79943C00C00000013000000420C00003C0000000600000002000000000000A000408FC0000000E015F646C000000060CACD43C000000060FC3F8F40000000E015F646C000000060CACD43C00C000000130000004A0C00003C00000006
310
00000002000000000000A000408FC0000000C0963947C000000040D79943C0000000A000408FC0000000E015F646C000000060CACD43C00C00000013000000520C00003C000000060000000200000000000060FC3F8F40000000800CC346C000000080F5E643C000000060FC3F8F40000000E015F646C000000060CACD43C0
310
0C000000130000005A0C00003C0000000600000002000000000000A000408FC0000000800CC346C000000080F5E643C000000060FC3F8F40000000800CC346C000000080F5E643C00C00000013000000620C00003C0000000600000002000000000000A000408FC0000000800CC346C000000080F5E643C0000000A000408F
310
C0000000E015F646C000000060CACD43C00C000000130000006A0C00003C000000060000000200000000000060FC3F8F40000000800CC346C000000080F5E643C000000060FC3F8F40000000603BA641C000000060C1F745C00C00000013000000720C00003C0000000600000002000000000000A000408FC0000000603BA6
310
41C000000060C1F745C000000060FC3F8F40000000603BA641C000000060C1F745C00C000000130000007A0C00003C0000000600000002000000000000A000408FC0000000800CC346C000000080F5E643C0000000A000408FC0000000603BA641C000000060C1F745C00C00000013000000820C00003C0000000600000002
310
00000000000060FC3F8F40000000603BA641C000000060C1F745C000000060FC3F8F4000000040251441C000000040B63F46C00C000000130000008A0C00003C0000000600000002000000000000A000408FC000000040251441C000000040B63F46C000000060FC3F8F4000000040251441C000000040B63F46C00C000000
310
13000000920C00003C0000000600000002000000000000A000408FC0000000603BA641C000000060C1F745C0000000A000408FC000000040251441C000000040B63F46C00C000000130000009A0C00003C000000060000000200000000000060FC3F8F40000000C0C36140C00000008017BB46C000000060FC3F8F40000000
310
40251441C000000040B63F46C00C00000013000000A20C00003C0000000600000002000000000000A000408FC0000000C0C36140C00000008017BB46C000000060FC3F8F40000000C0C36140C00000008017BB46C00C00000013000000AA0C00003C0000000600000002000000000000A000408FC000000040251441C00000
310
0040B63F46C0000000A000408FC0000000C0C36140C00000008017BB46C00C00000013000000B20C00003C000000060000000200000000000060FC3F8F40000000C0C36140C00000008017BB46C000000060FC3F8F4000000080C38F3FC000000040F05347C00C00000013000000BA0C00003C000000060000000200000000
310
0000A000408FC000000080C38F3FC000000040F05347C000000060FC3F8F4000000080C38F3FC000000040F05347C00C00000013000000C20C00003C0000000600000002000000000000A000408FC0000000C0C36140C00000008017BB46C0000000A000408FC000000080C38F3FC000000040F05347C00C00000013000000
310
CA0C00003C000000060000000200000000000060FC3F8F4000000080C38F3FC000000040F05347C000000060FC3F8F40000000C099963EC0000000607B0548C00C00000013000000D20C00003C0000000600000002000000000000A000408FC0000000C099963EC0000000607B0548C000000060FC3F8F40000000C099963E
310
C0000000607B0548C00C00000013000000DA0C00003C0000000600000002000000000000A000408FC000000080C38F3FC000000040F05347C0000000A000408FC0000000C099963EC0000000607B0548C00C00000013000000E20C00003C000000060000000200000000000060FC3F8F4000000040D1DF3DC0000000002ECA
310
48C000000060FC3F8F40000000C099963EC0000000607B0548C00C00000013000000EA0C00003C0000000600000002000000000000A000408FC000000040D1DF3DC0000000002ECA48C000000060FC3F8F4000000040D1DF3DC0000000002ECA48C00C00000013000000F20C00003C0000000600000002000000000000A000
310
408FC0000000C099963EC0000000607B0548C0000000A000408FC000000040D1DF3DC0000000002ECA48C00C00000013000000FA0C00003C000000060000000200000000000060FC3F8F40000000001F713DC000000000E49B49C000000060FC3F8F4000000040D1DF3DC0000000002ECA48C00C00000013000000020D0000
310
3C0000000600000002000000000000A000408FC0000000001F713DC000000000E49B49C000000060FC3F8F40000000001F713DC000000000E49B49C00C000000130000000A0D00003C0000000600000002000000000000A000408FC000000040D1DF3DC0000000002ECA48C0000000A000408FC0000000001F713DC0000000
310
00E49B49C00C00000013000000120D00003C000000060000000200000000000060FC3F8F4000000040F74D3DC0000000C011744AC000000060FC3F8F40000000001F713DC000000000E49B49C00C000000130000001A0D00003C0000000600000002000000000000A000408FC000000040F74D3DC0000000C011744AC00000
310
0060FC3F8F4000000040F74D3DC0000000C011744AC00C00000013000000220D00003C0000000600000002000000000000A000408FC0000000001F713DC000000000E49B49C0000000A000408FC000000040F74D3DC0000000C011744AC00C000000130000002A0D00003C000000060000000200000000000060FC3F8F4000
310
000040F74D3DC0000000C011744AC000000060FC3F8F40000000608B633DC0000000C08E164BC00C00000013000000320D00003C0000000600000002000000000000A000408FC0000000608B633DC0000000C08E164BC000000060FC3F8F40000000608B633DC0000000C08E164BC00C000000130000003A0D00003C000000
310
0600000002000000000000A000408FC000000040F74D3DC0000000C011744AC0000000A000408FC0000000608B633DC0000000C08E164BC00C00000013000000420D00003C000000060000000200000000000060FC3F8F40000000608B633DC0000000C08E164BC000000060FC3F8F40000000005B8B3DC0000000A060814B
310
C00C000000130000004A0D00003C0000000600000002000000000000A000408FC0000000005B8B3DC0000000A060814BC000000060FC3F8F40000000005B8B3DC0000000A060814BC00C00000013000000520D00003C0000000600000002000000000000A000408FC0000000608B633DC0000000C08E164BC0000000A00040
310
8FC0000000005B8B3DC0000000A060814BC00C000000130000005A0D00003C000000060000000200000000000060FC3F8F40000000005B8B3DC0000000A060814BC000000060FC3F8F4000000000479D3DC000000060B0D24BC00C00000013000000620D00003C0000000600000002000000000000A000408FC00000000047
310
9D3DC000000060B0D24BC000000060FC3F8F4000000000479D3DC000000060B0D24BC00C000000130000006A0D00003C0000000600000002000000000000A000408FC0000000005B8B3DC0000000A060814BC0000000A000408FC000000000479D3DC000000060B0D24BC00C00000013000000720D00003C00000006000000
310
0200000000000060FC3F8F40000000A090813DC0000000C0963E4CC000000060FC3F8F4000000000479D3DC000000060B0D24BC00C000000130000007A0D00003C0000000600000002000000000000A000408FC0000000A090813DC0000000C0963E4CC000000060FC3F8F40000000A090813DC0000000C0963E4CC00C0000
310
0013000000820D00003C0000000600000002000000000000A000408FC000000000479D3DC000000060B0D24BC0000000A000408FC0000000A090813DC0000000C0963E4CC00C000000130000008A0D00003C000000060000000200000000000060FC3F8F4000000080542A3DC00000008037A24CC000000060FC3F8F400000
310
00A090813DC0000000C0963E4CC00C00000013000000920D00003C0000000600000002000000000000A000408FC000000080542A3DC00000008037A24CC000000060FC3F8F4000000080542A3DC00000008037A24CC00C000000130000009A0D00003C0000000600000002000000000000A000408FC0000000A090813DC000
310
0000C0963E4CC0000000A000408FC000000080542A3DC00000008037A24CC00C00000013000000A20D00003C000000060000000200000000000060FC3F8F4000000020909E3CC00000008096F54CC000000060FC3F8F4000000080542A3DC00000008037A24CC00C00000013000000AA0D00003C0000000600000002000000
310
000000A000408FC000000020909E3CC00000008096F54CC000000060FC3F8F4000000020909E3CC00000008096F54CC00C00000013000000B20D00003C0000000600000002000000000000A000408FC000000080542A3DC00000008037A24CC0000000A000408FC000000020909E3CC00000008096F54CC00C000000130000
310
00BA0D00003C000000060000000200000000000060FC3F8F40000000A043BE3BC0000000C031414DC000000060FC3F8F4000000020909E3CC00000008096F54CC00C00000013000000C20D00003C0000000600000002000000000000A000408FC0000000A043BE3BC0000000C031414DC000000060FC3F8F40000000A043BE
310
3BC0000000C031414DC00C00000013000000CA0D00003C0000000600000002000000000000A000408FC0000000A043BE3BC0000000C031414DC0000000A000408FC000000020909E3CC00000008096F54CC00C00000013000000D20D00003C000000060000000200000000000060FC3F8F40000000A043BE3BC0000000C031
310
414DC000000060FC3F8F40000000C016503AC000000040C1B14DC00C00000013000000DA0D00003C0000000600000002000000000000A000408FC0000000C016503AC000000040C1B14DC000000060FC3F8F40000000C016503AC000000040C1B14DC00C00000013000000E20D00003C0000000600000002000000000000A0
310
00408FC0000000A043BE3BC0000000C031414DC0000000A000408FC0000000C016503AC000000040C1B14DC00C00000013000000EA0D00003C000000060000000200000000000060FC3F8F40000000C05E3D38C000000080016C4EC000000060FC3F8F40000000C016503AC000000040C1B14DC00C00000013000000F20D00
310
003C0000000600000002000000000000A000408FC0000000C05E3D38C000000080016C4EC000000060FC3F8F40000000C05E3D38C000000080016C4EC00C00000013000000FA0D00003C0000000600000002000000000000A000408FC0000000C016503AC000000040C1B14DC0000000A000408FC0000000C05E3D38C00000
310
0080016C4EC00C00000013000000020E00003C000000060000000200000000000060FC3F8F40000000C05E3D38C000000080016C4EC000000060FC3F8F400000006028A435C0000000E0027D4FC00C000000130000000A0E00003C0000000600000002000000000000A000408FC00000006028A435C0000000E0027D4FC000
310
000060FC3F8F400000006028A435C0000000E0027D4FC00C00000013000000120E00003C0000000600000002000000000000A000408FC0000000C05E3D38C000000080016C4EC0000000A000408FC00000006028A435C0000000E0027D4FC00C000000130000001A0E00003C000000060000000200000000000060FC3F8F40
310
000000C0A84733C0000000000B5350C000000060FC3F8F400000006028A435C0000000E0027D4FC00C00000013000000220E00003C0000000600000002000000000000A000408FC0000000C0A84733C0000000000B5350C000000060FC3F8F40000000C0A84733C0000000000B5350C00C000000130000002A0E00003C0000
310
000600000002000000000000A000408FC00000006028A435C0000000E0027D4FC0000000A000408FC0000000C0A84733C0000000000B5350C00C00000013000000320E00003C000000060000000200000000000060FC3F8F40000000C0A84733C0000000000B5350C000000060FC3F8F4000000080BD3431C0000000C068EF
310
50C00C000000130000003A0E00003C0000000600000002000000000000A000408FC000000080BD3431C0000000C068EF50C000000060FC3F8F4000000080BD3431C0000000C068EF50C00C00000013000000420E00003C0000000600000002000000000000A000408FC0000000C0A84733C0000000000B5350C0000000A000
310
408FC000000080BD3431C0000000C068EF50C00C000000130000004A0E00003C000000060000000200000000000060FC3F8F40000000003EDE2EC0000000C0349151C000000060FC3F8F4000000080BD3431C0000000C068EF50C00C00000013000000520E00003C0000000600000002000000000000A000408FC0000000E0
310
3DDE2EC0000000C0349151C000000060FC3F8F40000000003EDE2EC0000000C0349151C00C000000130000005A0E00003C0000000600000002000000000000A000408FC000000080BD3431C0000000C068EF50C0000000A000408FC0000000E03DDE2EC0000000C0349151C00C00000013000000620E00003C000000060000
310
000200000000000060FC3F8F400000000011F92BC0000000C0973352C000000060FC3F8F40000000003EDE2EC0000000C0349151C00C000000130000006A0E00003C0000000600000002000000000000A000408FC0000000E010F92BC0000000C0973352C000000060FC3F8F400000000011F92BC0000000C0973352C00C00
310
000013000000720E00003C0000000600000002000000000000A000408FC0000000E03DDE2EC0000000C0349151C0000000A000408FC0000000E010F92BC0000000C0973352C00C000000130000007A0E00003C000000060000000200000000000060FC3F8F4000000080BFC629C0000000400BCD52C000000060FC3F8F4000
310
00000011F92BC0000000C0973352C00C00000013000000820E00003C0000000600000002000000000000A000408FC000000060BFC629C0000000400BCD52C000000060FC3F8F4000000080BFC629C0000000400BCD52C00C000000130000008A0E00003C0000000600000002000000000000A000408FC0000000E010F92BC0
310
000000C0973352C0000000A000408FC000000060BFC629C0000000400BCD52C00C00000013000000920E00003C000000060000000200000000000060FC3F8F4000000080BFC629C0000000400BCD52C000000060FC3F8F4000000000531F28C000000000086453C00C000000130000009A0E00003C00000006000000020000
310
00000000A000408FC0000000E0521F28C000000000086453C000000060FC3F8F4000000000531F28C000000000086453C00C00000013000000A20E00003C0000000600000002000000000000A000408FC000000060BFC629C0000000400BCD52C0000000A000408FC0000000E0521F28C000000000086453C00C0000001300
310
0000AA0E00003C000000060000000200000000000060FC3F8F40000000803DE126C000000000E40354C000000060FC3F8F4000000000531F28C000000000086453C00C00000013000000B20E00003C0000000600000002000000000000A000408FC0000000603DE126C000000000E40354C000000060FC3F8F40000000803D
310
E126C000000000E40354C00C00000013000000BA0E00003C0000000600000002000000000000A000408FC0000000E0521F28C000000000086453C0000000A000408FC0000000603DE126C000000000E40354C00C00000013000000C20E00003C000000060000000200000000000060FC3F8F40000000803DE126C000000000
310
E40354C000000060FC3F8F4000000000BF2E26C000000080258A54C00C00000013000000CA0E00003C0000000600000002000000000000A000408FC0000000E0BE2E26C000000080258A54C000000060FC3F8F4000000000BF2E26C000000080258A54C00C00000013000000D20E00003C0000000600000002000000000000
310
A000408FC0000000603DE126C000000000E40354C0000000A000408FC0000000E0BE2E26C000000080258A54C00C00000013000000DA0E00003C000000060000000200000000000060FC3F8F4000000000BF2E26C000000080258A54C000000060FC3F8F4000000000459125C0000000C098C054C00C00000013000000E20E
310
00003C0000000600000002000000000000A000408FC0000000E0449125C0000000C098C054C000000060FC3F8F4000000000459125C0000000C098C054C00C00000013000000EA0E00003C0000000600000002000000000000A000408FC0000000E0BE2E26C000000080258A54C0000000A000408FC0000000E0449125C000
310
0000C098C054C00C00000013000000F20E00003C000000060000000200000000000060FC3F8F4000000000459125C0000000C098C054C000000060FC3F8F4000000000C47824C0000000E0ABEE54C00C00000013000000FA0E00003C0000000600000002000000000000A000408FC0000000E0C37824C0000000E0ABEE54C0
310
00000060FC3F8F4000000000C47824C0000000E0ABEE54C00C00000013000000020F00003C0000000600000002000000000000A000408FC0000000E0449125C0000000C098C054C0000000A000408FC0000000E0C37824C0000000E0ABEE54C00C000000130000000A0F00003C000000060000000200000000000060FC3F8F
310
4000000080EDFE22C0000000E0271055C000000060FC3F8F4000000000C47824C0000000E0ABEE54C00C00000013000000120F00003C0000000600000002000000000000A000408FC000000060EDFE22C0000000E0271055C000000060FC3F8F4000000080EDFE22C0000000E0271055C00C000000130000001A0F00003C00
310
00000600000002000000000000A000408FC0000000E0C37824C0000000E0ABEE54C0000000A000408FC000000060EDFE22C0000000E0271055C00C00000013000000220F00003C000000060000000200000000000060FC3F8F4000000080EDFE22C0000000E0271055C000000060FC3F8F400000008038B921C000000040A7
310
1F55C00C000000130000002A0F00003C0000000600000002000000000000A000408FC00000006038B921C000000040A71F55C000000060FC3F8F400000008038B921C000000040A71F55C00C00000013000000320F00003C0000000600000002000000000000A000408FC00000006038B921C000000040A71F55C0000000A0
310
00408FC000000060EDFE22C0000000E0271055C00C000000130000003A0F00003C000000060000000200000000000060FC3F8F40000000001770E9BF000000807C9C55C000000060FC3F8F400000008038B921C000000040A71F55C00C00000013000000420F00003C0000000600000002000000000000A000408FC0000000
310
E01570E9BF000000807C9C55C000000060FC3F8F40000000001770E9BF000000807C9C55C00C000000130000004A0F00003C0000000600000002000000000000A000408FC00000006038B921C000000040A71F55C0000000A000408FC0000000E01570E9BF000000807C9C55C00C00000013000000520F00003C0000000600
310
00000200000000000060FC3F8F40000000001770E9BF000000807C9C55C000000060FC3F8F40000000C05DB5D8BF000000C0D5A455C00C000000130000005A0F00003C0000000600000002000000000000A000408FC0000000A05BB5D8BF000000C0D5A455C000000060FC3F8F40000000C05DB5D8BF000000C0D5A455C00C
310
00000013000000620F00003C0000000600000002000000000000A000408FC0000000E01570E9BF000000807C9C55C0000000A000408FC0000000A05BB5D8BF000000C0D5A455C00C000000130000006A0F00003C000000060000000200000000000060FC3F8F40000000C05DB5D8BF000000C0D5A455C000000060FC3F8F40
310
000000E0BC5BA13E000000E0D4B055C00C00000013000000720F00003C0000000600000002000000000000A000408FC0000000E0BC5BB13E000000E0D4B055C000000060FC3F8F40000000E0BC5BA13E000000E0D4B055C00C000000130000007A0F00003C0000000600000002000000000000A000408FC0000000A05BB5D8
310
BF000000C0D5A455C0000000A000408FC0000000E0BC5BB13E000000E0D4B055C00C00000013000000820F00003C000000060000000200000000000060FC3F8F40000000E0BC5BA13E000000E0D4B055C000000060FC3F8F400000004030B0A23E00000000415A57C00C000000130000008A0F00003C000000060000000200
310
0000000000A000408FC00000004030B0B23E00000000415A57C000000060FC3F8F400000004030B0A23E00000000415A57C00C00000013000000920F00003C0000000600000002000000000000A000408FC0000000E0BC5BB13E000000E0D4B055C0000000A000408FC00000004030B0B23E00000000415A57C00C00000013
310
0000009A0F00003C000000060000000200000000000060FC3F8F400000004030B0A23E00000000415A57C000000060FC3F8F40000000C0765AE1BF000000808C6F57C00C00000013000000A20F00003C0000000600000002000000000000A000408FC0000000A0755AE1BF000000808C6F57C000000060FC3F8F40000000C0
310
765AE1BF000000808C6F57C00C00000013000000AA0F00003C0000000600000002000000000000A000408FC0000000A0755AE1BF000000808C6F57C0000000A000408FC00000004030B0B23E00000000415A57C00C00000013000000B20F00003C000000060000000200000000000060FC3F8F40000000C0765AE1BF000000
310
808C6F57C000000060FC3F8F40000000806347F0BF00000020DB8F57C00C00000013000000BA0F00003C0000000600000002000000000000A000408FC0000000E06247F0BF00000020DB8F57C000000060FC3F8F40000000806347F0BF00000020DB8F57C00C00000013000000C20F00003C00000006000000020000000000
310
00A000408FC0000000A0755AE1BF000000808C6F57C0000000A000408FC0000000E06247F0BF00000020DB8F57C00C00000013000000CA0F00003C000000060000000200000000000060FC3F8F40000000806347F0BF00000020DB8F57C000000060FC3F8F4000000080D33EF4BF000000004AB957C00C00000013000000D2
310
0F00003C0000000600000002000000000000A000408FC0000000E0D23EF4BF000000004AB957C000000060FC3F8F4000000080D33EF4BF000000004AB957C00C00000013000000DA0F00003C0000000600000002000000000000A000408FC0000000E06247F0BF00000020DB8F57C0000000A000408FC0000000E0D23EF4BF
310
000000004AB957C00C00000013000000E20F00003C000000060000000200000000000060FC3F8F400000006083FBF3BF000000C0A4E557C000000060FC3F8F4000000080D33EF4BF000000004AB957C00C00000013000000EA0F00003C0000000600000002000000000000A000408FC0000000C082FBF3BF000000C0A4E557
310
C000000060FC3F8F400000006083FBF3BF000000C0A4E557C00C00000013000000F20F00003C0000000600000002000000000000A000408FC0000000E0D23EF4BF000000004AB957C0000000A000408FC0000000C082FBF3BF000000C0A4E557C00C00000013000000FA0F00003C000000060000000200000000000060FC3F
310
8F400000006083FBF3BF000000C0A4E557C000000060FC3F8F40000000C0160FEFBF00000020470E58C00C00000013000000021000003C0000000600000002000000000000A000408FC0000000A0150FEFBF00000020470E58C000000060FC3F8F40000000C0160FEFBF00000020470E58C00C000000130000000A1000003C
310
0000000600000002000000000000A000408FC0000000C082FBF3BF000000C0A4E557C0000000A000408FC0000000A0150FEFBF00000020470E58C00C00000013000000121000003C000000060000000200000000000060FC3F8F40000000806D36DEBF000000801B2D58C000000060FC3F8F40000000C0160FEFBF00000020
310
470E58C00C000000130000001A1000003C0000000600000002000000000000A000408FC0000000206B36DEBF000000801B2D58C000000060FC3F8F40000000806D36DEBF000000801B2D58C00C00000013000000221000003C0000000600000002000000000000A000408FC0000000A0150FEFBF00000020470E58C0000000
310
A000408FC0000000206B36DEBF000000801B2D58C00C000000130000002A1000003C000000060000000200000000000060FC3F8F40000000806D36DEBF000000801B2D58C000000060FC3F8F40000000006B64A33E00000060773B58C00C00000013000000321000003C0000000600000002000000000000A000408FC00000
310
00006B64B33E00000060773B58C000000060FC3F8F40000000006B64A33E00000060773B58C00C000000130000003A1000003C0000000600000002000000000000A000408FC0000000206B36DEBF000000801B2D58C0000000A000408FC0000000006B64B33E00000060773B58C00C00000013000000421000003C00000006
310
0000000200000000000060FC3F8F40000000006B64A33E00000060773B58C000000060FC3F8F4000000040C801A53E0000000000405AC00C000000130000004A1000003C0000000600000002000000000000A000408FC000000040C801B53E0000000000405AC0000000A000408FC0000000006B64B33E00000060773B58C0
310
0C00000013000000521000003C0000000600000002000000000000A000408FC000000000008056C0000000A0F77822C0000000A000408FC0000000A071AC54C000000020D428DFBF0C000000130000005A1000003C0000000600000002000000000000A000408FC0000000A0F57D56C0000000A034F922C0000000A000408F
310
C0000000A071AC54C000000020D428DFBF0C00000013000000621000003C0000000600000002000000000000A000408FC0000000806B6E56C0000000206FD923C0000000A000408FC0000000A071AC54C000000020D428DFBF0C000000130000006A1000003C0000000600000002000000000000A000408FC000000020F977
310
56C0000000A0377123C0000000A000408FC0000000A071AC54C000000020D428DFBF0C00000013000000721000003C0000000600000002000000000000A000408FC000000020E76156C0000000A0392B24C0000000A000408FC000000000068C54C000000000FACCEFBF0C000000130000007A1000003C0000000600000002
310
000000000000A000408FC0000000003B5356C0000000A04C6124C0000000A000408FC000000000068C54C000000000FACCEFBF0C00000013000000821000003C0000000600000002000000000000A000408FC000000000564356C000000020447824C0000000A000408FC000000000068C54C000000000FACCEFBF0C000000
310
130000008A1000003C0000000600000002000000000000A000408FC0000000A0383356C000000020A86E24C0000000A000408FC000000000068C54C000000000FACCEFBF0C00000013000000921000003C0000000600000002000000000000A000408FC0000000600AF154C0000000A0774524C0000000A000408FC0000000
310
00A03354C0000000004DF4F3BF0C000000130000009A1000003C0000000600000002000000000000A000408FC0000000E03DCB55C0000000200FFE23C0000000A000408FC0000000C07A6154C0000000000D2FF4BF0C00000013000000A21000003C0000000600000002000000000000A000408FC0000000600AF154C00000
310
00A0774524C0000000A000408FC000000040331354C00000000009F1F0BF0C00000013000000AA1000003C0000000600000002000000000000A000408FC000000000000052C0000000E00000F8BF000000A000408FC000000040331354C00000000009F1F0BF0C00000013000000B21000003C000000060000000200000000
310
0000A000408FC0000000A0183B54C0000000A0DB5B26C0000000A000408FC000000000000052C0000000E00000F8BF0C00000013000000BA1000003C0000000600000002000000000000A000408FC0000000C0170452C0000000C0F94FEDBF000000A000408FC000000040331354C00000000009F1F0BF0C00000013000000
310
C21000003C0000000600000002000000000000A000408FC0000000E09D0E52C0000000A09385D6BF000000A000408FC000000060D39D53C0000000A09565AFBE0C00000013000000CA1000003C0000000600000002000000000000A000408FC0000000A0183B54C0000000A0DB5B26C0000000A000408FC000000000000052
310
C000000040F8B218C00C00000013000000D21000003C0000000600000002000000000000A000408FC0000000A0183B54C0000000A0DB5B26C0000000A000408FC00000004043FB51C000000040B7351BC00C00000013000000DA1000003C0000000600000002000000000000A000408FC0000000004A9D53C0000000A00A21
310
2AC0000000A000408FC000000020B4E851C0000000409E5D1EC00C00000013000000E21000003C0000000600000002000000000000A000408FC0000000004A9D53C0000000A00A212AC0000000A000408FC0000000204CD251C0000000203A3C20C00C00000013000000EA1000003C0000000600000002000000000000A000
310
408FC000000080742053C0000000A0D25B2FC0000000A000408FC0000000206F8E51C00000002052FB22C00C00000013000000F21000003C0000000600000002000000000000A000408FC000000080742053C0000000A0D25B2FC0000000A000408FC0000000C0D73E51C000000020F7EA26C00C00000013000000FA100000
310
3C0000000600000002000000000000A000408FC00000000007CF52C0000000E03F2033C0000000A000408FC0000000408CFD50C000000020CB212BC00C00000013000000021100003C0000000600000002000000000000A000408FC0000000004DA152C000000080318537C0000000A000408FC0000000402CA950C0000000
310
40B20232C00C000000130000000A1100003C0000000600000002000000000000A000408FC00000000007CF52C0000000E03F2033C0000000A000408FC00000004095C550C0000000C0021F30C00C00000013000000121100003C0000000600000002000000000000A000408FC0000000004DA152C000000080318537C00000
310
00A000408FC0000000801A9350C000000040913234C00C000000130000001A1100003C0000000600000002000000000000A000408FC000000020F36752C00000004095573BC0000000A000408FC0000000A0C98150C0000000C06D3F36C00C00000013000000221100003C0000000600000002000000000000A000408FC000
310
000020F36752C00000004095573BC0000000A000408FC000000080327650C0000000C006EB36C00C000000130000002A1100003C0000000600000002000000000000A000408FC000000080980352C000000080D5103EC0000000A000408FC0000000C0C05850C0000000C0C9B737C00C00000013000000321100003C000000
310
0600000002000000000000A000408FC0000000E0021A4EC0000000A0E39040C0000000A000408FC0000000205EF84EC000000080E9B638C00C000000130000003A1100003C0000000600000002000000000000A000408FC00000004054DD4FC00000006049BC40C0000000A000408FC0000000A08D794FC0000000A069D538
310
C00C00000013000000421100003C0000000600000002000000000000A000408FC00000004066D650C000000020708E40C0000000A000408FC000000000D4EE4FC0000000C039B938C00C000000130000004A1100003C0000000600000002000000000000A000408FC000000040247C51C00000004000FC3FC0000000A00040
310
8FC0000000801A2D50C000000040E85638C00C00000013000000521100003C0000000600000002000000000000A000408FC000000020433F4DC0000000A0DA6240C0000000A000408FC00000008027714EC000000020708038C00C000000130000005A1100003C0000000600000002000000000000A000408FC0000000A04F
310
114DC000000080805B40C0000000A000408FC000000040C9A94DC000000060E63338C00C00000013000000621100003C0000000600000002000000000000A000408FC0000000A04F114DC000000080805B40C0000000A000408FC000000060E2C94CC000000080B62038C00C000000130000006A1100003C00000006000000
310
02000000000000A000408FC000000080FFCB4CC000000080556140C0000000A000408FC00000004077EB4BC0000000E08F5738C00C00000013000000721100003C0000000600000002000000000000A000408FC000000080FFCB4CC000000080556140C0000000A000408FC0000000A09B144BC000000080F1D638C00C0000
310
00130000007A1100003C0000000600000002000000000000A000408FC00000000087764CC000000040378440C0000000A000408FC0000000402E4B4AC000000000609B39C00C00000013000000821100003C0000000600000002000000000000A000408FC0000000A015334CC0000000003FC340C0000000A000408FC00000
310
00C0AF9449C0000000007D9F3AC00C000000130000008A1100003C0000000600000002000000000000A000408FC00000000000004CC000000000EA5A41C0000000A000408FC00000008085B547C000000040D62241C00C00000013000000921100003C0000000600000002000000000000A000408FC00000000000004CC000
310
000000EA5A41C0000000A000408FC00000000045D147C000000080734440C00C000000130000009A1100003C0000000600000002000000000000A000408FC00000000000004CC000000000181646C0000000A000408FC00000004033B347C0000000A0EB8242C00C00000013000000A21100003C0000000600000002000000
310
000000A000408FC000000040820A4CC000000020281641C0000000A000408FC000000040461148C0000000805CDB3EC00C00000013000000AA1100003C0000000600000002000000000000A000408FC000000040820A4CC000000020281641C0000000A000408FC000000040C97348C000000060C9483DC00C000000130000
310
00B21100003C0000000600000002000000000000A000408FC0000000A015334CC0000000003FC340C0000000A000408FC0000000401CF648C0000000E02CDC3BC00C00000013000000BA1100003C0000000600000002000000000000A000408FC0000000C068FC4BC0000000E0313446C0000000A000408FC000000080B3A8
310
47C0000000206ED742C00C00000013000000C21100003C0000000600000002000000000000A000408FC000000040994243C00000004066F449C0000000A000408FC0000000603BA641C000000060C1F745C00C00000013000000CA1100003C0000000600000002000000000000A000408FC000000020F3AF4BC000000000C6
310
8C46C0000000A000408FC0000000800CC346C000000080F5E643C00C00000013000000D21100003C0000000600000002000000000000A000408FC00000008083CA4BC0000000E02A7E46C0000000A000408FC0000000E015F646C000000060CACD43C00C00000013000000DA1100003C0000000600000002000000000000A0
310
00408FC000000000E4E04BC000000080BC6946C0000000A000408FC0000000C0963947C000000040D79943C00C00000013000000E21100003C0000000600000002000000000000A000408FC000000000D9F14BC0000000A0985046C0000000A000408FC000000040AB7F47C0000000C0F24043C00C00000013000000EA1100
310
003C0000000600000002000000000000A000408FC0000000409C2743C0000000604F034AC0000000A000408FC000000040251441C000000040B63F46C00C00000013000000F21100003C0000000600000002000000000000A000408FC000000040A92144C0000000C029E74EC0000000A000408FC0000000608B633DC00000
310
00C08E164BC00C00000013000000FA1100003C0000000600000002000000000000A000408FC000000000E9F642C000000040358C4AC0000000A000408FC000000040F74D3DC0000000C011744AC00C00000013000000021200003C0000000600000002000000000000A000408FC0000000A0FA1043C0000000003B184AC000
310
0000A000408FC0000000C0C36140C00000008017BB46C00C000000130000000A1200003C0000000600000002000000000000A000408FC00000006093F242C000000020AE6D4AC0000000A000408FC0000000001F713DC000000000E49B49C00C00000013000000121200003C0000000600000002000000000000A000408FC0
310
000000E0A9F542C000000020044F4AC0000000A000408FC000000040D1DF3DC0000000002ECA48C00C000000130000001A1200003C0000000600000002000000000000A000408FC000000020FFFF42C000000040F7314AC0000000A000408FC000000080C38F3FC000000040F05347C00C00000013000000221200003C0000
310
000600000002000000000000A000408FC000000020FFFF42C000000040F7314AC0000000A000408FC0000000C099963EC0000000607B0548C00C000000130000002A1200003C0000000600000002000000000000A000408FC0000000C0032644C000000060B3094FC0000000A000408FC0000000005B8B3DC0000000A06081
310
4BC00C00000013000000321200003C0000000600000002000000000000A000408FC000000080400B43C0000000E078B14FC0000000A000408FC0000000C016503AC000000040C1B14DC00C000000130000003A1200003C0000000600000002000000000000A000408FC000000020F5BE43C0000000E0D6854FC0000000A000
310
408FC0000000A043BE3BC0000000C031414DC00C00000013000000421200003C0000000600000002000000000000A000408FC0000000C0DCDF43C0000000407A7A4FC0000000A000408FC000000020909E3CC00000008096F54CC00C000000130000004A1200003C0000000600000002000000000000A000408FC0000000A0
310
7BFC43C000000000AD664FC0000000A000408FC000000080542A3DC00000008037A24CC00C00000013000000521200003C0000000600000002000000000000A000408FC0000000A0B51244C000000040E64B4FC0000000A000408FC0000000A090813DC0000000C0963E4CC00C000000130000005A1200003C000000060000
310
0002000000000000A000408FC000000020E72044C000000060202C4FC0000000A000408FC000000000479D3DC000000060B0D24BC00C00000013000000621200003C0000000600000002000000000000A000408FC00000004096AB40C0000000C0325050C0000000A000408FC0000000C05E3D38C000000080016C4EC00C00
310
0000130000006A1200003C0000000600000002000000000000A000408FC0000000406ADF41C0000000007B0A50C0000000A000408FC0000000C016503AC000000040C1B14DC00C00000013000000721200003C0000000600000002000000000000A000408FC0000000C07DEA3EC0000000C08AAA50C0000000A000408FC000
310
0000C05E3D38C000000080016C4EC00C000000130000007A1200003C0000000600000002000000000000A000408FC000000040BF903CC000000040CD1751C0000000A000408FC00000006028A435C0000000E0027D4FC00C00000013000000821200003C0000000600000002000000000000A000408FC0000000201E7E38C0
310
00000000831952C0000000A000408FC0000000C0A84733C0000000000B5350C00C000000130000008A1200003C0000000600000002000000000000A000408FC0000000A0A0653AC000000000D19351C0000000A000408FC00000006028A435C0000000E0027D4FC00C00000013000000921200003C00000006000000020000
310
00000000A000408FC0000000601BE736C0000000C0B3A352C0000000A000408FC000000080BD3431C0000000C068EF50C00C000000130000009A1200003C0000000600000002000000000000A000408FC0000000209B6834C000000080F67756C0000000A000408FC0000000E0BE2E26C000000080258A54C00C0000001300
310
0000A21200003C0000000600000002000000000000A000408FC0000000603B0534C000000060842356C0000000A000408FC0000000603DE126C000000000E40354C00C00000013000000AA1200003C0000000600000002000000000000A000408FC0000000C021B033C0000000E0FDB255C0000000A000408FC0000000603D
310
E126C000000000E40354C00C00000013000000B21200003C0000000600000002000000000000A000408FC000000080EC9033C0000000C0A13E55C0000000A000408FC0000000E0521F28C000000000086453C00C00000013000000BA1200003C0000000600000002000000000000A000408FC00000000072AA33C000000000
310
F4C554C0000000A000408FC0000000E0521F28C000000000086453C00C00000013000000C21200003C0000000600000002000000000000A000408FC0000000C05A0A34C0000000C08F4054C0000000A000408FC000000060BFC629C0000000400BCD52C00C00000013000000CA1200003C0000000600000002000000000000
310
A000408FC0000000C055B534C0000000605EB553C0000000A000408FC000000060BFC629C0000000400BCD52C00C00000013000000D21200003C0000000600000002000000000000A000408FC0000000C034A535C000000080EF2D53C0000000A000408FC0000000E010F92BC0000000C0973352C00C00000013000000DA12
310
00003C0000000600000002000000000000A000408FC0000000601BE736C0000000C0B3A352C0000000A000408FC0000000E03DDE2EC0000000C0349151C00C00000013000000E21200003C0000000600000002000000000000A000408FC000000020E67534C0000000E0678756C0000000A000408FC0000000E0449125C000
310
0000C098C054C00C00000013000000EA1200003C0000000600000002000000000000A000408FC00000006017A726C0000000E0DF2957C0000000A000408FC0000000E01570E9BF000000807C9C55C00C00000013000000F21200003C0000000600000002000000000000A000408FC0000000805AA333C0000000C013CC56C0
310
000000A000408FC00000006038B921C000000040A71F55C00C00000013000000FA1200003C0000000600000002000000000000A000408FC0000000C0BFDF33C0000000406FC756C0000000A000408FC000000060EDFE22C0000000E0271055C00C00000013000000021300003C0000000600000002000000000000A000408F
310
C0000000E0AA7334C0000000A02F9756C0000000A000408FC0000000E0C37824C0000000E0ABEE54C00C000000130000000A1300003C0000000600000002000000000000A000408FC000000020BD1534C0000000803DBF56C0000000A000408FC0000000E0C37824C0000000E0ABEE54C00C00000013000000121300003C00
310
00000600000002000000000000A000408FC000000060164234C0000000E0FAB356C0000000A000408FC0000000E0C37824C0000000E0ABEE54C00C000000130000001A1300003C0000000600000002000000000000A000408FC0000000A0066234C0000000405CA656C0000000A000408FC0000000E0C37824C0000000E0AB
310
EE54C00C00000013000000221300003C0000000600000002000000000000A000408FC000000060353526C000000020232E57C0000000A000408FC0000000E01570E9BF000000807C9C55C00C000000130000002A1300003C0000000600000002000000000000A000408FC0000000E0FFFF22C00000000000405AC0000000A0
310
00408FC0000000206B36DEBF000000801B2D58C00C00000013000000321300003C0000000600000002000000000000A000408FC000000060898423C000000060D13D5AC0000000A000408FC0000000206B36DEBF000000801B2D58C00C000000130000003A1300003C0000000600000002000000000000A000408FC0000000
310
E0F9FF23C0000000406D375AC0000000A000408FC0000000206B36DEBF000000801B2D58C00C00000013000000421300003C0000000600000002000000000000A000408FC00000006069BB24C000000040FF1F5AC0000000A000408FC0000000A0150FEFBF00000020470E58C00C000000130000004A1300003C0000000600
310
000002000000000000A000408FC0000000E08AEE24C00000004091105AC0000000A000408FC0000000C082FBF3BF000000C0A4E557C00C00000013000000521300003C0000000600000002000000000000A000408FC0000000E0FFFF24C00000000000005AC0000000A000408FC0000000C082FBF3BF000000C0A4E557C00C
310
000000130000005A1300003C0000000600000002000000000000A000408FC0000000E0096A24C000000040412D5AC0000000A000408FC0000000A0150FEFBF00000020470E58C00C00000013000000621300003C0000000600000002000000000000A000408FC0000000E040CE25C000000000913557C0000000A000408FC0
310
000000A05BB5D8BF000000C0D5A455C00C000000130000006A1300003C0000000600000002000000000000A000408FC0000000E0C97725C0000000C0C33F57C0000000A000408FC0000000A05BB5D8BF000000C0D5A455C00C00000013000000721300003C0000000600000002000000000000A000408FC000000060753625
310
C0000000E02D4C57C0000000A000408FC0000000E0BC5BB13E000000E0D4B055C00C000000130000007A1300003C0000000600000002000000000000A000408FC000000060CE0D25C0000000A0245A57C0000000A000408FC0000000A0755AE1BF000000808C6F57C00C00000013000000821300003C000000060000000200
310
0000000000A000408FC000000060CE0D25C0000000A0245A57C0000000A000408FC0000000E0BC5BB13E000000E0D4B055C00C000000130000008A1300003C0000000600000002000000000000A000408FC0000000E0FFFF24C000000000E76857C0000000A000408FC0000000E06247F0BF00000020DB8F57C00C00000013
310
000000921300003C0000000600000002000000000000A000408FC0000000E0FFFF24C000000000E76857C0000000A000408FC0000000E0D23EF4BF000000004AB957C00C000000130000009A1300003C000000060000000200000000000060FC3F8F40000000A071AC54C000000000D228DFBF00000060FC3F8F4000000000
310
008056C000000040F77822C00C00000013000000A21300003C000000060000000200000000000060FC3F8F40000000A071AC54C000000000D228DFBF00000060FC3F8F40000000A0F57D56C00000004034F922C00C00000013000000AA1300003C000000060000000200000000000060FC3F8F40000000A071AC54C0000000
310
00D228DFBF00000060FC3F8F4000000020F97756C000000040377123C00C00000013000000B21300003C000000060000000200000000000060FC3F8F40000000A071AC54C000000000D228DFBF00000060FC3F8F40000000806B6E56C0000000006FD923C00C00000013000000BA1300003C00000006000000020000000000
310
0060FC3F8F4000000000068C54C000000000F9CCEFBF00000060FC3F8F4000000020E76156C000000080392B24C00C00000013000000C21300003C000000060000000200000000000060FC3F8F4000000000068C54C000000000F9CCEFBF00000060FC3F8F40000000003B5356C0000000C04C6124C00C00000013000000CA
310
1300003C000000060000000200000000000060FC3F8F4000000000068C54C000000000F9CCEFBF00000060FC3F8F4000000000564356C000000000447824C00C00000013000000D21300003C000000060000000200000000000060FC3F8F4000000000068C54C000000000F9CCEFBF00000060FC3F8F40000000A0383356C0
310
00000000A86E24C00C00000013000000DA1300003C000000060000000200000000000060FC3F8F40000000C07A6154C0000000800C2FF4BF00000060FC3F8F40000000E03DCB55C0000000000FFE23C00C00000013000000E21300003C000000060000000200000000000060FC3F8F4000000000A03354C0000000804CF4F3
310
BF00000060FC3F8F40000000600AF154C000000080774524C00C00000013000000EA1300003C000000060000000200000000000060FC3F8F4000000040331354C00000008008F1F0BF00000060FC3F8F40000000600AF154C000000080774524C00C00000013000000F21300003C000000060000000200000000000060FC3F
310
8F4000000000000052C0000000800000F8BF00000060FC3F8F40000000A0183B54C000000040DB5B26C00C00000013000000FA1300003C000000060000000200000000000060FC3F8F4000000040331354C00000008008F1F0BF00000060FC3F8F4000000000000052C0000000800000F8BF0C00000013000000021400003C
310
000000060000000200000000000060FC3F8F4000000040331354C00000008008F1F0BF00000060FC3F8F40000000C0170452C0000000E0F84FEDBF0C000000130000000A1400003C000000060000000200000000000060FC3F8F4000000060D39D53C0000000A095659FBE00000060FC3F8F40000000E09D0E52C0000000C0
310
9185D6BF0C00000013000000121400003C000000060000000200000000000060FC3F8F40000000A0183B54C000000040DB5B26C000000060FC3F8F4000000000000052C000000020F8B218C00C000000130000001A1400003C000000060000000200000000000060FC3F8F40000000A0183B54C000000040DB5B26C0000000
310
60FC3F8F400000004043FB51C0000000A0B6351BC00C00000013000000221400003C000000060000000200000000000060FC3F8F40000000004A9D53C0000000C00A212AC000000060FC3F8F4000000020B4E851C0000000209E5D1EC00C000000130000002A1400003C000000060000000200000000000060FC3F8F400000
310
00004A9D53C0000000C00A212AC000000060FC3F8F40000000204CD251C0000000003A3C20C00C00000013000000321400003C000000060000000200000000000060FC3F8F4000000080742053C0000000C0D25B2FC000000060FC3F8F40000000206F8E51C00000000052FB22C00C000000130000003A1400003C00000006
310
0000000200000000000060FC3F8F4000000080742053C0000000C0D25B2FC000000060FC3F8F40000000C0D73E51C0000000C0F6EA26C00C00000013000000421400003C000000060000000200000000000060FC3F8F400000000007CF52C0000000E03F2033C000000060FC3F8F40000000408CFD50C000000000CB212BC0
310
0C000000130000004A1400003C000000060000000200000000000060FC3F8F400000000007CF52C0000000E03F2033C000000060FC3F8F400000004095C550C0000000C0021F30C00C00000013000000521400003C000000060000000200000000000060FC3F8F40000000004DA152C000000080318537C000000060FC3F8F
310
40000000402CA950C000000020B20232C00C000000130000005A1400003C000000060000000200000000000060FC3F8F40000000004DA152C000000080318537C000000060FC3F8F40000000801A9350C000000040913234C00C00000013000000621400003C000000060000000200000000000060FC3F8F4000000020F367
310
52C00000004095573BC000000060FC3F8F40000000A0C98150C0000000C06D3F36C00C000000130000006A1400003C000000060000000200000000000060FC3F8F4000000020F36752C00000004095573BC000000060FC3F8F4000000080327650C0000000C006EB36C00C00000013000000721400003C0000000600000002
310
00000000000060FC3F8F40000000C0C05850C0000000C0C9B737C000000060FC3F8F4000000080980352C000000080D5103EC00C000000130000007A1400003C000000060000000200000000000060FC3F8F40000000A08D794FC0000000A069D538C000000060FC3F8F400000004054DD4FC00000006049BC40C00C000000
310
13000000821400003C000000060000000200000000000060FC3F8F40000000205EF84EC000000080E9B638C000000060FC3F8F40000000E0021A4EC0000000A0E39040C00C000000130000008A1400003C000000060000000200000000000060FC3F8F4000000000D4EE4FC0000000C039B938C000000060FC3F8F40000000
310
4066D650C000000020708E40C00C00000013000000921400003C000000060000000200000000000060FC3F8F40000000801A2D50C000000040E85638C000000060FC3F8F4000000040247C51C00000004000FC3FC00C000000130000009A1400003C000000060000000200000000000060FC3F8F400000008027714EC00000
310
0020708038C000000060FC3F8F4000000020433F4DC0000000A0DA6240C00C00000013000000A21400003C000000060000000200000000000060FC3F8F4000000040C9A94DC000000060E63338C000000060FC3F8F40000000A04F114DC000000080805B40C00C00000013000000AA1400003C000000060000000200000000
310
000060FC3F8F40000000A04F114DC000000080805B40C000000060FC3F8F4000000060E2C94CC000000080B62038C00C00000013000000B21400003C000000060000000200000000000060FC3F8F400000004077EB4BC0000000E08F5738C000000060FC3F8F4000000080FFCB4CC000000080556140C00C00000013000000
310
BA1400003C000000060000000200000000000060FC3F8F4000000080FFCB4CC000000080556140C000000060FC3F8F40000000A09B144BC000000080F1D638C00C00000013000000C21400003C000000060000000200000000000060FC3F8F40000000402E4B4AC000000000609B39C000000060FC3F8F400000000087764C
310
C000000040378440C00C00000013000000CA1400003C000000060000000200000000000060FC3F8F40000000C0AF9449C0000000007D9F3AC000000060FC3F8F40000000A015334CC0000000003FC340C00C00000013000000D21400003C000000060000000200000000000060FC3F8F400000000045D147C0000000807344
310
40C000000060FC3F8F400000000000004CC000000000EA5A41C00C00000013000000DA1400003C000000060000000200000000000060FC3F8F400000008085B547C000000040D62241C000000060FC3F8F400000000000004CC000000000EA5A41C00C00000013000000E21400003C000000060000000200000000000060FC
310
3F8F400000004033B347C0000000A0EB8242C000000060FC3F8F400000000000004CC000000000181646C00C00000013000000EA1400003C000000060000000200000000000060FC3F8F4000000040820A4CC000000020281641C000000060FC3F8F4000000040461148C0000000805CDB3EC00C00000013000000F2140000
310
3C000000060000000200000000000060FC3F8F4000000040820A4CC000000020281641C000000060FC3F8F4000000040C97348C000000060C9483DC00C00000013000000FA1400003C000000060000000200000000000060FC3F8F40000000A015334CC0000000003FC340C000000060FC3F8F40000000401CF648C0000000
310
E02CDC3BC00C00000013000000021500003C000000060000000200000000000060FC3F8F4000000080B3A847C0000000206ED742C000000060FC3F8F40000000C068FC4BC0000000E0313446C00C000000130000000A1500003C000000060000000200000000000060FC3F8F40000000800CC346C000000080F5E643C00000
310
0060FC3F8F4000000020F3AF4BC000000000C68C46C00C00000013000000121500003C000000060000000200000000000060FC3F8F40000000603BA641C000000060C1F745C000000060FC3F8F4000000040994243C00000004066F449C00C000000130000001A1500003C000000060000000200000000000060FC3F8F4000
310
0000E015F646C000000060CACD43C000000060FC3F8F400000008083CA4BC0000000E02A7E46C00C00000013000000221500003C000000060000000200000000000060FC3F8F4000000000E4E04BC000000080BC6946C000000060FC3F8F40000000C0963947C000000040D79943C00C000000130000002A1500003C000000
310
060000000200000000000060FC3F8F4000000040AB7F47C0000000C0F24043C000000060FC3F8F4000000000D9F14BC0000000A0985046C00C00000013000000321500003C000000060000000200000000000060FC3F8F4000000040251441C000000040B63F46C000000060FC3F8F40000000409C2743C0000000604F034A
310
C00C000000130000003A1500003C000000060000000200000000000060FC3F8F4000000040F74D3DC0000000C011744AC000000060FC3F8F4000000000E9F642C000000040358C4AC00C00000013000000421500003C000000060000000200000000000060FC3F8F40000000608B633DC0000000C08E164BC000000060FC3F
310
8F4000000040A92144C0000000C029E74EC00C000000130000004A1500003C000000060000000200000000000060FC3F8F40000000C0C36140C00000008017BB46C000000060FC3F8F40000000A0FA1043C0000000003B184AC00C00000013000000521500003C000000060000000200000000000060FC3F8F40000000001F
310
713DC000000000E49B49C000000060FC3F8F400000006093F242C000000020AE6D4AC00C000000130000005A1500003C000000060000000200000000000060FC3F8F4000000040D1DF3DC0000000002ECA48C000000060FC3F8F40000000E0A9F542C000000020044F4AC00C00000013000000621500003C00000006000000
310
0200000000000060FC3F8F4000000080C38F3FC000000040F05347C000000060FC3F8F4000000020FFFF42C000000040F7314AC00C000000130000006A1500003C000000060000000200000000000060FC3F8F4000000020FFFF42C000000040F7314AC000000060FC3F8F40000000C099963EC0000000607B0548C00C0000
310
0013000000721500003C000000060000000200000000000060FC3F8F40000000005B8B3DC0000000A060814BC000000060FC3F8F40000000C0032644C000000060B3094FC00C000000130000007A1500003C000000060000000200000000000060FC3F8F40000000A043BE3BC0000000C031414DC000000060FC3F8F400000
310
0020F5BE43C0000000E0D6854FC00C00000013000000821500003C000000060000000200000000000060FC3F8F4000000080400B43C0000000E078B14FC000000060FC3F8F40000000C016503AC000000040C1B14DC00C000000130000008A1500003C000000060000000200000000000060FC3F8F4000000020909E3CC000
310
00008096F54CC000000060FC3F8F40000000C0DCDF43C0000000407A7A4FC00C00000013000000921500003C000000060000000200000000000060FC3F8F4000000080542A3DC00000008037A24CC000000060FC3F8F40000000A07BFC43C000000000AD664FC00C000000130000009A1500003C0000000600000002000000
310
00000060FC3F8F40000000A090813DC0000000C0963E4CC000000060FC3F8F40000000A0B51244C000000040E64B4FC00C00000013000000A21500003C000000060000000200000000000060FC3F8F4000000000479D3DC000000060B0D24BC000000060FC3F8F4000000020E72044C000000060202C4FC00C000000130000
310
00AA1500003C000000060000000200000000000060FC3F8F40000000C016503AC000000040C1B14DC000000060FC3F8F40000000406ADF41C0000000007B0A50C00C00000013000000B21500003C000000060000000200000000000060FC3F8F40000000C05E3D38C000000080016C4EC000000060FC3F8F400000004096AB
310
40C0000000C0325050C00C00000013000000BA1500003C000000060000000200000000000060FC3F8F40000000C05E3D38C000000080016C4EC000000060FC3F8F40000000C07DEA3EC0000000C08AAA50C00C00000013000000C21500003C000000060000000200000000000060FC3F8F4000000040BF903CC000000040CD
310
1751C000000060FC3F8F400000006028A435C0000000E0027D4FC00C00000013000000CA1500003C000000060000000200000000000060FC3F8F40000000A0A0653AC000000000D19351C000000060FC3F8F400000006028A435C0000000E0027D4FC00C00000013000000D21500003C000000060000000200000000000060
310
FC3F8F40000000C0A84733C0000000000B5350C000000060FC3F8F40000000201E7E38C000000000831952C00C00000013000000DA1500003C000000060000000200000000000060FC3F8F40000000601BE736C0000000C0B3A352C000000060FC3F8F4000000080BD3431C0000000C068EF50C00C00000013000000E21500
310
003C000000060000000200000000000060FC3F8F40000000803DE126C000000000E40354C000000060FC3F8F40000000603B0534C000000060842356C00C00000013000000EA1500003C000000060000000200000000000060FC3F8F4000000000BF2E26C000000080258A54C000000060FC3F8F40000000209B6834C00000
310
0080F67756C00C00000013000000F21500003C000000060000000200000000000060FC3F8F40000000803DE126C000000000E40354C000000060FC3F8F40000000C021B033C0000000E0FDB255C00C00000013000000FA1500003C000000060000000200000000000060FC3F8F4000000000531F28C000000000086453C000
310
000060FC3F8F4000000080EC9033C0000000C0A13E55C00C00000013000000021600003C000000060000000200000000000060FC3F8F400000000072AA33C000000000F4C554C000000060FC3F8F4000000000531F28C000000000086453C00C000000130000000A1600003C000000060000000200000000000060FC3F8F40
310
00000080BFC629C0000000400BCD52C000000060FC3F8F40000000C05A0A34C0000000C08F4054C00C00000013000000121600003C000000060000000200000000000060FC3F8F4000000080BFC629C0000000400BCD52C000000060FC3F8F40000000C055B534C0000000605EB553C00C000000130000001A1600003C0000
310
00060000000200000000000060FC3F8F400000000011F92BC0000000C0973352C000000060FC3F8F40000000C034A535C000000080EF2D53C00C00000013000000221600003C000000060000000200000000000060FC3F8F40000000601BE736C0000000C0B3A352C000000060FC3F8F40000000003EDE2EC0000000C03491
310
51C00C000000130000002A1600003C000000060000000200000000000060FC3F8F4000000000459125C0000000C098C054C000000060FC3F8F4000000020E67534C0000000E0678756C00C00000013000000321600003C000000060000000200000000000060FC3F8F400000008038B921C000000040A71F55C000000060FC
310
3F8F40000000805AA333C0000000C013CC56C00C000000130000003A1600003C000000060000000200000000000060FC3F8F40000000001770E9BF000000807C9C55C000000060FC3F8F400000008017A726C0000000E0DF2957C00C00000013000000421600003C000000060000000200000000000060FC3F8F4000000080
310
EDFE22C0000000E0271055C000000060FC3F8F40000000C0BFDF33C0000000406FC756C00C000000130000004A1600003C000000060000000200000000000060FC3F8F4000000000C47824C0000000E0ABEE54C000000060FC3F8F40000000E0AA7334C0000000A02F9756C00C00000013000000521600003C000000060000
310
000200000000000060FC3F8F4000000000C47824C0000000E0ABEE54C000000060FC3F8F4000000060164234C0000000E0FAB356C00C000000130000005A1600003C000000060000000200000000000060FC3F8F4000000000C47824C0000000E0ABEE54C000000060FC3F8F4000000020BD1534C0000000803DBF56C00C00
310
000013000000621600003C000000060000000200000000000060FC3F8F4000000000C47824C0000000E0ABEE54C000000060FC3F8F40000000A0066234C0000000405CA656C00C000000130000006A1600003C000000060000000200000000000060FC3F8F40000000001770E9BF000000807C9C55C000000060FC3F8F4000
310
000080353526C000000020232E57C00C00000013000000721600003C000000060000000200000000000060FC3F8F40000000806D36DEBF000000801B2D58C000000060FC3F8F4000000000000023C00000000000405AC00C000000130000007A1600003C000000060000000200000000000060FC3F8F40000000806D36DEBF
310
000000801B2D58C000000060FC3F8F4000000080898423C000000060D13D5AC00C00000013000000821600003C000000060000000200000000000060FC3F8F40000000806D36DEBF000000801B2D58C000000060FC3F8F4000000000FAFF23C0000000406D375AC00C000000130000008A1600003C00000006000000020000
310
0000000060FC3F8F400000006083FBF3BF000000C0A4E557C000000060FC3F8F40000000008BEE24C00000004091105AC00C00000013000000921600003C000000060000000200000000000060FC3F8F40000000C0160FEFBF00000020470E58C000000060FC3F8F400000008069BB24C000000040FF1F5AC00C0000001300
310
00009A1600003C000000060000000200000000000060FC3F8F400000006083FBF3BF000000C0A4E557C000000060FC3F8F4000000000000025C00000000000005AC00C00000013000000A21600003C000000060000000200000000000060FC3F8F40000000C0160FEFBF00000020470E58C000000060FC3F8F40000000000A
310
6A24C000000040412D5AC00C00000013000000AA1600003C000000060000000200000000000060FC3F8F40000000C05DB5D8BF000000C0D5A455C000000060FC3F8F400000000041CE25C000000000913557C00C00000013000000B21600003C000000060000000200000000000060FC3F8F40000000C05DB5D8BF000000C0
310
D5A455C000000060FC3F8F4000000000CA7725C0000000C0C33F57C00C00000013000000BA1600003C000000060000000200000000000060FC3F8F40000000E0BC5BA13E000000E0D4B055C000000060FC3F8F4000000080753625C0000000E02D4C57C00C00000013000000C21600003C0000000600000002000000000000
310
60FC3F8F40000000E0BC5BA13E000000E0D4B055C000000060FC3F8F4000000080CE0D25C0000000A0245A57C00C00000013000000CA1600003C000000060000000200000000000060FC3F8F40000000C0765AE1BF000000808C6F57C000000060FC3F8F4000000080CE0D25C0000000A0245A57C00C00000013000000D216
310
00003C000000060000000200000000000060FC3F8F40000000806347F0BF00000020DB8F57C000000060FC3F8F4000000000000025C000000000E76857C00C00000013000000DA1600003C000000060000000200000000000060FC3F8F4000000080D33EF4BF000000004AB957C000000060FC3F8F4000000000000025C000
310
000000E76857C0
100
AcDbSubDMesh
 71
     2
 72
     0
 91
        0
 92
      348
 10
-1000.000305175781
 20
-90.0
 30
-9.2362642288208
 10
-1000.000305175781
 20
-90.0
 30
-0.0000010732392184
 10
-1000.000305175781
 20
-58.49423599243164
 30
-32.77229690551758
 10
-1000.000305175781
 20
-60.20321273803711
 30
-33.13194656372071
 10
-1000.000305175781
 20
-63.72913360595703
 30
-33.47098922729492
 10
-1000.000305175781
 20
-67.34999084472656
 30
-33.11279678344727
 10
-1000.000305175781
 20
-69.93971252441406
 30
-31.98437881469727
 10
-1000.000305175781
 20
-72.05618286132812
 30
-30.06575775146484
 10
-1000.000305175781
 20
-73.62421417236328
 30
-27.34212112426758
 10
-1000.000305175781
 20
-74.52032470703125
 30
-23.5202865600586
 10
-1000.000305175781
 20
-75.23480224609375
 30
-19.12597465515137
 10
-1000.000305175781
 20
-76.50711059570312
 30
-15.67934131622314
 10
-1000.000305175781
 20
-78.4576416015625
 30
-13.06453418731689
 10
-1000.000305175781
 20
-80.92337799072266
 30
-11.17940998077392
 10
-1000.000305175781
 20
-83.7662582397461
 30
-10.1356782913208
 10
-1000.000305175781
 20
-87.17565155029296
 30
-9.996209144592285
 10
-1000.000305175781
 20
-88.80033111572265
 30
-10.21612644195556
 10
-1000.000305175781
 20
-56.0
 30
-44.172607421875
 10
-1000.000305175781
 20
-56.0
 30
-34.71026611328125
 10
-1000.000305175781
 20
-38.52030181884766
 30
-51.90937042236328
 10
-1000.000305175781
 20
-55.37460708618164
 30
-45.09979248046875
 10
-1000.000305175781
 20
-40.26297760009765
 30
-61.80596160888672
 10
-1000.000305175781
 20
-37.92898559570313
 30
-53.09537506103516
 10
-1000.000305175781
 20
-20.40861701965332
 30
-89.87442016601562
 10
-1000.000305175781
 20
-20.02043724060059
 30
-88.55495452880859
 10
-1000.000305175781
 20
-19.68801498413086
 30
-86.79674530029297
 10
-1000.000305175781
 20
-19.56610870361328
 30
-84.97862243652344
 10
-1000.000305175781
 20
-19.66580200195312
 30
-83.093017578125
 10
-1000.000305175781
 20
-20.04044723510742
 30
-81.00877380371093
 10
-1000.000305175781
 20
-20.70833969116211
 30
-78.83388519287109
 10
-1000.000305175781
 20
-21.64533615112305
 30
-76.71774291992187
 10
-1000.000305175781
 20
-22.90276145935059
 30
-74.55784606933594
 10
-1000.000305175781
 20
-24.49264717102051
 30
-72.39862060546875
 10
-1000.000305175781
 20
-26.39698219299317
 30
-70.30963134765625
 10
-1000.000305175781
 20
-28.56541824340821
 30
-68.37190246582031
 10
-1000.000305175781
 20
-30.91598129272461
 30
-66.66471862792969
 10
-1000.000305175781
 20
-33.34052276611328
 30
-65.25309753417968
 10
-1000.000305175781
 20
-35.74542999267578
 30
-64.16375732421875
 10
-1000.000305175781
 20
-38.08790588378906
 30
-63.38650131225586
 10
-1000.000305175781
 20
-39.49185562133789
 30
-63.04561996459961
 10
-1000.000305175781
 20
-11.32635021209717
 30
-92.65428924560547
 10
-1000.000305175781
 20
-19.63809967041015
 30
-91.18870544433594
 10
-1000.000305175781
 20
-10.49999904632568
 30
-104.0
 10
-1000.000305175781
 20
-10.49999904632568
 30
-93.63909912109376
 10
-1000.000305175781
 20
0.0000012521124972
 30
-105.0
 10
-1000.000305175781
 20
-9.499999046325683
 30
-105.0
 10
-1000.000305175781
 20
-56.08209991455078
 30
-34.17309951782227
 10
-1000.000305175781
 20
-56.39909744262695
 30
-33.52536010742188
 10
-1000.000305175781
 20
-56.92599487304687
 30
-33.03293609619141
 10
-1000.000305175781
 20
-57.59373474121094
 30
-32.76042175292969
 10
-1000.000305175781
 20
-58.1352424621582
 30
-32.71485900878906
 10
-1000.000305175781
 20
-37.89512252807617
 30
-52.85687637329101
 10
-1000.000305175781
 20
-37.91924667358399
 30
-52.61731338500976
 10
-1000.000305175781
 20
-37.99997329711914
 30
-52.3903579711914
 10
-1000.000305175781
 20
-38.13264846801758
 30
-52.18930053710938
 10
-1000.000305175781
 20
-38.30945587158203
 30
-52.02585983276367
 10
-1000.000305175781
 20
-10.52696514129638
 30
-93.40848541259765
 10
-1000.000305175781
 20
-10.6063642501831
 30
-93.19029998779297
 10
-1000.000305175781
 20
-10.73396205902099
 30
-92.99632263183594
 10
-1000.000305175781
 20
-10.90283870697021
 30
-92.83697509765625
 10
-1000.000305175781
 20
-11.1039228439331
 30
-92.72089385986328
 10
-1000.000305175781
 20
-89.0521240234375
 30
-10.23489475250244
 10
-1000.000305175781
 20
-89.30047607421874
 30
-10.19003772735596
 10
-1000.000305175781
 20
-89.52973175048828
 30
-10.08442401885986
 10
-1000.000305175781
 20
-89.72531127929688
 30
-9.924675941467285
 10
-1000.000305175781
 20
-89.87458038330078
 30
-9.7211275100708
 10
-1000.000305175781
 20
-89.96811676025391
 30
-9.486729621887207
 10
-1000.000305175781
 20
-55.58213806152344
 30
-44.9856834411621
 10
-1000.000305175781
 20
-55.7569580078125
 30
-44.82606506347656
 10
-1000.000305175781
 20
-55.88943481445312
 30
-44.62965774536132
 10
-1000.000305175781
 20
-55.97194671630859
 30
-44.40777206420898
 10
-1000.000305175781
 20
-39.7489242553711
 30
-62.95685577392578
 10
-1000.000305175781
 20
-39.97252273559571
 30
-62.80215454101562
 10
-1000.000305175781
 20
-40.14616775512695
 30
-62.59296417236328
 10
-1000.000305175781
 20
-40.25705337524414
 30
-62.3447380065918
 10
-1000.000305175781
 20
-40.29698944091797
 30
-62.07578659057617
 10
-1000.000305175781
 20
-19.87401962280273
 30
-91.11616516113281
 10
-1000.000305175781
 20
-20.08491706848145
 30
-90.98812866210938
 10
-1000.000305175781
 20
-20.25815391540527
 30
-90.81218719482421
 10
-1000.000305175781
 20
-20.38291358947754
 30
-90.59938049316405
 10
-1000.000305175781
 20
-20.45182609558105
 30
-90.3622817993164
 10
-1000.000305175781
 20
-20.46054267883301
 30
-90.11571502685546
 10
-1000.000305175781
 20
-9.75886058807373
 30
-104.9659042358398
 10
-1000.000305175781
 20
-9.999953269958496
 30
-104.8660430908203
 10
-1000.000305175781
 20
-10.20710659027099
 30
-104.7071075439453
 10
-1000.000305175781
 20
-10.36603832244873
 30
-104.4999542236328
 10
-1000.000305175781
 20
-10.46590328216552
 30
-104.2588653564453
 10
-1000.000305175781
 20
-72.0
 30
-1.500000834465026
 10
-1000.000305175781
 20
-72.0
 30
-6.174775123596191
 10
-1000.000305175781
 20
-71.28589630126953
 30
-8.117630958557128
 10
-1000.000305175781
 20
-70.22553253173828
 30
-9.490860939025878
 10
-1000.000305175781
 20
-68.98191833496094
 30
-11.45891666412353
 10
-1000.000305175781
 20
-67.96168518066406
 30
-13.56600284576416
 10
-1000.000305175781
 20
-67.08723449707031
 30
-16.12113571166992
 10
-1000.000305175781
 20
-66.64332580566406
 30
-18.01053237915039
 10
-1000.000305175781
 20
-66.29849243164063
 30
-20.19752883911133
 10
-1000.000305175781
 20
-66.0279312133789
 30
-22.24776840209961
 10
-1000.000305175781
 20
-62.94963455200195
 30
-24.83364295959473
 10
-1000.000305175781
 20
-61.94037246704102
 30
-24.71450042724609
 10
-1000.000305175781
 20
-60.88401794433593
 30
-24.50171089172363
 10
-1000.000305175781
 20
-59.32645416259766
 30
-24.20273399353027
 10
-1000.000305175781
 20
-57.57722091674804
 30
-24.12778472900391
 10
-1000.000305175781
 20
-55.8395767211914
 30
-24.34203910827637
 10
-1000.000305175781
 20
-54.1609992980957
 30
-24.83962249755859
 10
-1000.000305175781
 20
-52.58734893798828
 30
-25.60693359375
 10
-1000.000305175781
 20
-51.16161346435546
 30
-26.62300109863281
 10
-1000.000305175781
 20
-49.92273712158203
 30
-27.86005973815918
 10
-1000.000305175781
 20
-48.90457916259766
 30
-29.28432273864746
 10
-1000.000305175781
 20
-48.13495635986328
 30
-30.85688018798828
 10
-1000.000305175781
 20
-47.63491821289062
 30
-32.53477478027344
 10
-1000.000305175781
 20
-47.41813659667968
 30
-34.27216339111328
 10
-1000.000305175781
 20
-47.4000015258789
 30
-37.0228157043457
 10
-1000.000305175781
 20
-45.52381896972656
 30
-39.80436706542969
 10
-1000.000305175781
 20
-35.29868698120117
 30
-43.93558883666992
 10
-1000.000305175781
 20
-34.15738677978516
 30
-44.49774932861328
 10
-1000.000305175781
 20
-32.76378631591797
 30
-45.46165466308593
 10
-1000.000305175781
 20
-31.56157684326172
 30
-46.65576934814453
 10
-1000.000305175781
 20
-30.58828353881836
 30
-48.04282760620117
 10
-1000.000305175781
 20
-29.87428665161133
 30
-49.57952880859375
 10
-1000.000305175781
 20
-29.44187927246094
 30
-51.2178955078125
 10
-1000.000305175781
 20
-29.30455398559571
 30
-52.90679168701172
 10
-1000.000305175781
 20
-29.38884544372559
 30
-54.17623138427734
 10
-1000.000305175781
 20
-29.54435729980469
 30
-55.01076126098633
 10
-1000.000305175781
 20
-27.74321937561035
 30
-58.50933074951171
 10
-1000.000305175781
 20
-26.31284713745117
 30
-59.38871002197266
 10
-1000.000305175781
 20
-24.23972702026367
 30
-60.84379577636719
 10
-1000.000305175781
 20
-21.6412410736084
 30
-62.97665023803711
 10
-1000.000305175781
 20
-19.27991867065429
 30
-65.29754638671875
 10
-1000.000305175781
 20
-17.20601654052734
 30
-67.74076843261719
 10
-1000.000305175781
 20
-15.43406581878662
 30
-70.26884460449219
 10
-1000.000305175781
 20
-13.98645687103271
 30
-72.80613708496094
 10
-1000.000305175781
 20
-12.88817882537842
 30
-75.20381164550781
 10
-1000.000305175781
 20
-12.06117916107178
 30
-77.56298828125
 10
-1000.000305175781
 20
-11.43992137908935
 30
-80.060791015625
 10
-1000.000305175781
 20
-8.861758232116699
 30
-84.49458312988282
 10
-1000.000305175781
 20
-0.7949323058128357
 30
-86.44509887695312
 10
-1000.000305175781
 20
-65.84683227539063
 30
-22.91807174682617
 10
-1000.000305175781
 20
-65.38676452636718
 30
-23.71792221069336
 10
-1000.000305175781
 20
-64.70474243164062
 30
-24.33948135375977
 10
-1000.000305175781
 20
-63.8658447265625
 30
-24.72353744506836
 10
-1000.000305175781
 20
-47.31797790527344
 30
-37.68304824829102
 10
-1000.000305175781
 20
-46.9974136352539
 30
-38.50740814208985
 10
-1000.000305175781
 20
-46.44991302490234
 30
-39.20188140869141
 10
-1000.000305175781
 20
-45.92254257202148
 30
-39.60773849487305
 10
-1000.000305175781
 20
-29.61436462402344
 30
-55.6460075378418
 10
-1000.000305175781
 20
-29.50611305236817
 30
-56.48897552490234
 10
-1000.000305175781
 20
-29.16535186767578
 30
-57.26731872558594
 10
-1000.000305175781
 20
-28.61938667297363
 30
-57.91865539550781
 10
-1000.000305175781
 20
-11.09130001068115
 30
-82.15853881835938
 10
-1000.000305175781
 20
-10.78372859954834
 30
-83.00932312011719
 10
-1000.000305175781
 20
-10.23586940765381
 30
-83.72924041748047
 10
-1000.000305175781
 20
-9.497904777526855
 30
-84.25243377685546
 10
-1000.000305175781
 20
-71.92597961425781
 30
-6.802456855773925
 10
-1000.000305175781
 20
-71.63599395751953
 30
-7.591423988342285
 10
-1000.000305175781
 20
-72.40192413330078
 30
-0.0000008633842867
 10
-1000.000305175781
 20
-72.22838592529297
 30
-0.3519028723239899
 10
-1000.000305175781
 20
-72.06394958496094
 30
-0.9160126447677612
 10
-1000.000305175781
 20
-0.3860692083835602
 30
-86.57554626464843
 10
-1000.000305175781
 20
0.0000010346383306
 30
-86.76299285888672
 10
-1000.000305175781
 20
-80.3000030517578
 30
-1.058846473693847
 10
-1000.000305175781
 20
-78.46602630615234
 30
-0.0000009356979831
 10
-1000.000305175781
 20
-82.92916107177735
 30
-0.0000009889203056
 10
-1000.000305175781
 20
-82.6944351196289
 30
-0.486866980791092
 10
-1000.000305175781
 20
-82.1878662109375
 30
-0.9937715530395507
 10
-1000.000305175781
 20
-81.52311706542969
 30
-1.261487007141113
 10
-1000.000305175781
 20
-80.806640625
 30
-1.247143745422363
 10
-1000.000305175781
 20
-0.5422924160957337
 30
-93.74295043945313
 10
-1000.000305175781
 20
-1.017428278923034
 30
-94.24774932861328
 10
-1000.000305175781
 20
-1.265337824821472
 30
-94.8951416015625
 10
-1000.000305175781
 20
-1.24890398979187
 30
-95.58818054199219
 10
-1000.000305175781
 20
-0.9705913662910461
 30
-96.22309112548828
 10
-1000.000305175781
 20
-0.4720714390277863
 30
-96.70480346679688
 10
-1000.000305175781
 20
0.000001155868631
 30
-96.92916107177735
 10
-1000.000305175781
 20
0.0000011139056824
 30
-93.41021728515626
 10
999.9982299804687
 20
-90.0
 30
-0.0000005366196092
 10
999.9982299804687
 20
-82.92916107177735
 30
-0.0000004944601528
 10
999.9982299804687
 20
-82.6944351196289
 30
-0.4868664741516114
 10
999.9982299804687
 20
-90.0
 30
-9.236261367797851
 10
999.9982299804687
 20
-89.96811676025391
 30
-9.486726760864257
 10
999.9982299804687
 20
-89.87458038330078
 30
-9.721124649047851
 10
999.9982299804687
 20
-82.1878662109375
 30
-0.9937710762023925
 10
999.9982299804687
 20
-89.52973175048828
 30
-10.08442306518555
 10
999.9982299804687
 20
-89.30047607421874
 30
-10.19003868103027
 10
999.9982299804687
 20
-89.0521240234375
 30
-10.23489379882812
 10
999.9982299804687
 20
-88.80033111572265
 30
-10.21612548828125
 10
999.9982299804687
 20
-81.52311706542969
 30
-1.261486530303955
 10
999.9982299804687
 20
-87.17565155029296
 30
-9.996208190917968
 10
999.9982299804687
 20
-80.3000030517578
 30
-1.058845996856689
 10
999.9982299804687
 20
-72.0
 30
-1.500000476837158
 10
999.9982299804687
 20
-80.92337799072266
 30
-11.17940711975097
 10
999.9982299804687
 20
-72.06394958496094
 30
-0.9160122275352478
 10
999.9982299804687
 20
-78.46602630615234
 30
-0.0000004678489915
 10
999.9982299804687
 20
-72.40192413330078
 30
-0.0000004316921434
 10
999.9982299804687
 20
-72.22838592529297
 30
-0.351902425289154
 10
999.9982299804687
 20
-71.92597961425781
 30
-6.802454471588134
 10
999.9982299804687
 20
-78.4576416015625
 30
-13.06453514099121
 10
999.9982299804687
 20
-71.28589630126953
 30
-8.117630004882812
 10
999.9982299804687
 20
-76.50711059570312
 30
-15.67934226989746
 10
999.9982299804687
 20
-68.98191833496094
 30
-11.45891380310058
 10
999.9982299804687
 20
-75.23480224609375
 30
-19.12597465515137
 10
999.9982299804687
 20
-67.08723449707031
 30
-16.12113571166992
 10
999.9982299804687
 20
-74.52032470703125
 30
-23.5202865600586
 10
999.9982299804687
 20
-66.29849243164063
 30
-20.19752883911133
 10
999.9982299804687
 20
-73.62421417236328
 30
-27.34212112426758
 10
999.9982299804687
 20
-65.84683227539063
 30
-22.91807174682617
 10
999.9982299804687
 20
-65.38676452636718
 30
-23.71792221069336
 10
999.9982299804687
 20
-62.94963455200195
 30
-24.83364295959473
 10
999.9982299804687
 20
-61.94037246704102
 30
-24.71450042724609
 10
999.9982299804687
 20
-63.72913360595703
 30
-33.47098922729492
 10
999.9982299804687
 20
-63.8658447265625
 30
-24.72353744506836
 10
999.9982299804687
 20
-64.70474243164062
 30
-24.33948135375977
 10
999.9982299804687
 20
-69.93971252441406
 30
-31.98437881469727
 10
999.9982299804687
 20
-60.88401794433593
 30
-24.50171089172363
 10
999.9982299804687
 20
-58.49423599243164
 30
-32.77229690551758
 10
999.9982299804687
 20
-59.32645416259766
 30
-24.20273399353027
 10
999.9982299804687
 20
-58.1352424621582
 30
-32.71485900878906
 10
999.9982299804687
 20
-57.57722091674804
 30
-24.12778472900391
 10
999.9982299804687
 20
-55.8395767211914
 30
-24.34203910827637
 10
999.9982299804687
 20
-57.59373474121094
 30
-32.76042175292969
 10
999.9982299804687
 20
-54.1609992980957
 30
-24.83962249755859
 10
999.9982299804687
 20
-52.58734893798828
 30
-25.60693359375
 10
999.9982299804687
 20
-56.92599487304687
 30
-33.03293609619141
 10
999.9982299804687
 20
-51.16161346435546
 30
-26.62300109863281
 10
999.9982299804687
 20
-56.39909744262695
 30
-33.52536010742188
 10
999.9982299804687
 20
-47.63491821289062
 30
-32.53477478027344
 10
999.9982299804687
 20
-47.41813659667968
 30
-34.27216339111328
 10
999.9982299804687
 20
-56.0
 30
-34.71026611328125
 10
999.9982299804687
 20
-47.4000015258789
 30
-37.0228157043457
 10
999.9982299804687
 20
-56.0
 30
-44.172607421875
 10
999.9982299804687
 20
-56.08209991455078
 30
-34.17309951782227
 10
999.9982299804687
 20
-48.90457916259766
 30
-29.28432273864746
 10
999.9982299804687
 20
-45.52381896972656
 30
-39.80436706542969
 10
999.9982299804687
 20
-35.29868698120117
 30
-43.93558883666992
 10
999.9982299804687
 20
-38.52030181884766
 30
-51.90937042236328
 10
999.9982299804687
 20
-55.37460708618164
 30
-45.09979248046875
 10
999.9982299804687
 20
-45.92254257202148
 30
-39.60773849487305
 10
999.9982299804687
 20
-55.58213806152344
 30
-44.9856834411621
 10
999.9982299804687
 20
-55.7569580078125
 30
-44.82606506347656
 10
999.9982299804687
 20
-46.9974136352539
 30
-38.50740814208985
 10
999.9982299804687
 20
-55.88943481445312
 30
-44.62965774536132
 10
999.9982299804687
 20
-29.30455398559571
 30
-52.90679168701172
 10
999.9982299804687
 20
-29.38884544372559
 30
-54.17623138427734
 10
999.9982299804687
 20
-37.92898559570313
 30
-53.09537506103516
 10
999.9982299804687
 20
-32.76378631591797
 30
-45.46165466308593
 10
999.9982299804687
 20
-38.13264846801758
 30
-52.18930053710938
 10
999.9982299804687
 20
-29.44187927246094
 30
-51.2178955078125
 10
999.9982299804687
 20
-37.89512252807617
 30
-52.85687637329101
 10
999.9982299804687
 20
-29.87428665161133
 30
-49.57952880859375
 10
999.9982299804687
 20
-37.91924667358399
 30
-52.61731338500976
 10
999.9982299804687
 20
-31.56157684326172
 30
-46.65576934814453
 10
999.9982299804687
 20
-37.99997329711914
 30
-52.3903579711914
 10
999.9982299804687
 20
-30.58828353881836
 30
-48.04282760620117
 10
999.9982299804687
 20
-29.54435729980469
 30
-55.01076126098633
 10
999.9982299804687
 20
-40.29698944091797
 30
-62.07578659057617
 10
999.9982299804687
 20
-27.74321937561035
 30
-58.50933074951171
 10
999.9982299804687
 20
-38.08790588378906
 30
-63.38650131225586
 10
999.9982299804687
 20
-28.61938667297363
 30
-57.91865539550781
 10
999.9982299804687
 20
-39.7489242553711
 30
-62.95685577392578
 10
999.9982299804687
 20
-29.16535186767578
 30
-57.26731872558594
 10
999.9982299804687
 20
-29.50611305236817
 30
-56.48897552490234
 10
999.9982299804687
 20
-40.14616775512695
 30
-62.59296417236328
 10
999.9982299804687
 20
-29.61436462402344
 30
-55.6460075378418
 10
999.9982299804687
 20
-40.25705337524414
 30
-62.3447380065918
 10
999.9982299804687
 20
-24.23972702026367
 30
-60.84379577636719
 10
999.9982299804687
 20
-33.34052276611328
 30
-65.25309753417968
 10
999.9982299804687
 20
-30.91598129272461
 30
-66.66471862792969
 10
999.9982299804687
 20
-28.56541824340821
 30
-68.37190246582031
 10
999.9982299804687
 20
-19.27991867065429
 30
-65.29754638671875
 10
999.9982299804687
 20
-26.39698219299317
 30
-70.30963134765625
 10
999.9982299804687
 20
-22.90276145935059
 30
-74.55784606933594
 10
999.9982299804687
 20
-11.43992233276367
 30
-80.060791015625
 10
999.9982299804687
 20
-11.09130096435547
 30
-82.15853881835938
 10
999.9982299804687
 20
-20.40861701965332
 30
-89.87442016601562
 10
999.9982299804687
 20
-20.02043724060059
 30
-88.55495452880859
 10
999.9982299804687
 20
-19.68801498413086
 30
-86.79674530029297
 10
999.9982299804687
 20
-19.66580200195312
 30
-83.093017578125
 10
999.9982299804687
 20
-12.88817977905273
 30
-75.20381164550781
 10
999.9982299804687
 20
-20.04044723510742
 30
-81.00877380371093
 10
999.9982299804687
 20
-20.70833969116211
 30
-78.83388519287109
 10
999.9982299804687
 20
-13.98645782470703
 30
-72.80613708496094
 10
999.9982299804687
 20
-21.64533615112305
 30
-76.71774291992187
 10
999.9982299804687
 20
-15.43406677246094
 30
-70.26884460449219
 10
999.9982299804687
 20
-10.78372955322265
 30
-83.00932312011719
 10
999.9982299804687
 20
-20.46054267883301
 30
-90.11571502685546
 10
999.9982299804687
 20
-0.7949328422546387
 30
-86.44509887695312
 10
999.9982299804687
 20
-11.32635116577148
 30
-92.65428924560547
 10
999.9982299804687
 20
-9.497905731201171
 30
-84.25243377685546
 10
999.9982299804687
 20
-19.87401962280273
 30
-91.11616516113281
 10
999.9982299804687
 20
-10.23587036132812
 30
-83.72924041748047
 10
999.9982299804687
 20
-20.45182609558105
 30
-90.3622817993164
 10
999.9982299804687
 20
-20.25815391540527
 30
-90.81218719482421
 10
999.9982299804687
 20
-11.10392379760742
 30
-92.72089385986328
 10
999.9982299804687
 20
-0.4720720052719117
 30
-96.70480346679688
 10
999.9982299804687
 20
0.0000005779343155
 30
-96.92916107177735
 10
999.9982299804687
 20
0.0000006260562486
 30
-105.0
 10
999.9982299804687
 20
-9.5
 30
-105.0
 10
999.9982299804687
 20
-9.999954223632812
 30
-104.8660430908203
 10
999.9982299804687
 20
-1.248904585838317
 30
-95.58818054199219
 10
999.9982299804687
 20
-0.9705919027328491
 30
-96.22309112548828
 10
999.9982299804687
 20
-10.36603927612304
 30
-104.4999542236328
 10
999.9982299804687
 20
-10.46590423583984
 30
-104.2588653564453
 10
999.9982299804687
 20
-10.5
 30
-104.0
 10
999.9982299804687
 20
-10.20710754394531
 30
-104.7071075439453
 10
999.9982299804687
 20
-0.3860697150230408
 30
-86.57554626464843
 10
999.9982299804687
 20
-10.90283966064453
 30
-92.83697509765625
 10
999.9982299804687
 20
-10.73396301269531
 30
-92.99632263183594
 10
999.9982299804687
 20
0.0000005173191653
 30
-86.76299285888672
 10
999.9982299804687
 20
-10.60636520385742
 30
-93.19029998779297
 10
999.9982299804687
 20
0.0000005569528412
 30
-93.41021728515626
 10
999.9982299804687
 20
-0.5422929525375367
 30
-93.74295043945313
 10
999.9982299804687
 20
-10.5269660949707
 30
-93.40848541259765
 10
999.9982299804687
 20
-1.017428874969482
 30
-94.24774932861328
 10
999.9982299804687
 20
-1.265338420867919
 30
-94.8951416015625
 10
999.9982299804687
 20
-89.72531127929688
 30
-9.924674987792968
 10
999.9982299804687
 20
-80.806640625
 30
-1.247143268585205
 10
999.9982299804687
 20
-83.7662582397461
 30
-10.13567733764648
 10
999.9982299804687
 20
-72.0
 30
-6.174774646759033
 10
999.9982299804687
 20
-71.63599395751953
 30
-7.591423511505126
 10
999.9982299804687
 20
-70.22553253173828
 30
-9.490859985351562
 10
999.9982299804687
 20
-67.96168518066406
 30
-13.56600189208984
 10
999.9982299804687
 20
-66.64332580566406
 30
-18.01053047180175
 10
999.9982299804687
 20
-66.0279312133789
 30
-22.24776840209961
 10
999.9982299804687
 20
-72.05618286132812
 30
-30.06575775146484
 10
999.9982299804687
 20
-60.20321273803711
 30
-33.13194656372071
 10
999.9982299804687
 20
-67.34999084472656
 30
-33.11279678344727
 10
999.9982299804687
 20
-48.13495635986328
 30
-30.85688018798828
 10
999.9982299804687
 20
-49.92273712158203
 30
-27.86005973815918
 10
999.9982299804687
 20
-47.31797790527344
 30
-37.68304824829102
 10
999.9982299804687
 20
-55.97194671630859
 30
-44.40777206420898
 10
999.9982299804687
 20
-46.44991302490234
 30
-39.20188140869141
 10
999.9982299804687
 20
-34.15738677978516
 30
-44.49774932861328
 10
999.9982299804687
 20
-38.30945587158203
 30
-52.02585983276367
 10
999.9982299804687
 20
-40.26297760009765
 30
-61.80596160888672
 10
999.9982299804687
 20
-26.31284713745117
 30
-59.38871002197266
 10
999.9982299804687
 20
-39.49185562133789
 30
-63.04561996459961
 10
999.9982299804687
 20
-39.97252273559571
 30
-62.80215454101562
 10
999.9982299804687
 20
-35.74542999267578
 30
-64.16375732421875
 10
999.9982299804687
 20
-21.6412410736084
 30
-62.97665023803711
 10
999.9982299804687
 20
-24.49264717102051
 30
-72.39862060546875
 10
999.9982299804687
 20
-17.20601654052734
 30
-67.74076843261719
 10
999.9982299804687
 20
-12.06118011474609
 30
-77.56298828125
 10
999.9982299804687
 20
-19.56610870361328
 30
-84.97862243652344
 10
999.9982299804687
 20
-8.861759185791015
 30
-84.49458312988282
 10
999.9982299804687
 20
-19.63809967041015
 30
-91.18870544433594
 10
999.9982299804687
 20
-20.08491706848145
 30
-90.98812866210938
 10
999.9982299804687
 20
-20.38291358947754
 30
-90.59938049316405
 10
999.9982299804687
 20
-9.758861541748046
 30
-104.9659042358398
 10
999.9982299804687
 20
-10.5
 30
-93.63909912109376
 93
     1850
 90
        4
 90
      294
 90
      295
 90
       45
 90
       44
 90
        4
 90
      295
 90
      346
 90
       82
 90
       45
 90
        4
 90
      346
 90
      296
 90
       83
 90
       82
 90
        4
 90
      296
 90
      302
 90
       84
 90
       83
 90
        4
 90
      302
 90
      299
 90
       85
 90
       84
 90
        4
 90
      299
 90
      300
 90
       86
 90
       85
 90
        4
 90
      300
 90
      301
 90
       42
 90
       86
 90
        4
 90
      301
 90
      347
 90
       43
 90
       42
 90
        4
 90
      347
 90
      310
 90
       56
 90
       43
 90
        4
 90
      310
 90
      307
 90
       57
 90
       56
 90
        4
 90
      307
 90
      305
 90
       58
 90
       57
 90
        4
 90
      305
 90
      304
 90
       59
 90
       58
 90
        4
 90
      304
 90
      291
 90
       60
 90
       59
 90
        4
 90
      291
 90
      285
 90
       40
 90
       60
 90
        4
 90
      285
 90
      343
 90
       41
 90
       40
 90
        4
 90
      343
 90
      287
 90
       76
 90
       41
 90
        4
 90
      287
 90
      344
 90
       77
 90
       76
 90
        4
 90
      344
 90
      290
 90
       78
 90
       77
 90
        4
 90
      290
 90
      345
 90
       79
 90
       78
 90
        4
 90
      345
 90
      289
 90
       80
 90
       79
 90
        4
 90
      289
 90
      283
 90
       81
 90
       80
 90
        4
 90
      283
 90
      272
 90
       23
 90
       81
 90
        4
 90
      272
 90
      273
 90
       24
 90
       23
 90
        4
 90
      273
 90
      274
 90
       25
 90
       24
 90
        4
 90
      274
 90
      341
 90
       26
 90
       25
 90
        4
 90
      341
 90
      275
 90
       27
 90
       26
 90
        4
 90
      275
 90
      277
 90
       28
 90
       27
 90
        4
 90
      277
 90
      278
 90
       29
 90
       28
 90
        4
 90
      278
 90
      280
 90
       30
 90
       29
 90
        4
 90
      280
 90
      269
 90
       31
 90
       30
 90
        4
 90
      269
 90
      338
 90
       32
 90
       31
 90
        4
 90
      338
 90
      268
 90
       33
 90
       32
 90
        4
 90
      268
 90
      266
 90
       34
 90
       33
 90
        4
 90
      266
 90
      265
 90
       35
 90
       34
 90
        4
 90
      265
 90
      264
 90
       36
 90
       35
 90
        4
 90
      264
 90
      336
 90
       37
 90
       36
 90
        4
 90
      336
 90
      255
 90
       38
 90
       37
 90
        4
 90
      255
 90
      334
 90
       39
 90
       38
 90
        4
 90
      334
 90
      257
 90
       71
 90
       39
 90
        4
 90
      257
 90
      335
 90
       72
 90
       71
 90
        4
 90
      335
 90
      260
 90
       73
 90
       72
 90
        4
 90
      260
 90
      262
 90
       74
 90
       73
 90
        4
 90
      262
 90
      253
 90
       75
 90
       74
 90
        4
 90
      253
 90
      332
 90
       21
 90
       75
 90
        4
 90
      332
 90
      242
 90
       22
 90
       21
 90
        4
 90
      242
 90
      246
 90
       51
 90
       22
 90
        4
 90
      246
 90
      248
 90
       52
 90
       51
 90
        4
 90
      248
 90
      250
 90
       53
 90
       52
 90
        4
 90
      250
 90
      244
 90
       54
 90
       53
 90
        4
 90
      244
 90
      331
 90
       55
 90
       54
 90
        4
 90
      331
 90
      233
 90
       19
 90
       55
 90
        4
 90
      233
 90
      234
 90
       20
 90
       19
 90
        4
 90
      234
 90
      236
 90
       67
 90
       20
 90
        4
 90
      236
 90
      237
 90
       68
 90
       67
 90
        4
 90
      237
 90
      239
 90
       69
 90
       68
 90
        4
 90
      239
 90
      328
 90
       70
 90
       69
 90
        4
 90
      328
 90
      228
 90
       17
 90
       70
 90
        4
 90
      228
 90
      226
 90
       18
 90
       17
 90
        4
 90
      226
 90
      229
 90
       46
 90
       18
 90
        4
 90
      229
 90
      223
 90
       47
 90
       46
 90
        4
 90
      223
 90
      221
 90
       48
 90
       47
 90
        4
 90
      221
 90
      218
 90
       49
 90
       48
 90
        4
 90
      218
 90
      215
 90
       50
 90
       49
 90
        4
 90
      215
 90
      213
 90
        2
 90
       50
 90
        4
 90
      213
 90
      323
 90
        3
 90
        2
 90
        4
 90
      323
 90
      208
 90
        4
 90
        3
 90
        4
 90
      208
 90
      324
 90
        5
 90
        4
 90
        4
 90
      324
 90
      211
 90
        6
 90
        5
 90
        4
 90
      211
 90
      322
 90
        7
 90
        6
 90
        4
 90
      322
 90
      203
 90
        8
 90
        7
 90
        4
 90
      203
 90
      201
 90
        9
 90
        8
 90
        4
 90
      201
 90
      199
 90
       10
 90
        9
 90
        4
 90
      199
 90
      197
 90
       11
 90
       10
 90
        4
 90
      197
 90
      195
 90
       12
 90
       11
 90
        4
 90
      195
 90
      189
 90
       13
 90
       12
 90
        4
 90
      189
 90
      315
 90
       14
 90
       13
 90
        4
 90
      315
 90
      186
 90
       15
 90
       14
 90
        4
 90
      186
 90
      184
 90
       16
 90
       15
 90
        4
 90
      184
 90
      183
 90
       61
 90
       16
 90
        4
 90
      183
 90
      182
 90
       62
 90
       61
 90
        4
 90
      182
 90
      181
 90
       63
 90
       62
 90
        4
 90
      181
 90
      313
 90
       64
 90
       63
 90
        4
 90
      313
 90
      179
 90
       65
 90
       64
 90
        4
 90
      179
 90
      178
 90
       66
 90
       65
 90
        4
 90
      178
 90
      177
 90
        0
 90
       66
 90
        4
 90
      177
 90
      174
 90
        1
 90
        0
 90
        4
 90
      174
 90
      175
 90
      161
 90
        1
 90
        4
 90
      175
 90
      176
 90
      162
 90
      161
 90
        4
 90
      176
 90
      180
 90
      163
 90
      162
 90
        4
 90
      180
 90
      185
 90
      164
 90
      163
 90
        4
 90
      185
 90
      314
 90
      165
 90
      164
 90
        4
 90
      314
 90
      187
 90
      159
 90
      165
 90
        4
 90
      187
 90
      191
 90
      160
 90
      159
 90
        4
 90
      191
 90
      192
 90
      154
 90
      160
 90
        4
 90
      192
 90
      193
 90
      155
 90
      154
 90
        4
 90
      193
 90
      190
 90
      156
 90
      155
 90
        4
 90
      190
 90
      188
 90
       87
 90
      156
 90
        4
 90
      188
 90
      316
 90
       88
 90
       87
 90
        4
 90
      316
 90
      194
 90
      152
 90
       88
 90
        4
 90
      194
 90
      317
 90
      153
 90
      152
 90
        4
 90
      317
 90
      196
 90
       89
 90
      153
 90
        4
 90
      196
 90
      318
 90
       90
 90
       89
 90
        4
 90
      318
 90
      198
 90
       91
 90
       90
 90
        4
 90
      198
 90
      319
 90
       92
 90
       91
 90
        4
 90
      319
 90
      200
 90
       93
 90
       92
 90
        4
 90
      200
 90
      320
 90
       94
 90
       93
 90
        4
 90
      320
 90
      202
 90
       95
 90
       94
 90
        4
 90
      202
 90
      321
 90
       96
 90
       95
 90
        4
 90
      321
 90
      204
 90
      136
 90
       96
 90
        4
 90
      204
 90
      205
 90
      137
 90
      136
 90
        4
 90
      205
 90
      210
 90
      138
 90
      137
 90
        4
 90
      210
 90
      209
 90
      139
 90
      138
 90
        4
 90
      209
 90
      206
 90
       97
 90
      139
 90
        4
 90
      206
 90
      207
 90
       98
 90
       97
 90
        4
 90
      207
 90
      212
 90
       99
 90
       98
 90
        4
 90
      212
 90
      214
 90
      100
 90
       99
 90
        4
 90
      214
 90
      216
 90
      101
 90
      100
 90
        4
 90
      216
 90
      217
 90
      102
 90
      101
 90
        4
 90
      217
 90
      219
 90
      103
 90
      102
 90
        4
 90
      219
 90
      220
 90
      104
 90
      103
 90
        4
 90
      220
 90
      222
 90
      105
 90
      104
 90
        4
 90
      222
 90
      326
 90
      106
 90
      105
 90
        4
 90
      326
 90
      230
 90
      107
 90
      106
 90
        4
 90
      230
 90
      325
 90
      108
 90
      107
 90
        4
 90
      325
 90
      224
 90
      109
 90
      108
 90
        4
 90
      224
 90
      225
 90
      110
 90
      109
 90
        4
 90
      225
 90
      227
 90
      111
 90
      110
 90
        4
 90
      227
 90
      327
 90
      140
 90
      111
 90
        4
 90
      327
 90
      238
 90
      141
 90
      140
 90
        4
 90
      238
 90
      329
 90
      142
 90
      141
 90
        4
 90
      329
 90
      235
 90
      143
 90
      142
 90
        4
 90
      235
 90
      231
 90
      112
 90
      143
 90
        4
 90
      231
 90
      232
 90
      113
 90
      112
 90
        4
 90
      232
 90
      330
 90
      114
 90
      113
 90
        4
 90
      330
 90
      243
 90
      115
 90
      114
 90
        4
 90
      243
 90
      249
 90
      116
 90
      115
 90
        4
 90
      249
 90
      251
 90
      117
 90
      116
 90
        4
 90
      251
 90
      247
 90
      118
 90
      117
 90
        4
 90
      247
 90
      245
 90
      119
 90
      118
 90
        4
 90
      245
 90
      240
 90
      120
 90
      119
 90
        4
 90
      240
 90
      241
 90
      121
 90
      120
 90
        4
 90
      241
 90
      252
 90
      122
 90
      121
 90
        4
 90
      252
 90
      261
 90
      144
 90
      122
 90
        4
 90
      261
 90
      259
 90
      145
 90
      144
 90
        4
 90
      259
 90
      258
 90
      146
 90
      145
 90
        4
 90
      258
 90
      256
 90
      147
 90
      146
 90
        4
 90
      256
 90
      254
 90
      123
 90
      147
 90
        4
 90
      254
 90
      333
 90
      124
 90
      123
 90
        4
 90
      333
 90
      263
 90
      125
 90
      124
 90
        4
 90
      263
 90
      337
 90
      126
 90
      125
 90
        4
 90
      337
 90
      267
 90
      127
 90
      126
 90
        4
 90
      267
 90
      339
 90
      128
 90
      127
 90
        4
 90
      339
 90
      281
 90
      129
 90
      128
 90
        4
 90
      281
 90
      279
 90
      130
 90
      129
 90
        4
 90
      279
 90
      276
 90
      131
 90
      130
 90
        4
 90
      276
 90
      340
 90
      132
 90
      131
 90
        4
 90
      340
 90
      270
 90
      133
 90
      132
 90
        4
 90
      270
 90
      271
 90
      148
 90
      133
 90
        4
 90
      271
 90
      282
 90
      149
 90
      148
 90
        4
 90
      282
 90
      288
 90
      150
 90
      149
 90
        4
 90
      288
 90
      286
 90
      151
 90
      150
 90
        4
 90
      286
 90
      342
 90
      134
 90
      151
 90
        4
 90
      342
 90
      284
 90
      135
 90
      134
 90
        4
 90
      284
 90
      303
 90
      157
 90
      135
 90
        4
 90
      303
 90
      306
 90
      158
 90
      157
 90
        4
 90
      306
 90
      308
 90
      173
 90
      158
 90
        4
 90
      308
 90
      309
 90
      166
 90
      173
 90
        4
 90
      309
 90
      311
 90
      167
 90
      166
 90
        4
 90
      311
 90
      312
 90
      168
 90
      167
 90
        4
 90
      312
 90
      297
 90
      169
 90
      168
 90
        4
 90
      297
 90
      298
 90
      170
 90
      169
 90
        4
 90
      298
 90
      292
 90
      171
 90
      170
 90
        4
 90
      292
 90
      293
 90
      172
 90
      171
 90
        4
 90
      293
 90
      294
 90
       44
 90
      172
 90
        4
 90
        1
 90
      161
 90
      162
 90
        0
 90
        3
 90
      162
 90
       66
 90
        0
 90
        3
 90
      162
 90
       64
 90
       65
 90
        3
 90
      162
 90
       65
 90
       66
 90
        4
 90
      162
 90
      163
 90
       63
 90
       64
 90
        3
 90
      163
 90
       62
 90
       63
 90
        3
 90
      163
 90
       61
 90
       62
 90
        3
 90
      163
 90
       16
 90
       61
 90
        4
 90
      164
 90
      165
 90
       14
 90
       15
 90
        4
 90
      163
 90
      164
 90
       15
 90
       16
 90
        3
 90
      165
 90
      159
 90
       14
 90
        4
 90
      159
 90
       87
 90
       13
 90
       14
 90
        3
 90
      159
 90
      156
 90
       87
 90
        3
 90
      160
 90
      154
 90
      155
 90
        4
 90
      159
 90
      160
 90
      155
 90
      156
 90
        3
 90
       87
 90
       88
 90
       13
 90
        3
 90
       88
 90
      152
 90
       13
 90
        4
 90
      152
 90
      153
 90
       12
 90
       13
 90
        3
 90
      153
 90
       89
 90
       12
 90
        4
 90
       89
 90
       90
 90
       11
 90
       12
 90
        3
 90
       90
 90
       91
 90
       11
 90
        4
 90
       91
 90
       92
 90
       10
 90
       11
 90
        4
 90
       93
 90
       94
 90
        9
 90
       10
 90
        3
 90
       92
 90
       93
 90
       10
 90
        3
 90
       94
 90
       95
 90
        9
 90
        4
 90
       95
 90
       96
 90
        8
 90
        9
 90
        3
 90
       96
 90
      136
 90
        8
 90
        4
 90
      136
 90
      137
 90
        7
 90
        8
 90
        4
 90
       97
 90
       98
 90
        3
 90
        4
 90
        4
 90
      139
 90
       97
 90
        4
 90
        5
 90
        4
 90
      138
 90
      139
 90
        5
 90
        6
 90
        4
 90
      137
 90
      138
 90
        6
 90
        7
 90
        4
 90
       98
 90
       99
 90
        2
 90
        3
 90
        4
 90
       99
 90
      100
 90
       50
 90
        2
 90
        3
 90
      100
 90
      101
 90
       50
 90
        4
 90
      101
 90
      102
 90
       49
 90
       50
 90
        3
 90
      102
 90
      103
 90
       49
 90
        4
 90
      103
 90
      104
 90
       48
 90
       49
 90
        4
 90
      104
 90
      105
 90
       47
 90
       48
 90
        3
 90
      109
 90
      110
 90
       18
 90
        4
 90
      110
 90
      111
 90
       17
 90
       18
 90
        4
 90
      108
 90
      109
 90
       18
 90
       46
 90
        3
 90
      107
 90
      108
 90
       46
 90
        4
 90
      106
 90
      107
 90
       46
 90
       47
 90
        3
 90
      105
 90
      106
 90
       47
 90
        4
 90
      111
 90
      140
 90
       70
 90
       17
 90
        4
 90
      112
 90
      113
 90
       19
 90
       20
 90
        4
 90
      143
 90
      112
 90
       20
 90
       67
 90
        4
 90
      142
 90
      143
 90
       67
 90
       68
 90
        4
 90
      141
 90
      142
 90
       68
 90
       69
 90
        4
 90
      140
 90
      141
 90
       69
 90
       70
 90
        4
 90
      113
 90
      114
 90
       55
 90
       19
 90
        4
 90
      120
 90
      121
 90
       21
 90
       22
 90
        4
 90
      114
 90
      115
 90
       54
 90
       55
 90
        4
 90
      119
 90
      120
 90
       22
 90
       51
 90
        4
 90
      118
 90
      119
 90
       51
 90
       52
 90
        4
 90
      115
 90
      116
 90
       53
 90
       54
 90
        3
 90
      116
 90
      117
 90
       53
 90
        4
 90
      117
 90
      118
 90
       52
 90
       53
 90
        4
 90
      121
 90
      122
 90
       75
 90
       21
 90
        4
 90
      123
 90
      124
 90
       38
 90
       39
 90
        4
 90
      147
 90
      123
 90
       39
 90
       71
 90
        4
 90
      146
 90
      147
 90
       71
 90
       72
 90
        4
 90
      145
 90
      146
 90
       72
 90
       73
 90
        4
 90
      144
 90
      145
 90
       73
 90
       74
 90
        4
 90
      122
 90
      144
 90
       74
 90
       75
 90
        4
 90
      124
 90
      125
 90
       36
 90
       37
 90
        3
 90
      124
 90
       37
 90
       38
 90
        3
 90
      125
 90
       35
 90
       36
 90
        4
 90
      125
 90
      126
 90
       34
 90
       35
 90
        4
 90
      126
 90
      127
 90
       32
 90
       33
 90
        3
 90
      126
 90
       33
 90
       34
 90
        4
 90
      127
 90
      128
 90
       31
 90
       32
 90
        4
 90
      133
 90
      148
 90
       23
 90
       24
 90
        3
 90
      133
 90
       24
 90
       25
 90
        4
 90
      132
 90
      133
 90
       25
 90
       26
 90
        3
 90
      132
 90
       26
 90
       27
 90
        4
 90
      131
 90
      132
 90
       27
 90
       28
 90
        3
 90
      131
 90
       28
 90
       29
 90
        4
 90
      130
 90
      131
 90
       29
 90
       30
 90
        3
 90
      128
 90
      129
 90
       31
 90
        4
 90
      129
 90
      130
 90
       30
 90
       31
 90
        4
 90
      148
 90
      149
 90
       81
 90
       23
 90
        4
 90
      134
 90
      135
 90
       40
 90
       41
 90
        4
 90
      151
 90
      134
 90
       41
 90
       76
 90
        4
 90
      149
 90
      150
 90
       80
 90
       81
 90
        3
 90
      150
 90
       77
 90
       78
 90
        4
 90
      150
 90
      151
 90
       76
 90
       77
 90
        3
 90
      150
 90
       79
 90
       80
 90
        3
 90
      150
 90
       78
 90
       79
 90
        3
 90
      135
 90
       60
 90
       40
 90
        4
 90
      171
 90
      172
 90
       44
 90
       45
 90
        3
 90
      171
 90
       45
 90
       82
 90
        3
 90
      171
 90
       82
 90
       83
 90
        4
 90
      169
 90
      170
 90
       85
 90
       86
 90
        3
 90
      169
 90
       86
 90
       42
 90
        3
 90
      170
 90
       84
 90
       85
 90
        4
 90
      170
 90
      171
 90
       83
 90
       84
 90
        4
 90
      135
 90
      157
 90
       59
 90
       60
 90
        3
 90
      157
 90
       58
 90
       59
 90
        4
 90
      157
 90
      158
 90
       57
 90
       58
 90
        4
 90
      158
 90
      173
 90
      166
 90
       56
 90
        3
 90
      158
 90
       56
 90
       57
 90
        4
 90
      166
 90
      167
 90
       43
 90
       56
 90
        3
 90
      167
 90
      168
 90
       43
 90
        4
 90
      168
 90
      169
 90
       42
 90
       43
 90
        4
 90
      174
 90
      177
 90
      176
 90
      175
 90
        3
 90
      176
 90
      177
 90
      178
 90
        3
 90
      176
 90
      179
 90
      313
 90
        3
 90
      176
 90
      178
 90
      179
 90
        4
 90
      176
 90
      313
 90
      181
 90
      180
 90
        3
 90
      180
 90
      181
 90
      182
 90
        3
 90
      180
 90
      182
 90
      183
 90
        3
 90
      180
 90
      183
 90
      184
 90
        4
 90
      185
 90
      186
 90
      315
 90
      314
 90
        4
 90
      180
 90
      184
 90
      186
 90
      185
 90
        3
 90
      314
 90
      315
 90
      187
 90
        4
 90
      187
 90
      315
 90
      189
 90
      188
 90
        3
 90
      187
 90
      188
 90
      190
 90
        3
 90
      191
 90
      193
 90
      192
 90
        4
 90
      187
 90
      190
 90
      193
 90
      191
 90
        3
 90
      188
 90
      189
 90
      316
 90
        3
 90
      316
 90
      189
 90
      194
 90
        4
 90
      194
 90
      189
 90
      195
 90
      317
 90
        3
 90
      317
 90
      195
 90
      196
 90
        4
 90
      196
 90
      195
 90
      197
 90
      318
 90
        3
 90
      318
 90
      197
 90
      198
 90
        4
 90
      198
 90
      197
 90
      199
 90
      319
 90
        4
 90
      200
 90
      199
 90
      201
 90
      320
 90
        3
 90
      319
 90
      199
 90
      200
 90
        3
 90
      320
 90
      201
 90
      202
 90
        4
 90
      202
 90
      201
 90
      203
 90
      321
 90
        3
 90
      321
 90
      203
 90
      204
 90
        4
 90
      204
 90
      203
 90
      322
 90
      205
 90
        4
 90
      206
 90
      208
 90
      323
 90
      207
 90
        4
 90
      209
 90
      324
 90
      208
 90
      206
 90
        4
 90
      210
 90
      211
 90
      324
 90
      209
 90
        4
 90
      205
 90
      322
 90
      211
 90
      210
 90
        4
 90
      207
 90
      323
 90
      213
 90
      212
 90
        4
 90
      212
 90
      213
 90
      215
 90
      214
 90
        3
 90
      214
 90
      215
 90
      216
 90
        4
 90
      216
 90
      215
 90
      218
 90
      217
 90
        3
 90
      217
 90
      218
 90
      219
 90
        4
 90
      219
 90
      218
 90
      221
 90
      220
 90
        4
 90
      220
 90
      221
 90
      223
 90
      222
 90
        3
 90
      224
 90
      226
 90
      225
 90
        4
 90
      225
 90
      226
 90
      228
 90
      227
 90
        4
 90
      325
 90
      229
 90
      226
 90
      224
 90
        3
 90
      230
 90
      229
 90
      325
 90
        4
 90
      326
 90
      223
 90
      229
 90
      230
 90
        3
 90
      222
 90
      223
 90
      326
 90
        4
 90
      227
 90
      228
 90
      328
 90
      327
 90
        4
 90
      231
 90
      234
 90
      233
 90
      232
 90
        4
 90
      235
 90
      236
 90
      234
 90
      231
 90
        4
 90
      329
 90
      237
 90
      236
 90
      235
 90
        4
 90
      238
 90
      239
 90
      237
 90
      329
 90
        4
 90
      327
 90
      328
 90
      239
 90
      238
 90
        4
 90
      232
 90
      233
 90
      331
 90
      330
 90
        4
 90
      240
 90
      242
 90
      332
 90
      241
 90
        4
 90
      330
 90
      331
 90
      244
 90
      243
 90
        4
 90
      245
 90
      246
 90
      242
 90
      240
 90
        4
 90
      247
 90
      248
 90
      246
 90
      245
 90
        4
 90
      243
 90
      244
 90
      250
 90
      249
 90
        3
 90
      249
 90
      250
 90
      251
 90
        4
 90
      251
 90
      250
 90
      248
 90
      247
 90
        4
 90
      241
 90
      332
 90
      253
 90
      252
 90
        4
 90
      254
 90
      334
 90
      255
 90
      333
 90
        4
 90
      256
 90
      257
 90
      334
 90
      254
 90
        4
 90
      258
 90
      335
 90
      257
 90
      256
 90
        4
 90
      259
 90
      260
 90
      335
 90
      258
 90
        4
 90
      261
 90
      262
 90
      260
 90
      259
 90
        4
 90
      252
 90
      253
 90
      262
 90
      261
 90
        4
 90
      333
 90
      336
 90
      264
 90
      263
 90
        3
 90
      333
 90
      255
 90
      336
 90
        3
 90
      263
 90
      264
 90
      265
 90
        4
 90
      263
 90
      265
 90
      266
 90
      337
 90
        4
 90
      337
 90
      268
 90
      338
 90
      267
 90
        3
 90
      337
 90
      266
 90
      268
 90
        4
 90
      267
 90
      338
 90
      269
 90
      339
 90
        4
 90
      270
 90
      273
 90
      272
 90
      271
 90
        3
 90
      270
 90
      274
 90
      273
 90
        4
 90
      340
 90
      341
 90
      274
 90
      270
 90
        3
 90
      340
 90
      275
 90
      341
 90
        4
 90
      276
 90
      277
 90
      275
 90
      340
 90
        3
 90
      276
 90
      278
 90
      277
 90
        4
 90
      279
 90
      280
 90
      278
 90
      276
 90
        3
 90
      339
 90
      269
 90
      281
 90
        4
 90
      281
 90
      269
 90
      280
 90
      279
 90
        4
 90
      271
 90
      272
 90
      283
 90
      282
 90
        4
 90
      342
 90
      343
 90
      285
 90
      284
 90
        4
 90
      286
 90
      287
 90
      343
 90
      342
 90
        4
 90
      282
 90
      283
 90
      289
 90
      288
 90
        3
 90
      288
 90
      290
 90
      344
 90
        4
 90
      288
 90
      344
 90
      287
 90
      286
 90
        3
 90
      288
 90
      289
 90
      345
 90
        3
 90
      288
 90
      345
 90
      290
 90
        3
 90
      284
 90
      285
 90
      291
 90
        4
 90
      292
 90
      295
 90
      294
 90
      293
 90
        3
 90
      292
 90
      346
 90
      295
 90
        3
 90
      292
 90
      296
 90
      346
 90
        4
 90
      297
 90
      300
 90
      299
 90
      298
 90
        3
 90
      297
 90
      301
 90
      300
 90
        3
 90
      298
 90
      299
 90
      302
 90
        4
 90
      298
 90
      302
 90
      296
 90
      292
 90
        4
 90
      284
 90
      291
 90
      304
 90
      303
 90
        3
 90
      303
 90
      304
 90
      305
 90
        4
 90
      303
 90
      305
 90
      307
 90
      306
 90
        4
 90
      306
 90
      310
 90
      309
 90
      308
 90
        3
 90
      306
 90
      307
 90
      310
 90
        4
 90
      309
 90
      310
 90
      347
 90
      311
 90
        3
 90
      311
 90
      347
 90
      312
 90
        4
 90
      312
 90
      347
 90
      301
 90
      297
 94
      732
 90
      294
 90
      295
 90
       45
 90
      295
 90
       44
 90
       45
 90
       44
 90
      294
 90
      295
 90
      346
 90
       82
 90
      346
 90
       45
 90
       82
 90
      296
 90
      346
 90
       83
 90
      296
 90
       82
 90
       83
 90
      296
 90
      302
 90
       84
 90
      302
 90
       83
 90
       84
 90
      299
 90
      302
 90
       85
 90
      299
 90
       84
 90
       85
 90
      299
 90
      300
 90
       86
 90
      300
 90
       85
 90
       86
 90
      300
 90
      301
 90
       42
 90
      301
 90
       42
 90
       86
 90
      301
 90
      347
 90
       43
 90
      347
 90
       42
 90
       43
 90
      310
 90
      347
 90
       56
 90
      310
 90
       43
 90
       56
 90
      307
 90
      310
 90
       57
 90
      307
 90
       56
 90
       57
 90
      305
 90
      307
 90
       58
 90
      305
 90
       57
 90
       58
 90
      304
 90
      305
 90
       59
 90
      304
 90
       58
 90
       59
 90
      291
 90
      304
 90
       60
 90
      291
 90
       59
 90
       60
 90
      285
 90
      291
 90
       40
 90
      285
 90
       40
 90
       60
 90
      285
 90
      343
 90
       41
 90
      343
 90
       40
 90
       41
 90
      287
 90
      343
 90
       76
 90
      287
 90
       41
 90
       76
 90
      287
 90
      344
 90
       77
 90
      344
 90
       76
 90
       77
 90
      290
 90
      344
 90
       78
 90
      290
 90
       77
 90
       78
 90
      290
 90
      345
 90
       79
 90
      345
 90
       78
 90
       79
 90
      289
 90
      345
 90
       80
 90
      289
 90
       79
 90
       80
 90
      283
 90
      289
 90
       81
 90
      283
 90
       80
 90
       81
 90
      272
 90
      283
 90
       23
 90
      272
 90
       23
 90
       81
 90
      272
 90
      273
 90
       24
 90
      273
 90
       23
 90
       24
 90
      273
 90
      274
 90
       25
 90
      274
 90
       24
 90
       25
 90
      274
 90
      341
 90
       26
 90
      341
 90
       25
 90
       26
 90
      275
 90
      341
 90
       27
 90
      275
 90
       26
 90
       27
 90
      275
 90
      277
 90
       28
 90
      277
 90
       27
 90
       28
 90
      277
 90
      278
 90
       29
 90
      278
 90
       28
 90
       29
 90
      278
 90
      280
 90
       30
 90
      280
 90
       29
 90
       30
 90
      269
 90
      280
 90
       31
 90
      269
 90
       30
 90
       31
 90
      269
 90
      338
 90
       32
 90
      338
 90
       31
 90
       32
 90
      268
 90
      338
 90
       33
 90
      268
 90
       32
 90
       33
 90
      266
 90
      268
 90
       34
 90
      266
 90
       33
 90
       34
 90
      265
 90
      266
 90
       35
 90
      265
 90
       34
 90
       35
 90
      264
 90
      265
 90
       36
 90
      264
 90
       35
 90
       36
 90
      264
 90
      336
 90
       37
 90
      336
 90
       36
 90
       37
 90
      255
 90
      336
 90
       38
 90
      255
 90
       37
 90
       38
 90
      255
 90
      334
 90
       39
 90
      334
 90
       38
 90
       39
 90
      257
 90
      334
 90
       71
 90
      257
 90
       39
 90
       71
 90
      257
 90
      335
 90
       72
 90
      335
 90
       71
 90
       72
 90
      260
 90
      335
 90
       73
 90
      260
 90
       72
 90
       73
 90
      260
 90
      262
 90
       74
 90
      262
 90
       73
 90
       74
 90
      253
 90
      262
 90
       75
 90
      253
 90
       74
 90
       75
 90
      253
 90
      332
 90
       21
 90
      332
 90
       21
 90
       75
 90
      242
 90
      332
 90
       22
 90
      242
 90
       21
 90
       22
 90
      242
 90
      246
 90
       51
 90
      246
 90
       22
 90
       51
 90
      246
 90
      248
 90
       52
 90
      248
 90
       51
 90
       52
 90
      248
 90
      250
 90
       53
 90
      250
 90
       52
 90
       53
 90
      244
 90
      250
 90
       54
 90
      244
 90
       53
 90
       54
 90
      244
 90
      331
 90
       55
 90
      331
 90
       54
 90
       55
 90
      233
 90
      331
 90
       19
 90
      233
 90
       19
 90
       55
 90
      233
 90
      234
 90
       20
 90
      234
 90
       19
 90
       20
 90
      234
 90
      236
 90
       67
 90
      236
 90
       20
 90
       67
 90
      236
 90
      237
 90
       68
 90
      237
 90
       67
 90
       68
 90
      237
 90
      239
 90
       69
 90
      239
 90
       68
 90
       69
 90
      239
 90
      328
 90
       70
 90
      328
 90
       69
 90
       70
 90
      228
 90
      328
 90
       17
 90
      228
 90
       17
 90
       70
 90
      226
 90
      228
 90
       18
 90
      226
 90
       17
 90
       18
 90
      226
 90
      229
 90
       46
 90
      229
 90
       18
 90
       46
 90
      223
 90
      229
 90
       47
 90
      223
 90
       46
 90
       47
 90
      221
 90
      223
 90
       48
 90
      221
 90
       47
 90
       48
 90
      218
 90
      221
 90
       49
 90
      218
 90
       48
 90
       49
 90
      215
 90
      218
 90
       50
 90
      215
 90
       49
 90
       50
 90
      213
 90
      215
 90
        2
 90
      213
 90
        2
 90
       50
 90
      213
 90
      323
 90
        3
 90
      323
 90
        2
 90
        3
 90
      208
 90
      323
 90
        4
 90
      208
 90
        3
 90
        4
 90
      208
 90
      324
 90
        5
 90
      324
 90
        4
 90
        5
 90
      211
 90
      324
 90
        6
 90
      211
 90
        5
 90
        6
 90
      211
 90
      322
 90
        7
 90
      322
 90
        6
 90
        7
 90
      203
 90
      322
 90
        8
 90
      203
 90
        7
 90
        8
 90
      201
 90
      203
 90
        9
 90
      201
 90
        8
 90
        9
 90
      199
 90
      201
 90
       10
 90
      199
 90
        9
 90
       10
 90
      197
 90
      199
 90
       11
 90
      197
 90
       10
 90
       11
 90
      195
 90
      197
 90
       12
 90
      195
 90
       11
 90
       12
 90
      189
 90
      195
 90
       13
 90
      189
 90
       12
 90
       13
 90
      189
 90
      315
 90
       14
 90
      315
 90
       13
 90
       14
 90
      186
 90
      315
 90
       15
 90
      186
 90
       14
 90
       15
 90
      184
 90
      186
 90
       16
 90
      184
 90
       15
 90
       16
 90
      183
 90
      184
 90
       61
 90
      183
 90
       16
 90
       61
 90
      182
 90
      183
 90
       62
 90
      182
 90
       61
 90
       62
 90
      181
 90
      182
 90
       63
 90
      181
 90
       62
 90
       63
 90
      181
 90
      313
 90
       64
 90
      313
 90
       63
 90
       64
 90
      179
 90
      313
 90
       65
 90
      179
 90
       64
 90
       65
 90
      178
 90
      179
 90
       66
 90
      178
 90
       65
 90
       66
 90
      177
 90
      178
 90
        0
 90
      177
 90
        0
 90
       66
 90
      174
 90
      177
 90
        1
 90
      174
 90
        0
 90
        1
 90
      174
 90
      175
 90
      161
 90
      175
 90
        1
 90
      161
 90
      175
 90
      176
 90
      162
 90
      176
 90
      161
 90
      162
 90
      176
 90
      180
 90
      163
 90
      180
 90
      162
 90
      163
 90
      180
 90
      185
 90
      164
 90
      185
 90
      163
 90
      164
 90
      185
 90
      314
 90
      165
 90
      314
 90
      164
 90
      165
 90
      187
 90
      314
 90
      159
 90
      187
 90
      159
 90
      165
 90
      187
 90
      191
 90
      160
 90
      191
 90
      159
 90
      160
 90
      191
 90
      192
 90
      154
 90
      192
 90
      154
 90
      160
 90
      192
 90
      193
 90
      155
 90
      193
 90
      154
 90
      155
 90
      190
 90
      193
 90
      156
 90
      190
 90
      155
 90
      156
 90
      188
 90
      190
 90
       87
 90
      188
 90
       87
 90
      156
 90
      188
 90
      316
 90
       88
 90
      316
 90
       87
 90
       88
 90
      194
 90
      316
 90
      152
 90
      194
 90
       88
 90
      152
 90
      194
 90
      317
 90
      153
 90
      317
 90
      152
 90
      153
 90
      196
 90
      317
 90
       89
 90
      196
 90
       89
 90
      153
 90
      196
 90
      318
 90
       90
 90
      318
 90
       89
 90
       90
 90
      198
 90
      318
 90
       91
 90
      198
 90
       90
 90
       91
 90
      198
 90
      319
 90
       92
 90
      319
 90
       91
 90
       92
 90
      200
 90
      319
 90
       93
 90
      200
 90
       92
 90
       93
 90
      200
 90
      320
 90
       94
 90
      320
 90
       93
 90
       94
 90
      202
 90
      320
 90
       95
 90
      202
 90
       94
 90
       95
 90
      202
 90
      321
 90
       96
 90
      321
 90
       95
 90
       96
 90
      204
 90
      321
 90
      136
 90
      204
 90
       96
 90
      136
 90
      204
 90
      205
 90
      137
 90
      205
 90
      136
 90
      137
 90
      205
 90
      210
 90
      138
 90
      210
 90
      137
 90
      138
 90
      209
 90
      210
 90
      139
 90
      209
 90
      138
 90
      139
 90
      206
 90
      209
 90
       97
 90
      206
 90
       97
 90
      139
 90
      206
 90
      207
 90
       98
 90
      207
 90
       97
 90
       98
 90
      207
 90
      212
 90
       99
 90
      212
 90
       98
 90
       99
 90
      212
 90
      214
 90
      100
 90
      214
 90
       99
 90
      100
 90
      214
 90
      216
 90
      101
 90
      216
 90
      100
 90
      101
 90
      216
 90
      217
 90
      102
 90
      217
 90
      101
 90
      102
 90
      217
 90
      219
 90
      103
 90
      219
 90
      102
 90
      103
 90
      219
 90
      220
 90
      104
 90
      220
 90
      103
 90
      104
 90
      220
 90
      222
 90
      105
 90
      222
 90
      104
 90
      105
 90
      222
 90
      326
 90
      106
 90
      326
 90
      105
 90
      106
 90
      230
 90
      326
 90
      107
 90
      230
 90
      106
 90
      107
 90
      230
 90
      325
 90
      108
 90
      325
 90
      107
 90
      108
 90
      224
 90
      325
 90
      109
 90
      224
 90
      108
 90
      109
 90
      224
 90
      225
 90
      110
 90
      225
 90
      109
 90
      110
 90
      225
 90
      227
 90
      111
 90
      227
 90
      110
 90
      111
 90
      227
 90
      327
 90
      140
 90
      327
 90
      111
 90
      140
 90
      238
 90
      327
 90
      141
 90
      238
 90
      140
 90
      141
 90
      238
 90
      329
 90
      142
 90
      329
 90
      141
 90
      142
 90
      235
 90
      329
 90
      143
 90
      235
 90
      142
 90
      143
 90
      231
 90
      235
 90
      112
 90
      231
 90
      112
 90
      143
 90
      231
 90
      232
 90
      113
 90
      232
 90
      112
 90
      113
 90
      232
 90
      330
 90
      114
 90
      330
 90
      113
 90
      114
 90
      243
 90
      330
 90
      115
 90
      243
 90
      114
 90
      115
 90
      243
 90
      249
 90
      116
 90
      249
 90
      115
 90
      116
 90
      249
 90
      251
 90
      117
 90
      251
 90
      116
 90
      117
 90
      247
 90
      251
 90
      118
 90
      247
 90
      117
 90
      118
 90
      245
 90
      247
 90
      119
 90
      245
 90
      118
 90
      119
 90
      240
 90
      245
 90
      120
 90
      240
 90
      119
 90
      120
 90
      240
 90
      241
 90
      121
 90
      241
 90
      120
 90
      121
 90
      241
 90
      252
 90
      122
 90
      252
 90
      121
 90
      122
 90
      252
 90
      261
 90
      144
 90
      261
 90
      122
 90
      144
 90
      259
 90
      261
 90
      145
 90
      259
 90
      144
 90
      145
 90
      258
 90
      259
 90
      146
 90
      258
 90
      145
 90
      146
 90
      256
 90
      258
 90
      147
 90
      256
 90
      146
 90
      147
 90
      254
 90
      256
 90
      123
 90
      254
 90
      123
 90
      147
 90
      254
 90
      333
 90
      124
 90
      333
 90
      123
 90
      124
 90
      263
 90
      333
 90
      125
 90
      263
 90
      124
 90
      125
 90
      263
 90
      337
 90
      126
 90
      337
 90
      125
 90
      126
 90
      267
 90
      337
 90
      127
 90
      267
 90
      126
 90
      127
 90
      267
 90
      339
 90
      128
 90
      339
 90
      127
 90
      128
 90
      281
 90
      339
 90
      129
 90
      281
 90
      128
 90
      129
 90
      279
 90
      281
 90
      130
 90
      279
 90
      129
 90
      130
 90
      276
 90
      279
 90
      131
 90
      276
 90
      130
 90
      131
 90
      276
 90
      340
 90
      132
 90
      340
 90
      131
 90
      132
 90
      270
 90
      340
 90
      133
 90
      270
 90
      132
 90
      133
 90
      270
 90
      271
 90
      148
 90
      271
 90
      133
 90
      148
 90
      271
 90
      282
 90
      149
 90
      282
 90
      148
 90
      149
 90
      282
 90
      288
 90
      150
 90
      288
 90
      149
 90
      150
 90
      286
 90
      288
 90
      151
 90
      286
 90
      150
 90
      151
 90
      286
 90
      342
 90
      134
 90
      342
 90
      134
 90
      151
 90
      284
 90
      342
 90
      135
 90
      284
 90
      134
 90
      135
 90
      284
 90
      303
 90
      157
 90
      303
 90
      135
 90
      157
 90
      303
 90
      306
 90
      158
 90
      306
 90
      157
 90
      158
 90
      306
 90
      308
 90
      173
 90
      308
 90
      158
 90
      173
 90
      308
 90
      309
 90
      166
 90
      309
 90
      166
 90
      173
 90
      309
 90
      311
 90
      167
 90
      311
 90
      166
 90
      167
 90
      311
 90
      312
 90
      168
 90
      312
 90
      167
 90
      168
 90
      297
 90
      312
 90
      169
 90
      297
 90
      168
 90
      169
 90
      297
 90
      298
 90
      170
 90
      298
 90
      169
 90
      170
 90
      292
 90
      298
 90
      171
 90
      292
 90
      170
 90
      171
 90
      292
 90
      293
 90
      172
 90
      293
 90
      171
 90
      172
 90
      293
 90
      294
 90
       44
 90
      172
 90
        0
 90
      162
 90
       66
 90
      162
 90
       64
 90
      162
 90
       65
 90
      162
 90
       63
 90
      163
 90
       62
 90
      163
 90
       61
 90
      163
 90
       16
 90
      163
 90
       14
 90
      165
 90
       15
 90
      164
 90
       14
 90
      159
 90
       87
 90
      159
 90
       13
 90
       87
 90
      156
 90
      159
 90
      155
 90
      160
 90
       13
 90
       88
 90
       13
 90
      152
 90
       12
 90
      153
 90
       12
 90
       89
 90
       11
 90
       90
 90
       11
 90
       91
 90
       10
 90
       92
 90
        9
 90
       94
 90
       10
 90
       93
 90
        9
 90
       95
 90
        8
 90
       96
 90
        8
 90
      136
 90
        7
 90
      137
 90
        3
 90
       98
 90
        4
 90
       97
 90
        5
 90
      139
 90
        6
 90
      138
 90
        2
 90
       99
 90
       50
 90
      100
 90
       50
 90
      101
 90
       49
 90
      102
 90
       49
 90
      103
 90
       48
 90
      104
 90
       47
 90
      105
 90
       18
 90
      110
 90
       18
 90
      109
 90
       17
 90
      111
 90
       46
 90
      108
 90
       46
 90
      107
 90
       47
 90
      106
 90
       70
 90
      140
 90
       19
 90
      113
 90
       20
 90
      112
 90
       67
 90
      143
 90
       68
 90
      142
 90
       69
 90
      141
 90
       55
 90
      114
 90
       21
 90
      121
 90
       22
 90
      120
 90
       54
 90
      115
 90
       51
 90
      119
 90
       52
 90
      118
 90
       53
 90
      116
 90
       53
 90
      117
 90
       75
 90
      122
 90
       38
 90
      124
 90
       39
 90
      123
 90
       71
 90
      147
 90
       72
 90
      146
 90
       73
 90
      145
 90
       74
 90
      144
 90
       36
 90
      125
 90
       37
 90
      124
 90
       35
 90
      125
 90
       34
 90
      126
 90
       32
 90
      127
 90
       33
 90
      126
 90
       31
 90
      128
 90
       23
 90
      148
 90
       24
 90
      133
 90
       25
 90
      133
 90
       26
 90
      132
 90
       27
 90
      132
 90
       28
 90
      131
 90
       29
 90
      131
 90
       30
 90
      130
 90
       31
 90
      129
 90
       81
 90
      149
 90
       40
 90
      135
 90
       41
 90
      134
 90
       76
 90
      151
 90
       80
 90
      150
 90
       77
 90
      150
 90
       78
 90
      150
 90
       79
 90
      150
 90
       60
 90
      135
 90
       45
 90
      171
 90
       82
 90
      171
 90
       83
 90
      171
 90
       85
 90
      170
 90
       86
 90
      169
 90
       42
 90
      169
 90
       84
 90
      170
 90
       59
 90
      157
 90
       58
 90
      157
 90
       57
 90
      158
 90
       56
 90
      166
 90
       56
 90
      158
 90
       43
 90
      167
 90
       43
 90
      168
 90
      176
 90
      177
 90
      176
 90
      178
 90
      176
 90
      179
 90
      176
 90
      313
 90
      180
 90
      181
 90
      180
 90
      182
 90
      180
 90
      183
 90
      180
 90
      184
 90
      185
 90
      186
 90
      314
 90
      315
 90
      187
 90
      315
 90
      188
 90
      189
 90
      187
 90
      188
 90
      187
 90
      190
 90
      191
 90
      193
 90
      189
 90
      316
 90
      189
 90
      194
 90
      195
 90
      317
 90
      195
 90
      196
 90
      197
 90
      318
 90
      197
 90
      198
 90
      199
 90
      319
 90
      199
 90
      200
 90
      201
 90
      320
 90
      201
 90
      202
 90
      203
 90
      321
 90
      203
 90
      204
 90
      205
 90
      322
 90
      206
 90
      208
 90
      207
 90
      323
 90
      209
 90
      324
 90
      210
 90
      211
 90
      212
 90
      213
 90
      214
 90
      215
 90
      215
 90
      216
 90
      217
 90
      218
 90
      218
 90
      219
 90
      220
 90
      221
 90
      222
 90
      223
 90
      224
 90
      226
 90
      225
 90
      226
 90
      227
 90
      228
 90
      229
 90
      325
 90
      229
 90
      230
 90
      223
 90
      326
 90
      327
 90
      328
 90
      231
 90
      234
 90
      232
 90
      233
 90
      235
 90
      236
 90
      237
 90
      329
 90
      238
 90
      239
 90
      330
 90
      331
 90
      240
 90
      242
 90
      241
 90
      332
 90
      243
 90
      244
 90
      245
 90
      246
 90
      247
 90
      248
 90
      249
 90
      250
 90
      250
 90
      251
 90
      252
 90
      253
 90
      254
 90
      334
 90
      255
 90
      333
 90
      256
 90
      257
 90
      258
 90
      335
 90
      259
 90
      260
 90
      261
 90
      262
 90
      333
 90
      336
 90
      263
 90
      264
 90
      263
 90
      265
 90
      266
 90
      337
 90
      268
 90
      337
 90
      267
 90
      338
 90
      269
 90
      339
 90
      270
 90
      273
 90
      271
 90
      272
 90
      270
 90
      274
 90
      340
 90
      341
 90
      275
 90
      340
 90
      276
 90
      277
 90
      276
 90
      278
 90
      279
 90
      280
 90
      269
 90
      281
 90
      282
 90
      283
 90
      342
 90
      343
 90
      284
 90
      285
 90
      286
 90
      287
 90
      288
 90
      289
 90
      288
 90
      290
 90
      288
 90
      344
 90
      288
 90
      345
 90
      284
 90
      291
 90
      292
 90
      295
 90
      292
 90
      346
 90
      292
 90
      296
 90
      297
 90
      300
 90
      298
 90
      299
 90
      297
 90
      301
 90
      298
 90
      302
 90
      303
 90
      304
 90
      303
 90
      305
 90
      306
 90
      307
 90
      306
 90
      310
 90
      309
 90
      310
 90
      311
 90
      347
 90
      312
 90
      347
 95
      732
140
0.0
140
0.0
140
0.0
140
0.0
140
0.0
140
0.0
140
0.0
140
0.0
140
0.0
140
0.0
140
0.0
140
0.0
140
0.0
140
0.0
140
0.0
140
0.0
140
0.0
140
0.0
140
0.0
140
0.0
140
0.0
140
0.0
140
0.0
140
0.0
140
0.0
140
0.0
140
0.0
140
0.0
140
0.0
140
0.0
140
0.0
140
0.0
140
0.0
140
0.0
140
0.0
140
0.0
140
0.0
140
0.0
140
0.0
140
0.0
140
0.0
140
0.0
140
0.0
140
0.0
140
0.0
140
0.0
140
0.0
140
0.0
140
0.0
140
0.0
140
0.0
140
0.0
140
0.0
140
0.0
140
0.0
140
0.0
140
0.0
140
0.0
140
0.0
140
0.0
140
0.0
140
0.0
140
0.0
140
0.0
140
0.0
140
0.0
140
0.0
140
0.0
140
0.0
140
0.0
140
0.0
140
0.0
140
0.0
140
0.0
140
0.0
140
0.0
140
0.0
140
0.0
140
0.0
140
0.0
140
0.0
140
0.0
140
0.0
140
0.0
140
0.0
140
0.0
140
0.0
140
0.0
140
0.0
140
0.0
140
0.0
140
0.0
140
0.0
140
0.0
140
0.0
140
0.0
140
0.0
140
0.0
140
0.0
140
0.0
140
0.0
140
0.0
140
0.0
140
0.0
140
0.0
140
0.0
140
0.0
140
0.0
140
0.0
140
0.0
140
0.0
140
0.0
140
0.0
140
0.0
140
0.0
140
0.0
140
0.0
140
0.0
140
0.0
140
0.0
140
0.0
140
0.0
140
0.0
140
0.0
140
0.0
140
0.0
140
0.0
140
0.0
140
0.0
140
0.0
140
0.0
140
0.0
140
0.0
140
0.0
140
0.0
140
0.0
140
0.0
140
0.0
140
0.0
140
0.0
140
0.0
140
0.0
140
0.0
140
0.0
140
0.0
140
0.0
140
0.0
140
0.0
140
0.0
140
0.0
140
0.0
140
0.0
140
0.0
140
0.0
140
0.0
140
0.0
140
0.0
140
0.0
140
0.0
140
0.0
140
0.0
140
0.0
140
0.0
140
0.0
140
0.0
140
0.0
140
0.0
140
0.0
140
0.0
140
0.0
140
0.0
140
0.0
140
0.0
140
0.0
140
0.0
140
0.0
140
0.0
140
0.0
140
0.0
140
0.0
140
0.0
140
0.0
140
0.0
140
0.0
140
0.0
140
0.0
140
0.0
140
0.0
140
0.0
140
0.0
140
0.0
140
0.0
140
0.0
140
0.0
140
0.0
140
0.0
140
0.0
140
0.0
140
0.0
140
0.0
140
0.0
140
0.0
140
0.0
140
0.0
140
0.0
140
0.0
140
0.0
140
0.0
140
0.0
140
0.0
140
0.0
140
0.0
140
0.0
140
0.0
140
0.0
140
0.0
140
0.0
140
0.0
140
0.0
140
0.0
140
0.0
140
0.0
140
0.0
140
0.0
140
0.0
140
0.0
140
0.0
140
0.0
140
0.0
140
0.0
140
0.0
140
0.0
140
0.0
140
0.0
140
0.0
140
0.0
140
0.0
140
0.0
140
0.0
140
0.0
140
0.0
140
0.0
140
0.0
140
0.0
140
0.0
140
0.0
140
0.0
140
0.0
140
0.0
140
0.0
140
0.0
140
0.0
140
0.0
140
0.0
140
0.0
140
0.0
140
0.0
140
0.0
140
0.0
140
0.0
140
0.0
140
0.0
140
0.0
140
0.0
140
0.0
140
0.0
140
0.0
140
0.0
140
0.0
140
0.0
140
0.0
140
0.0
140
0.0
140
0.0
140
0.0
140
0.0
140
0.0
140
0.0
140
0.0
140
0.0
140
0.0
140
0.0
140
0.0
140
0.0
140
0.0
140
0.0
140
0.0
140
0.0
140
0.0
140
0.0
140
0.0
140
0.0
140
0.0
140
0.0
140
0.0
140
0.0
140
0.0
140
0.0
140
0.0
140
0.0
140
0.0
140
0.0
140
0.0
140
0.0
140
0.0
140
0.0
140
0.0
140
0.0
140
0.0
140
0.0
140
0.0
140
0.0
140
0.0
140
0.0
140
0.0
140
0.0
140
0.0
140
0.0
140
0.0
140
0.0
140
0.0
140
0.0
140
0.0
140
0.0
140
0.0
140
0.0
140
0.0
140
0.0
140
0.0
140
0.0
140
0.0
140
0.0
140
0.0
140
0.0
140
0.0
140
0.0
140
0.0
140
0.0
140
0.0
140
0.0
140
0.0
140
0.0
140
0.0
140
0.0
140
0.0
140
0.0
140
0.0
140
0.0
140
0.0
140
0.0
140
0.0
140
0.0
140
0.0
140
0.0
140
0.0
140
0.0
140
0.0
140
0.0
140
0.0
140
0.0
140
0.0
140
0.0
140
0.0
140
0.0
140
0.0
140
0.0
140
0.0
140
0.0
140
0.0
140
0.0
140
0.0
140
0.0
140
0.0
140
0.0
140
0.0
140
0.0
140
0.0
140
0.0
140
0.0
140
0.0
140
0.0
140
0.0
140
0.0
140
0.0
140
0.0
140
0.0
140
0.0
140
0.0
140
0.0
140
0.0
140
0.0
140
0.0
140
0.0
140
0.0
140
0.0
140
0.0
140
0.0
140
0.0
140
0.0
140
0.0
140
0.0
140
0.0
140
0.0
140
0.0
140
0.0
140
0.0
140
0.0
140
0.0
140
0.0
140
0.0
140
0.0
140
0.0
140
0.0
140
0.0
140
0.0
140
0.0
140
0.0
140
0.0
140
0.0
140
0.0
140
0.0
140
0.0
140
0.0
140
0.0
140
0.0
140
0.0
140
0.0
140
0.0
140
0.0
140
0.0
140
0.0
140
0.0
140
0.0
140
0.0
140
0.0
140
0.0
140
0.0
140
0.0
140
0.0
140
0.0
140
0.0
140
0.0
140
0.0
140
0.0
140
0.0
140
0.0
140
0.0
140
0.0
140
0.0
140
0.0
140
0.0
140
0.0
140
0.0
140
0.0
140
0.0
140
0.0
140
0.0
140
0.0
140
0.0
140
0.0
140
0.0
140
0.0
140
0.0
140
0.0
140
0.0
140
0.0
140
0.0
140
0.0
140
0.0
140
0.0
140
0.0
140
0.0
140
0.0
140
0.0
140
0.0
140
0.0
140
0.0
140
0.0
140
0.0
140
0.0
140
0.0
140
0.0
140
0.0
140
0.0
140
0.0
140
0.0
140
0.0
140
0.0
140
0.0
140
0.0
140
0.0
140
0.0
140
0.0
140
0.0
140
0.0
140
0.0
140
0.0
140
0.0
140
0.0
140
0.0
140
0.0
140
0.0
140
0.0
140
0.0
140
0.0
140
0.0
140
0.0
140
0.0
140
0.0
140
0.0
140
0.0
140
0.0
140
0.0
140
0.0
140
0.0
140
0.0
140
0.0
140
0.0
140
0.0
140
0.0
140
0.0
140
0.0
140
0.0
140
0.0
140
0.0
140
0.0
140
0.0
140
0.0
140
0.0
140
0.0
140
0.0
140
0.0
140
0.0
140
0.0
140
0.0
140
0.0
140
0.0
140
0.0
140
0.0
140
0.0
140
0.0
140
0.0
140
0.0
140
0.0
140
0.0
140
0.0
140
0.0
140
0.0
140
0.0
140
0.0
140
0.0
140
0.0
140
0.0
140
0.0
140
0.0
140
0.0
140
0.0
140
0.0
140
0.0
140
0.0
140
0.0
140
0.0
140
0.0
140
0.0
140
0.0
140
0.0
140
0.0
140
0.0
140
0.0
140
0.0
140
0.0
140
0.0
140
0.0
140
0.0
140
0.0
140
0.0
140
0.0
140
0.0
140
0.0
140
0.0
140
0.0
140
0.0
140
0.0
140
0.0
140
0.0
140
0.0
140
0.0
140
0.0
140
0.0
140
0.0
140
0.0
140
0.0
140
0.0
140
0.0
140
0.0
140
0.0
140
0.0
140
0.0
140
0.0
140
0.0
140
0.0
140
0.0
140
0.0
140
0.0
140
0.0
140
0.0
140
0.0
140
0.0
140
0.0
140
0.0
140
0.0
140
0.0
140
0.0
140
0.0
140
0.0
140
0.0
140
0.0
140
0.0
140
0.0
140
0.0
140
0.0
140
0.0
140
0.0
140
0.0
140
0.0
140
0.0
140
0.0
140
0.0
140
0.0
140
0.0
140
0.0
140
0.0
140
0.0
140
0.0
140
0.0
140
0.0
140
0.0
140
0.0
140
0.0
140
0.0
140
0.0
140
0.0
140
0.0
140
0.0
140
0.0
140
0.0
140
0.0
140
0.0
140
0.0
140
0.0
140
0.0
140
0.0
140
0.0
140
0.0
140
0.0
140
0.0
140
0.0
140
0.0
140
0.0
140
0.0
140
0.0
140
0.0
140
0.0
140
0.0
140
0.0
140
0.0
140
0.0
140
0.0
140
0.0
140
0.0
140
0.0
140
0.0
140
0.0
140
0.0
140
0.0
140
0.0
140
0.0
140
0.0
140
0.0
140
0.0
140
0.0
140
0.0
140
0.0
140
0.0
140
0.0
140
0.0
140
0.0
140
0.0
140
0.0
140
0.0
140
0.0
140
0.0
140
0.0
140
0.0
140
0.0
140
0.0
140
0.0
140
0.0
140
0.0
140
0.0
140
0.0
140
0.0
140
0.0
140
0.0
140
0.0
140
0.0
140
0.0
140
0.0
140
0.0
140
0.0
140
0.0
140
0.0
140
0.0
140
0.0
140
0.0
140
0.0
140
0.0
140
0.0
140
0.0
140
0.0
140
0.0
140
0.0
140
0.0
140
0.0
140
0.0
140
0.0
140
0.0
140
0.0
140
0.0
140
0.0
140
0.0
140
0.0
 90
        0
  0
POLYLINE
  5
FA
330
1F
100
AcDbEntity
  8
OracDecor_cornice_mouldings
 62
   196
420
  3737736
100
AcDb2dPolyline
 66
     1
 10
0.0
 20
0.0
 30
0.0000014303896023
 70
     1
210
-0.9999999999999769
220
0.0000001788139343
230
-0.0000001192092896
  0
VERTEX
  5
FB
330
FA
100
AcDbEntity
  8
OracDecor_cornice_mouldings
 62
   196
420
  3737736
100
AcDbVertex
100
AcDb2dVertex
 10
-90.0
 20
0.0000171664996742
 30
0.0000014303896023
  0
VERTEX
  5
FC
330
FA
100
AcDbEntity
  8
OracDecor_cornice_mouldings
 62
   196
420
  3737736
100
AcDbVertex
100
AcDb2dVertex
 10
-90.0
 20
-9.236246109008789
 30
0.0000014303896023
  0
VERTEX
  5
FD
330
FA
100
AcDbEntity
  8
OracDecor_cornice_mouldings
 62
   196
420
  3737736
100
AcDbVertex
100
AcDb2dVertex
 10
-89.96811676025391
 20
-9.486711502075195
 30
0.0000014303896023
  0
VERTEX
  5
FE
330
FA
100
AcDbEntity
  8
OracDecor_cornice_mouldings
 62
   196
420
  3737736
100
AcDbVertex
100
AcDb2dVertex
 10
-89.87458038330078
 20
-9.721109390258789
 30
0.0000014303896023
  0
VERTEX
  5
FF
330
FA
100
AcDbEntity
  8
OracDecor_cornice_mouldings
 62
   196
420
  3737736
100
AcDbVertex
100
AcDb2dVertex
 10
-89.72531127929688
 20
-9.924657821655273
 30
0.0000014303896023
  0
VERTEX
  5
100
330
FA
100
AcDbEntity
  8
OracDecor_cornice_mouldings
 62
   196
420
  3737736
100
AcDbVertex
100
AcDb2dVertex
 10
-89.52973175048828
 20
-10.08440589904785
 30
0.0000014303896023
  0
VERTEX
  5
101
330
FA
100
AcDbEntity
  8
OracDecor_cornice_mouldings
 62
   196
420
  3737736
100
AcDbVertex
100
AcDb2dVertex
 10
-89.30047607421874
 20
-10.19002056121826
 30
0.0000014303896023
  0
VERTEX
  5
102
330
FA
100
AcDbEntity
  8
OracDecor_cornice_mouldings
 62
   196
420
  3737736
100
AcDbVertex
100
AcDb2dVertex
 10
-89.0521240234375
 20
-10.23487758636474
 30
0.0000014303896023
  0
VERTEX
  5
103
330
FA
100
AcDbEntity
  8
OracDecor_cornice_mouldings
 62
   196
420
  3737736
100
AcDbVertex
100
AcDb2dVertex
 10
-88.80033111572265
 20
-10.21610927581787
 30
0.0000014303896023
  0
VERTEX
  5
104
330
FA
100
AcDbEntity
  8
OracDecor_cornice_mouldings
 62
   196
420
  3737736
100
AcDbVertex
100
AcDb2dVertex
 10
-87.17565155029296
 20
-9.996191024780273
 30
0.0000014303896023
  0
VERTEX
  5
105
330
FA
100
AcDbEntity
  8
OracDecor_cornice_mouldings
 62
   196
420
  3737736
100
AcDbVertex
100
AcDb2dVertex
 10
-83.7662582397461
 20
-10.13566017150879
 30
0.0000014303896023
  0
VERTEX
  5
106
330
FA
100
AcDbEntity
  8
OracDecor_cornice_mouldings
 62
   196
420
  3737736
100
AcDbVertex
100
AcDb2dVertex
 10
-80.92337799072266
 20
-11.17939186096191
 30
0.0000014303896023
  0
VERTEX
  5
107
330
FA
100
AcDbEntity
  8
OracDecor_cornice_mouldings
 62
   196
420
  3737736
100
AcDbVertex
100
AcDb2dVertex
 10
-78.4576416015625
 20
-13.06451892852783
 30
0.0000014303896023
  0
VERTEX
  5
108
330
FA
100
AcDbEntity
  8
OracDecor_cornice_mouldings
 62
   196
420
  3737736
100
AcDbVertex
100
AcDb2dVertex
 10
-76.50711822509766
 20
-15.67932605743408
 30
0.0000014303896023
  0
VERTEX
  5
109
330
FA
100
AcDbEntity
  8
OracDecor_cornice_mouldings
 62
   196
420
  3737736
100
AcDbVertex
100
AcDb2dVertex
 10
-75.23480987548828
 20
-19.1259593963623
 30
0.0000014303896023
  0
VERTEX
  5
10A
330
FA
100
AcDbEntity
  8
OracDecor_cornice_mouldings
 62
   196
420
  3737736
100
AcDbVertex
100
AcDb2dVertex
 10
-74.52033233642578
 20
-23.52027130126953
 30
0.0000014303896023
  0
VERTEX
  5
10B
330
FA
100
AcDbEntity
  8
OracDecor_cornice_mouldings
 62
   196
420
  3737736
100
AcDbVertex
100
AcDb2dVertex
 10
-73.62422180175781
 20
-27.34210586547852
 30
0.0000014303896023
  0
VERTEX
  5
10C
330
FA
100
AcDbEntity
  8
OracDecor_cornice_mouldings
 62
   196
420
  3737736
100
AcDbVertex
100
AcDb2dVertex
 10
-72.05619049072265
 20
-30.06574440002442
 30
0.0000014303896023
  0
VERTEX
  5
10D
330
FA
100
AcDbEntity
  8
OracDecor_cornice_mouldings
 62
   196
420
  3737736
100
AcDbVertex
100
AcDb2dVertex
 10
-69.93972015380859
 20
-31.98436546325684
 30
0.0000014303896023
  0
VERTEX
  5
10E
330
FA
100
AcDbEntity
  8
OracDecor_cornice_mouldings
 62
   196
420
  3737736
100
AcDbVertex
100
AcDb2dVertex
 10
-67.34999847412109
 20
-33.11278533935547
 30
0.0000014303896023
  0
VERTEX
  5
10F
330
FA
100
AcDbEntity
  8
OracDecor_cornice_mouldings
 62
   196
420
  3737736
100
AcDbVertex
100
AcDb2dVertex
 10
-63.72914123535156
 20
-33.47097778320313
 30
0.0000014303896023
  0
VERTEX
  5
110
330
FA
100
AcDbEntity
  8
OracDecor_cornice_mouldings
 62
   196
420
  3737736
100
AcDbVertex
100
AcDb2dVertex
 10
-60.20322036743164
 20
-33.13193511962891
 30
0.0000014303896023
  0
VERTEX
  5
111
330
FA
100
AcDbEntity
  8
OracDecor_cornice_mouldings
 62
   196
420
  3737736
100
AcDbVertex
100
AcDb2dVertex
 10
-58.49424362182617
 20
-32.77228546142578
 30
0.0000014303896023
  0
VERTEX
  5
112
330
FA
100
AcDbEntity
  8
OracDecor_cornice_mouldings
 62
   196
420
  3737736
100
AcDbVertex
100
AcDb2dVertex
 10
-58.13525009155274
 20
-32.71484756469727
 30
0.0000014303896023
  0
VERTEX
  5
113
330
FA
100
AcDbEntity
  8
OracDecor_cornice_mouldings
 62
   196
420
  3737736
100
AcDbVertex
100
AcDb2dVertex
 10
-57.59374237060547
 20
-32.76041030883789
 30
0.0000014303896023
  0
VERTEX
  5
114
330
FA
100
AcDbEntity
  8
OracDecor_cornice_mouldings
 62
   196
420
  3737736
100
AcDbVertex
100
AcDb2dVertex
 10
-56.9260025024414
 20
-33.03292465209961
 30
0.0000014303896023
  0
VERTEX
  5
115
330
FA
100
AcDbEntity
  8
OracDecor_cornice_mouldings
 62
   196
420
  3737736
100
AcDbVertex
100
AcDb2dVertex
 10
-56.39910507202149
 20
-33.52534866333008
 30
0.0000014303896023
  0
VERTEX
  5
116
330
FA
100
AcDbEntity
  8
OracDecor_cornice_mouldings
 62
   196
420
  3737736
100
AcDbVertex
100
AcDb2dVertex
 10
-56.08210754394531
 20
-34.17308807373047
 30
0.0000014303896023
  0
VERTEX
  5
117
330
FA
100
AcDbEntity
  8
OracDecor_cornice_mouldings
 62
   196
420
  3737736
100
AcDbVertex
100
AcDb2dVertex
 10
-56.00000762939453
 20
-34.71025466918945
 30
0.0000014303896023
  0
VERTEX
  5
118
330
FA
100
AcDbEntity
  8
OracDecor_cornice_mouldings
 62
   196
420
  3737736
100
AcDbVertex
100
AcDb2dVertex
 10
-56.0000114440918
 20
-44.1725959777832
 30
0.0000014303896023
  0
VERTEX
  5
119
330
FA
100
AcDbEntity
  8
OracDecor_cornice_mouldings
 62
   196
420
  3737736
100
AcDbVertex
100
AcDb2dVertex
 10
-55.97195816040039
 20
-44.40776062011718
 30
0.0000014303896023
  0
VERTEX
  5
11A
330
FA
100
AcDbEntity
  8
OracDecor_cornice_mouldings
 62
   196
420
  3737736
100
AcDbVertex
100
AcDb2dVertex
 10
-55.88944625854492
 20
-44.62964630126953
 30
0.0000014303896023
  0
VERTEX
  5
11B
330
FA
100
AcDbEntity
  8
OracDecor_cornice_mouldings
 62
   196
420
  3737736
100
AcDbVertex
100
AcDb2dVertex
 10
-55.75696945190429
 20
-44.82605361938476
 30
0.0000014303896023
  0
VERTEX
  5
11C
330
FA
100
AcDbEntity
  8
OracDecor_cornice_mouldings
 62
   196
420
  3737736
100
AcDbVertex
100
AcDb2dVertex
 10
-55.58214950561524
 20
-44.98567199707031
 30
0.0000014303896023
  0
VERTEX
  5
11D
330
FA
100
AcDbEntity
  8
OracDecor_cornice_mouldings
 62
   196
420
  3737736
100
AcDbVertex
100
AcDb2dVertex
 10
-55.37461853027344
 20
-45.09978103637695
 30
0.0000014303896023
  0
VERTEX
  5
11E
330
FA
100
AcDbEntity
  8
OracDecor_cornice_mouldings
 62
   196
420
  3737736
100
AcDbVertex
100
AcDb2dVertex
 10
-38.52031326293945
 20
-51.90936279296875
 30
0.0000014303896023
  0
VERTEX
  5
11F
330
FA
100
AcDbEntity
  8
OracDecor_cornice_mouldings
 62
   196
420
  3737736
100
AcDbVertex
100
AcDb2dVertex
 10
-38.30946731567383
 20
-52.02585220336914
 30
0.0000014303896023
  0
VERTEX
  5
120
330
FA
100
AcDbEntity
  8
OracDecor_cornice_mouldings
 62
   196
420
  3737736
100
AcDbVertex
100
AcDb2dVertex
 10
-38.13265991210938
 20
-52.18929290771484
 30
0.0000014303896023
  0
VERTEX
  5
121
330
FA
100
AcDbEntity
  8
OracDecor_cornice_mouldings
 62
   196
420
  3737736
100
AcDbVertex
100
AcDb2dVertex
 10
-37.99998474121094
 20
-52.39035415649414
 30
0.0000014303896023
  0
VERTEX
  5
122
330
FA
100
AcDbEntity
  8
OracDecor_cornice_mouldings
 62
   196
420
  3737736
100
AcDbVertex
100
AcDb2dVertex
 10
-37.91925811767578
 20
-52.6173095703125
 30
0.0000014303896023
  0
VERTEX
  5
123
330
FA
100
AcDbEntity
  8
OracDecor_cornice_mouldings
 62
   196
420
  3737736
100
AcDbVertex
100
AcDb2dVertex
 10
-37.89513397216797
 20
-52.85687255859375
 30
0.0000014303896023
  0
VERTEX
  5
124
330
FA
100
AcDbEntity
  8
OracDecor_cornice_mouldings
 62
   196
420
  3737736
100
AcDbVertex
100
AcDb2dVertex
 10
-37.92899703979492
 20
-53.09537124633789
 30
0.0000014303896023
  0
VERTEX
  5
125
330
FA
100
AcDbEntity
  8
OracDecor_cornice_mouldings
 62
   196
420
  3737736
100
AcDbVertex
100
AcDb2dVertex
 10
-40.26299285888671
 20
-61.80595397949218
 30
0.0000014303896023
  0
VERTEX
  5
126
330
FA
100
AcDbEntity
  8
OracDecor_cornice_mouldings
 62
   196
420
  3737736
100
AcDbVertex
100
AcDb2dVertex
 10
-40.29700469970703
 20
-62.07577896118164
 30
0.0000014303896023
  0
VERTEX
  5
127
330
FA
100
AcDbEntity
  8
OracDecor_cornice_mouldings
 62
   196
420
  3737736
100
AcDbVertex
100
AcDb2dVertex
 10
-40.2570686340332
 20
-62.34473037719727
 30
0.0000014303896023
  0
VERTEX
  5
128
330
FA
100
AcDbEntity
  8
OracDecor_cornice_mouldings
 62
   196
420
  3737736
100
AcDbVertex
100
AcDb2dVertex
 10
-40.14618301391601
 20
-62.59295654296875
 30
0.0000014303896023
  0
VERTEX
  5
129
330
FA
100
AcDbEntity
  8
OracDecor_cornice_mouldings
 62
   196
420
  3737736
100
AcDbVertex
100
AcDb2dVertex
 10
-39.97253799438477
 20
-62.80214691162109
 30
0.0000014303896023
  0
VERTEX
  5
12A
330
FA
100
AcDbEntity
  8
OracDecor_cornice_mouldings
 62
   196
420
  3737736
100
AcDbVertex
100
AcDb2dVertex
 10
-39.74893951416016
 20
-62.95684814453125
 30
0.0000014303896023
  0
VERTEX
  5
12B
330
FA
100
AcDbEntity
  8
OracDecor_cornice_mouldings
 62
   196
420
  3737736
100
AcDbVertex
100
AcDb2dVertex
 10
-39.49187088012696
 20
-63.04561233520508
 30
0.0000014303896023
  0
VERTEX
  5
12C
330
FA
100
AcDbEntity
  8
OracDecor_cornice_mouldings
 62
   196
420
  3737736
100
AcDbVertex
100
AcDb2dVertex
 10
-38.08792114257812
 20
-63.38649749755859
 30
0.0000014303896023
  0
VERTEX
  5
12D
330
FA
100
AcDbEntity
  8
OracDecor_cornice_mouldings
 62
   196
420
  3737736
100
AcDbVertex
100
AcDb2dVertex
 10
-35.74544525146484
 20
-64.16374969482422
 30
0.0000014303896023
  0
VERTEX
  5
12E
330
FA
100
AcDbEntity
  8
OracDecor_cornice_mouldings
 62
   196
420
  3737736
100
AcDbVertex
100
AcDb2dVertex
 10
-33.34053802490235
 20
-65.25308990478515
 30
0.0000014303896023
  0
VERTEX
  5
12F
330
FA
100
AcDbEntity
  8
OracDecor_cornice_mouldings
 62
   196
420
  3737736
100
AcDbVertex
100
AcDb2dVertex
 10
-30.91599845886231
 20
-66.66471099853516
 30
0.0000014303896023
  0
VERTEX
  5
130
330
FA
100
AcDbEntity
  8
OracDecor_cornice_mouldings
 62
   196
420
  3737736
100
AcDbVertex
100
AcDb2dVertex
 10
-28.5654354095459
 20
-68.37189483642578
 30
0.0000014303896023
  0
VERTEX
  5
131
330
FA
100
AcDbEntity
  8
OracDecor_cornice_mouldings
 62
   196
420
  3737736
100
AcDbVertex
100
AcDb2dVertex
 10
-26.39699935913086
 20
-70.30962371826172
 30
0.0000014303896023
  0
VERTEX
  5
132
330
FA
100
AcDbEntity
  8
OracDecor_cornice_mouldings
 62
   196
420
  3737736
100
AcDbVertex
100
AcDb2dVertex
 10
-24.49266624450684
 20
-72.39861297607422
 30
0.0000014303896023
  0
VERTEX
  5
133
330
FA
100
AcDbEntity
  8
OracDecor_cornice_mouldings
 62
   196
420
  3737736
100
AcDbVertex
100
AcDb2dVertex
 10
-22.90278053283691
 20
-74.5578384399414
 30
0.0000014303896023
  0
VERTEX
  5
134
330
FA
100
AcDbEntity
  8
OracDecor_cornice_mouldings
 62
   196
420
  3737736
100
AcDbVertex
100
AcDb2dVertex
 10
-21.64535522460937
 20
-76.71773529052734
 30
0.0000014303896023
  0
VERTEX
  5
135
330
FA
100
AcDbEntity
  8
OracDecor_cornice_mouldings
 62
   196
420
  3737736
100
AcDbVertex
100
AcDb2dVertex
 10
-20.70835876464844
 20
-78.83387756347656
 30
0.0000014303896023
  0
VERTEX
  5
136
330
FA
100
AcDbEntity
  8
OracDecor_cornice_mouldings
 62
   196
420
  3737736
100
AcDbVertex
100
AcDb2dVertex
 10
-20.04047203063965
 20
-81.00876617431641
 30
0.0000014303896023
  0
VERTEX
  5
137
330
FA
100
AcDbEntity
  8
OracDecor_cornice_mouldings
 62
   196
420
  3737736
100
AcDbVertex
100
AcDb2dVertex
 10
-19.66582679748535
 20
-83.09300994873046
 30
0.0000014303896023
  0
VERTEX
  5
138
330
FA
100
AcDbEntity
  8
OracDecor_cornice_mouldings
 62
   196
420
  3737736
100
AcDbVertex
100
AcDb2dVertex
 10
-19.56613349914551
 20
-84.9786148071289
 30
0.0000014303896023
  0
VERTEX
  5
139
330
FA
100
AcDbEntity
  8
OracDecor_cornice_mouldings
 62
   196
420
  3737736
100
AcDbVertex
100
AcDb2dVertex
 10
-19.68803977966308
 20
-86.79673767089843
 30
0.0000014303896023
  0
VERTEX
  5
13A
330
FA
100
AcDbEntity
  8
OracDecor_cornice_mouldings
 62
   196
420
  3737736
100
AcDbVertex
100
AcDb2dVertex
 10
-20.02046394348145
 20
-88.55494689941407
 30
0.0000014303896023
  0
VERTEX
  5
13B
330
FA
100
AcDbEntity
  8
OracDecor_cornice_mouldings
 62
   196
420
  3737736
100
AcDbVertex
100
AcDb2dVertex
 10
-20.40864372253418
 20
-89.8744125366211
 30
0.0000014303896023
  0
VERTEX
  5
13C
330
FA
100
AcDbEntity
  8
OracDecor_cornice_mouldings
 62
   196
420
  3737736
100
AcDbVertex
100
AcDb2dVertex
 10
-20.46056938171387
 20
-90.11570739746094
 30
0.0000014303896023
  0
VERTEX
  5
13D
330
FA
100
AcDbEntity
  8
OracDecor_cornice_mouldings
 62
   196
420
  3737736
100
AcDbVertex
100
AcDb2dVertex
 10
-20.45185279846192
 20
-90.36227416992188
 30
0.0000014303896023
  0
VERTEX
  5
13E
330
FA
100
AcDbEntity
  8
OracDecor_cornice_mouldings
 62
   196
420
  3737736
100
AcDbVertex
100
AcDb2dVertex
 10
-20.3829402923584
 20
-90.59937286376953
 30
0.0000014303896023
  0
VERTEX
  5
13F
330
FA
100
AcDbEntity
  8
OracDecor_cornice_mouldings
 62
   196
420
  3737736
100
AcDbVertex
100
AcDb2dVertex
 10
-20.25818061828613
 20
-90.81217956542969
 30
0.0000014303896023
  0
VERTEX
  5
140
330
FA
100
AcDbEntity
  8
OracDecor_cornice_mouldings
 62
   196
420
  3737736
100
AcDbVertex
100
AcDb2dVertex
 10
-20.0849437713623
 20
-90.98812103271484
 30
0.0000014303896023
  0
VERTEX
  5
141
330
FA
100
AcDbEntity
  8
OracDecor_cornice_mouldings
 62
   196
420
  3737736
100
AcDbVertex
100
AcDb2dVertex
 10
-19.87404632568359
 20
-91.11615753173827
 30
0.0000014303896023
  0
VERTEX
  5
142
330
FA
100
AcDbEntity
  8
OracDecor_cornice_mouldings
 62
   196
420
  3737736
100
AcDbVertex
100
AcDb2dVertex
 10
-19.63812637329101
 20
-91.1886978149414
 30
0.0000014303896023
  0
VERTEX
  5
143
330
FA
100
AcDbEntity
  8
OracDecor_cornice_mouldings
 62
   196
420
  3737736
100
AcDbVertex
100
AcDb2dVertex
 10
-11.32637405395508
 20
-92.65428924560547
 30
0.0000014303896023
  0
VERTEX
  5
144
330
FA
100
AcDbEntity
  8
OracDecor_cornice_mouldings
 62
   196
420
  3737736
100
AcDbVertex
100
AcDb2dVertex
 10
-11.10394668579101
 20
-92.72089385986328
 30
0.0000014303896023
  0
VERTEX
  5
145
330
FA
100
AcDbEntity
  8
OracDecor_cornice_mouldings
 62
   196
420
  3737736
100
AcDbVertex
100
AcDb2dVertex
 10
-10.90286254882812
 20
-92.83697509765625
 30
0.0000014303896023
  0
VERTEX
  5
146
330
FA
100
AcDbEntity
  8
OracDecor_cornice_mouldings
 62
   196
420
  3737736
100
AcDbVertex
100
AcDb2dVertex
 10
-10.7339859008789
 20
-92.99632263183594
 30
0.0000014303896023
  0
VERTEX
  5
147
330
FA
100
AcDbEntity
  8
OracDecor_cornice_mouldings
 62
   196
420
  3737736
100
AcDbVertex
100
AcDb2dVertex
 10
-10.60638809204101
 20
-93.19029998779297
 30
0.0000014303896023
  0
VERTEX
  5
148
330
FA
100
AcDbEntity
  8
OracDecor_cornice_mouldings
 62
   196
420
  3737736
100
AcDbVertex
100
AcDb2dVertex
 10
-10.52698993682861
 20
-93.40848541259765
 30
0.0000014303896023
  0
VERTEX
  5
149
330
FA
100
AcDbEntity
  8
OracDecor_cornice_mouldings
 62
   196
420
  3737736
100
AcDbVertex
100
AcDb2dVertex
 10
-10.50002384185791
 20
-93.63909912109376
 30
0.0000014303896023
  0
VERTEX
  5
14A
330
FA
100
AcDbEntity
  8
OracDecor_cornice_mouldings
 62
   196
420
  3737736
100
AcDbVertex
100
AcDb2dVertex
 10
-10.50002574920654
 20
-104.0
 30
0.0000014303896023
  0
VERTEX
  5
14B
330
FA
100
AcDbEntity
  8
OracDecor_cornice_mouldings
 62
   196
420
  3737736
100
AcDbVertex
100
AcDb2dVertex
 10
-10.46592998504638
 20
-104.2588653564453
 30
0.0000014303896023
  0
VERTEX
  5
14C
330
FA
100
AcDbEntity
  8
OracDecor_cornice_mouldings
 62
   196
420
  3737736
100
AcDbVertex
100
AcDb2dVertex
 10
-10.36606502532959
 20
-104.4999542236328
 30
0.0000014303896023
  0
VERTEX
  5
14D
330
FA
100
AcDbEntity
  8
OracDecor_cornice_mouldings
 62
   196
420
  3737736
100
AcDbVertex
100
AcDb2dVertex
 10
-10.20713329315185
 20
-104.7071075439453
 30
0.0000014303896023
  0
VERTEX
  5
14E
330
FA
100
AcDbEntity
  8
OracDecor_cornice_mouldings
 62
   196
420
  3737736
100
AcDbVertex
100
AcDb2dVertex
 10
-9.999980926513671
 20
-104.8660430908203
 30
0.0000014303896023
  0
VERTEX
  5
14F
330
FA
100
AcDbEntity
  8
OracDecor_cornice_mouldings
 62
   196
420
  3737736
100
AcDbVertex
100
AcDb2dVertex
 10
-9.758888244628906
 20
-104.9659042358398
 30
0.0000014303896023
  0
VERTEX
  5
150
330
FA
100
AcDbEntity
  8
OracDecor_cornice_mouldings
 62
   196
420
  3737736
100
AcDbVertex
100
AcDb2dVertex
 10
-9.500026702880859
 20
-105.0
 30
0.0000014303896023
  0
VERTEX
  5
151
330
FA
100
AcDbEntity
  8
OracDecor_cornice_mouldings
 62
   196
420
  3737736
100
AcDbVertex
100
AcDb2dVertex
 10
-0.0000262860721705
 20
-105.0
 30
0.0000014303896023
  0
VERTEX
  5
152
330
FA
100
AcDbEntity
  8
OracDecor_cornice_mouldings
 62
   196
420
  3737736
100
AcDbVertex
100
AcDb2dVertex
 10
-0.0000242655896727
 20
-96.92916107177735
 30
0.0000014303896023
  0
VERTEX
  5
153
330
FA
100
AcDbEntity
  8
OracDecor_cornice_mouldings
 62
   196
420
  3737736
100
AcDbVertex
100
AcDb2dVertex
 10
-0.472098708152771
 20
-96.70480346679688
 30
0.0000014303896023
  0
VERTEX
  5
154
330
FA
100
AcDbEntity
  8
OracDecor_cornice_mouldings
 62
   196
420
  3737736
100
AcDbVertex
100
AcDb2dVertex
 10
-0.9706184864044189
 20
-96.22309112548828
 30
0.0000014303896023
  0
VERTEX
  5
155
330
FA
100
AcDbEntity
  8
OracDecor_cornice_mouldings
 62
   196
420
  3737736
100
AcDbVertex
100
AcDb2dVertex
 10
-1.248931050300598
 20
-95.58818054199219
 30
0.0000014303896023
  0
VERTEX
  5
156
330
FA
100
AcDbEntity
  8
OracDecor_cornice_mouldings
 62
   196
420
  3737736
100
AcDbVertex
100
AcDb2dVertex
 10
-1.265362620353698
 20
-94.8951416015625
 30
0.0000014303896023
  0
VERTEX
  5
157
330
FA
100
AcDbEntity
  8
OracDecor_cornice_mouldings
 62
   196
420
  3737736
100
AcDbVertex
100
AcDb2dVertex
 10
-1.017452955245971
 20
-94.24774932861328
 30
0.0000014303896023
  0
VERTEX
  5
158
330
FA
100
AcDbEntity
  8
OracDecor_cornice_mouldings
 62
   196
420
  3737736
100
AcDbVertex
100
AcDb2dVertex
 10
-0.5423189401626587
 20
-93.74295043945313
 30
0.0000014303896023
  0
VERTEX
  5
159
330
FA
100
AcDbEntity
  8
OracDecor_cornice_mouldings
 62
   196
420
  3737736
100
AcDbVertex
100
AcDb2dVertex
 10
-0.0000233846458286
 20
-93.41021728515626
 30
0.0000014303896023
  0
VERTEX
  5
15A
330
FA
100
AcDbEntity
  8
OracDecor_cornice_mouldings
 62
   196
420
  3737736
100
AcDbVertex
100
AcDb2dVertex
 10
-0.0000217205561057
 20
-86.76299285888672
 30
0.0000014303896023
  0
VERTEX
  5
15B
330
FA
100
AcDbEntity
  8
OracDecor_cornice_mouldings
 62
   196
420
  3737736
100
AcDbVertex
100
AcDb2dVertex
 10
-0.3860919177532196
 20
-86.57554626464843
 30
0.0000014303896023
  0
VERTEX
  5
15C
330
FA
100
AcDbEntity
  8
OracDecor_cornice_mouldings
 62
   196
420
  3737736
100
AcDbVertex
100
AcDb2dVertex
 10
-0.7949549555778504
 20
-86.44509887695312
 30
0.0000014303896023
  0
VERTEX
  5
15D
330
FA
100
AcDbEntity
  8
OracDecor_cornice_mouldings
 62
   196
420
  3737736
100
AcDbVertex
100
AcDb2dVertex
 10
-8.861780166625976
 20
-84.49458312988282
 30
0.0000014303896023
  0
VERTEX
  5
15E
330
FA
100
AcDbEntity
  8
OracDecor_cornice_mouldings
 62
   196
420
  3737736
100
AcDbVertex
100
AcDb2dVertex
 10
-9.497928619384765
 20
-84.25243377685546
 30
0.0000014303896023
  0
VERTEX
  5
15F
330
FA
100
AcDbEntity
  8
OracDecor_cornice_mouldings
 62
   196
420
  3737736
100
AcDbVertex
100
AcDb2dVertex
 10
-10.23589324951172
 20
-83.72924041748047
 30
0.0000014303896023
  0
VERTEX
  5
160
330
FA
100
AcDbEntity
  8
OracDecor_cornice_mouldings
 62
   196
420
  3737736
100
AcDbVertex
100
AcDb2dVertex
 10
-10.78375053405761
 20
-83.00932312011719
 30
0.0000014303896023
  0
VERTEX
  5
161
330
FA
100
AcDbEntity
  8
OracDecor_cornice_mouldings
 62
   196
420
  3737736
100
AcDbVertex
100
AcDb2dVertex
 10
-11.09132194519043
 20
-82.15853881835938
 30
0.0000014303896023
  0
VERTEX
  5
162
330
FA
100
AcDbEntity
  8
OracDecor_cornice_mouldings
 62
   196
420
  3737736
100
AcDbVertex
100
AcDb2dVertex
 10
-11.43994426727295
 20
-80.060791015625
 30
0.0000014303896023
  0
VERTEX
  5
163
330
FA
100
AcDbEntity
  8
OracDecor_cornice_mouldings
 62
   196
420
  3737736
100
AcDbVertex
100
AcDb2dVertex
 10
-12.06119918823242
 20
-77.56298828125
 30
0.0000014303896023
  0
VERTEX
  5
164
330
FA
100
AcDbEntity
  8
OracDecor_cornice_mouldings
 62
   196
420
  3737736
100
AcDbVertex
100
AcDb2dVertex
 10
-12.88820075988769
 20
-75.20381164550781
 30
0.0000014303896023
  0
VERTEX
  5
165
330
FA
100
AcDbEntity
  8
OracDecor_cornice_mouldings
 62
   196
420
  3737736
100
AcDbVertex
100
AcDb2dVertex
 10
-13.98647689819336
 20
-72.80613708496094
 30
0.0000014303896023
  0
VERTEX
  5
166
330
FA
100
AcDbEntity
  8
OracDecor_cornice_mouldings
 62
   196
420
  3737736
100
AcDbVertex
100
AcDb2dVertex
 10
-15.43408393859863
 20
-70.26883697509766
 30
0.0000014303896023
  0
VERTEX
  5
167
330
FA
100
AcDbEntity
  8
OracDecor_cornice_mouldings
 62
   196
420
  3737736
100
AcDbVertex
100
AcDb2dVertex
 10
-17.20603370666504
 20
-67.74076080322266
 30
0.0000014303896023
  0
VERTEX
  5
168
330
FA
100
AcDbEntity
  8
OracDecor_cornice_mouldings
 62
   196
420
  3737736
100
AcDbVertex
100
AcDb2dVertex
 10
-19.27993583679199
 20
-65.29753875732422
 30
0.0000014303896023
  0
VERTEX
  5
169
330
FA
100
AcDbEntity
  8
OracDecor_cornice_mouldings
 62
   196
420
  3737736
100
AcDbVertex
100
AcDb2dVertex
 10
-21.64125633239746
 20
-62.97664642333984
 30
0.0000014303896023
  0
VERTEX
  5
16A
330
FA
100
AcDbEntity
  8
OracDecor_cornice_mouldings
 62
   196
420
  3737736
100
AcDbVertex
100
AcDb2dVertex
 10
-24.23974227905274
 20
-60.84378814697266
 30
0.0000014303896023
  0
VERTEX
  5
16B
330
FA
100
AcDbEntity
  8
OracDecor_cornice_mouldings
 62
   196
420
  3737736
100
AcDbVertex
100
AcDb2dVertex
 10
-26.31286239624023
 20
-59.38870239257813
 30
0.0000014303896023
  0
VERTEX
  5
16C
330
FA
100
AcDbEntity
  8
OracDecor_cornice_mouldings
 62
   196
420
  3737736
100
AcDbVertex
100
AcDb2dVertex
 10
-27.74323463439941
 20
-58.50932312011718
 30
0.0000014303896023
  0
VERTEX
  5
16D
330
FA
100
AcDbEntity
  8
OracDecor_cornice_mouldings
 62
   196
420
  3737736
100
AcDbVertex
100
AcDb2dVertex
 10
-28.6194019317627
 20
-57.91864776611328
 30
0.0000014303896023
  0
VERTEX
  5
16E
330
FA
100
AcDbEntity
  8
OracDecor_cornice_mouldings
 62
   196
420
  3737736
100
AcDbVertex
100
AcDb2dVertex
 10
-29.16536712646485
 20
-57.26731109619141
 30
0.0000014303896023
  0
VERTEX
  5
16F
330
FA
100
AcDbEntity
  8
OracDecor_cornice_mouldings
 62
   196
420
  3737736
100
AcDbVertex
100
AcDb2dVertex
 10
-29.50612640380859
 20
-56.48896789550781
 30
0.0000014303896023
  0
VERTEX
  5
170
330
FA
100
AcDbEntity
  8
OracDecor_cornice_mouldings
 62
   196
420
  3737736
100
AcDbVertex
100
AcDb2dVertex
 10
-29.61437797546387
 20
-55.64599990844726
 30
0.0000014303896023
  0
VERTEX
  5
171
330
FA
100
AcDbEntity
  8
OracDecor_cornice_mouldings
 62
   196
420
  3737736
100
AcDbVertex
100
AcDb2dVertex
 10
-29.54437065124512
 20
-55.0107536315918
 30
0.0000014303896023
  0
VERTEX
  5
172
330
FA
100
AcDbEntity
  8
OracDecor_cornice_mouldings
 62
   196
420
  3737736
100
AcDbVertex
100
AcDb2dVertex
 10
-29.38885879516602
 20
-54.17622375488281
 30
0.0000014303896023
  0
VERTEX
  5
173
330
FA
100
AcDbEntity
  8
OracDecor_cornice_mouldings
 62
   196
420
  3737736
100
AcDbVertex
100
AcDb2dVertex
 10
-29.30456733703613
 20
-52.90678405761719
 30
0.0000014303896023
  0
VERTEX
  5
174
330
FA
100
AcDbEntity
  8
OracDecor_cornice_mouldings
 62
   196
420
  3737736
100
AcDbVertex
100
AcDb2dVertex
 10
-29.44189262390137
 20
-51.21788787841797
 30
0.0000014303896023
  0
VERTEX
  5
175
330
FA
100
AcDbEntity
  8
OracDecor_cornice_mouldings
 62
   196
420
  3737736
100
AcDbVertex
100
AcDb2dVertex
 10
-29.87430000305176
 20
-49.57952117919922
 30
0.0000014303896023
  0
VERTEX
  5
176
330
FA
100
AcDbEntity
  8
OracDecor_cornice_mouldings
 62
   196
420
  3737736
100
AcDbVertex
100
AcDb2dVertex
 10
-30.58829498291016
 20
-48.04281997680664
 30
0.0000014303896023
  0
VERTEX
  5
177
330
FA
100
AcDbEntity
  8
OracDecor_cornice_mouldings
 62
   196
420
  3737736
100
AcDbVertex
100
AcDb2dVertex
 10
-31.56158828735352
 20
-46.65576171875
 30
0.0000014303896023
  0
VERTEX
  5
178
330
FA
100
AcDbEntity
  8
OracDecor_cornice_mouldings
 62
   196
420
  3737736
100
AcDbVertex
100
AcDb2dVertex
 10
-32.76379776000977
 20
-45.46165084838867
 30
0.0000014303896023
  0
VERTEX
  5
179
330
FA
100
AcDbEntity
  8
OracDecor_cornice_mouldings
 62
   196
420
  3737736
100
AcDbVertex
100
AcDb2dVertex
 10
-34.15739822387696
 20
-44.49774551391601
 30
0.0000014303896023
  0
VERTEX
  5
17A
330
FA
100
AcDbEntity
  8
OracDecor_cornice_mouldings
 62
   196
420
  3737736
100
AcDbVertex
100
AcDb2dVertex
 10
-35.29869842529297
 20
-43.93558502197265
 30
0.0000014303896023
  0
VERTEX
  5
17B
330
FA
100
AcDbEntity
  8
OracDecor_cornice_mouldings
 62
   196
420
  3737736
100
AcDbVertex
100
AcDb2dVertex
 10
-45.52383041381836
 20
-39.80435943603516
 30
0.0000014303896023
  0
VERTEX
  5
17C
330
FA
100
AcDbEntity
  8
OracDecor_cornice_mouldings
 62
   196
420
  3737736
100
AcDbVertex
100
AcDb2dVertex
 10
-45.92255401611327
 20
-39.60773086547852
 30
0.0000014303896023
  0
VERTEX
  5
17D
330
FA
100
AcDbEntity
  8
OracDecor_cornice_mouldings
 62
   196
420
  3737736
100
AcDbVertex
100
AcDb2dVertex
 10
-46.44992446899414
 20
-39.20187377929688
 30
0.0000014303896023
  0
VERTEX
  5
17E
330
FA
100
AcDbEntity
  8
OracDecor_cornice_mouldings
 62
   196
420
  3737736
100
AcDbVertex
100
AcDb2dVertex
 10
-46.9974250793457
 20
-38.50740051269531
 30
0.0000014303896023
  0
VERTEX
  5
17F
330
FA
100
AcDbEntity
  8
OracDecor_cornice_mouldings
 62
   196
420
  3737736
100
AcDbVertex
100
AcDb2dVertex
 10
-47.31798553466797
 20
-37.68304061889649
 30
0.0000014303896023
  0
VERTEX
  5
180
330
FA
100
AcDbEntity
  8
OracDecor_cornice_mouldings
 62
   196
420
  3737736
100
AcDbVertex
100
AcDb2dVertex
 10
-47.40000915527343
 20
-37.02280807495117
 30
0.0000014303896023
  0
VERTEX
  5
181
330
FA
100
AcDbEntity
  8
OracDecor_cornice_mouldings
 62
   196
420
  3737736
100
AcDbVertex
100
AcDb2dVertex
 10
-47.41814422607421
 20
-34.27215576171875
 30
0.0000014303896023
  0
VERTEX
  5
182
330
FA
100
AcDbEntity
  8
OracDecor_cornice_mouldings
 62
   196
420
  3737736
100
AcDbVertex
100
AcDb2dVertex
 10
-47.63492584228515
 20
-32.53476715087891
 30
0.0000014303896023
  0
VERTEX
  5
183
330
FA
100
AcDbEntity
  8
OracDecor_cornice_mouldings
 62
   196
420
  3737736
100
AcDbVertex
100
AcDb2dVertex
 10
-48.13496398925781
 20
-30.85687255859375
 30
0.0000014303896023
  0
VERTEX
  5
184
330
FA
100
AcDbEntity
  8
OracDecor_cornice_mouldings
 62
   196
420
  3737736
100
AcDbVertex
100
AcDb2dVertex
 10
-48.90458679199219
 20
-29.28431510925293
 30
0.0000014303896023
  0
VERTEX
  5
185
330
FA
100
AcDbEntity
  8
OracDecor_cornice_mouldings
 62
   196
420
  3737736
100
AcDbVertex
100
AcDb2dVertex
 10
-49.92274475097656
 20
-27.86005020141602
 30
0.0000014303896023
  0
VERTEX
  5
186
330
FA
100
AcDbEntity
  8
OracDecor_cornice_mouldings
 62
   196
420
  3737736
100
AcDbVertex
100
AcDb2dVertex
 10
-51.16162109375
 20
-26.62299156188965
 30
0.0000014303896023
  0
VERTEX
  5
187
330
FA
100
AcDbEntity
  8
OracDecor_cornice_mouldings
 62
   196
420
  3737736
100
AcDbVertex
100
AcDb2dVertex
 10
-52.58735656738281
 20
-25.60692405700684
 30
0.0000014303896023
  0
VERTEX
  5
188
330
FA
100
AcDbEntity
  8
OracDecor_cornice_mouldings
 62
   196
420
  3737736
100
AcDbVertex
100
AcDb2dVertex
 10
-54.16100692749023
 20
-24.83961296081543
 30
0.0000014303896023
  0
VERTEX
  5
189
330
FA
100
AcDbEntity
  8
OracDecor_cornice_mouldings
 62
   196
420
  3737736
100
AcDbVertex
100
AcDb2dVertex
 10
-55.83958435058594
 20
-24.34202957153321
 30
0.0000014303896023
  0
VERTEX
  5
18A
330
FA
100
AcDbEntity
  8
OracDecor_cornice_mouldings
 62
   196
420
  3737736
100
AcDbVertex
100
AcDb2dVertex
 10
-57.57722854614257
 20
-24.12777328491211
 30
0.0000014303896023
  0
VERTEX
  5
18B
330
FA
100
AcDbEntity
  8
OracDecor_cornice_mouldings
 62
   196
420
  3737736
100
AcDbVertex
100
AcDb2dVertex
 10
-59.32646179199219
 20
-24.20272254943848
 30
0.0000014303896023
  0
VERTEX
  5
18C
330
FA
100
AcDbEntity
  8
OracDecor_cornice_mouldings
 62
   196
420
  3737736
100
AcDbVertex
100
AcDb2dVertex
 10
-60.88402557373047
 20
-24.50169944763184
 30
0.0000014303896023
  0
VERTEX
  5
18D
330
FA
100
AcDbEntity
  8
OracDecor_cornice_mouldings
 62
   196
420
  3737736
100
AcDbVertex
100
AcDb2dVertex
 10
-61.94038009643555
 20
-24.7144889831543
 30
0.0000014303896023
  0
VERTEX
  5
18E
330
FA
100
AcDbEntity
  8
OracDecor_cornice_mouldings
 62
   196
420
  3737736
100
AcDbVertex
100
AcDb2dVertex
 10
-62.94964218139648
 20
-24.83363151550293
 30
0.0000014303896023
  0
VERTEX
  5
18F
330
FA
100
AcDbEntity
  8
OracDecor_cornice_mouldings
 62
   196
420
  3737736
100
AcDbVertex
100
AcDb2dVertex
 10
-63.86585235595703
 20
-24.72352600097656
 30
0.0000014303896023
  0
VERTEX
  5
190
330
FA
100
AcDbEntity
  8
OracDecor_cornice_mouldings
 62
   196
420
  3737736
100
AcDbVertex
100
AcDb2dVertex
 10
-64.70475006103516
 20
-24.33946990966797
 30
0.0000014303896023
  0
VERTEX
  5
191
330
FA
100
AcDbEntity
  8
OracDecor_cornice_mouldings
 62
   196
420
  3737736
100
AcDbVertex
100
AcDb2dVertex
 10
-65.38677215576171
 20
-23.71790885925293
 30
0.0000014303896023
  0
VERTEX
  5
192
330
FA
100
AcDbEntity
  8
OracDecor_cornice_mouldings
 62
   196
420
  3737736
100
AcDbVertex
100
AcDb2dVertex
 10
-65.84683990478516
 20
-22.91805839538574
 30
0.0000014303896023
  0
VERTEX
  5
193
330
FA
100
AcDbEntity
  8
OracDecor_cornice_mouldings
 62
   196
420
  3737736
100
AcDbVertex
100
AcDb2dVertex
 10
-66.02793884277343
 20
-22.24775505065918
 30
0.0000014303896023
  0
VERTEX
  5
194
330
FA
100
AcDbEntity
  8
OracDecor_cornice_mouldings
 62
   196
420
  3737736
100
AcDbVertex
100
AcDb2dVertex
 10
-66.29850006103516
 20
-20.1975154876709
 30
0.0000014303896023
  0
VERTEX
  5
195
330
FA
100
AcDbEntity
  8
OracDecor_cornice_mouldings
 62
   196
420
  3737736
100
AcDbVertex
100
AcDb2dVertex
 10
-66.64333343505859
 20
-18.01051712036133
 30
0.0000014303896023
  0
VERTEX
  5
196
330
FA
100
AcDbEntity
  8
OracDecor_cornice_mouldings
 62
   196
420
  3737736
100
AcDbVertex
100
AcDb2dVertex
 10
-67.08724212646484
 20
-16.12112236022949
 30
0.0000014303896023
  0
VERTEX
  5
197
330
FA
100
AcDbEntity
  8
OracDecor_cornice_mouldings
 62
   196
420
  3737736
100
AcDbVertex
100
AcDb2dVertex
 10
-67.96168518066406
 20
-13.56598663330078
 30
0.0000014303896023
  0
VERTEX
  5
198
330
FA
100
AcDbEntity
  8
OracDecor_cornice_mouldings
 62
   196
420
  3737736
100
AcDbVertex
100
AcDb2dVertex
 10
-68.98191833496094
 20
-11.45890235900879
 30
0.0000014303896023
  0
VERTEX
  5
199
330
FA
100
AcDbEntity
  8
OracDecor_cornice_mouldings
 62
   196
420
  3737736
100
AcDbVertex
100
AcDb2dVertex
 10
-70.22553253173828
 20
-9.490846633911132
 30
0.0000014303896023
  0
VERTEX
  5
19A
330
FA
100
AcDbEntity
  8
OracDecor_cornice_mouldings
 62
   196
420
  3737736
100
AcDbVertex
100
AcDb2dVertex
 10
-71.28589630126953
 20
-8.117615699768066
 30
0.0000014303896023
  0
VERTEX
  5
19B
330
FA
100
AcDbEntity
  8
OracDecor_cornice_mouldings
 62
   196
420
  3737736
100
AcDbVertex
100
AcDb2dVertex
 10
-71.63599395751953
 20
-7.59140920639038
 30
0.0000014303896023
  0
VERTEX
  5
19C
330
FA
100
AcDbEntity
  8
OracDecor_cornice_mouldings
 62
   196
420
  3737736
100
AcDbVertex
100
AcDb2dVertex
 10
-71.92597961425781
 20
-6.802440166473388
 30
0.0000014303896023
  0
VERTEX
  5
19D
330
FA
100
AcDbEntity
  8
OracDecor_cornice_mouldings
 62
   196
420
  3737736
100
AcDbVertex
100
AcDb2dVertex
 10
-72.0
 20
-6.174760341644287
 30
0.0000014303896023
  0
VERTEX
  5
19E
330
FA
100
AcDbEntity
  8
OracDecor_cornice_mouldings
 62
   196
420
  3737736
100
AcDbVertex
100
AcDb2dVertex
 10
-72.0
 20
-1.499986290931701
 30
0.0000014303896023
  0
VERTEX
  5
19F
330
FA
100
AcDbEntity
  8
OracDecor_cornice_mouldings
 62
   196
420
  3737736
100
AcDbVertex
100
AcDb2dVertex
 10
-72.06394958496094
 20
-0.9159961342811584
 30
0.0000014303896023
  0
VERTEX
  5
1A0
330
FA
100
AcDbEntity
  8
OracDecor_cornice_mouldings
 62
   196
420
  3737736
100
AcDbVertex
100
AcDb2dVertex
 10
-72.22838592529297
 20
-0.3518882095813751
 30
0.0000014303896023
  0
VERTEX
  5
1A1
330
FA
100
AcDbEntity
  8
OracDecor_cornice_mouldings
 62
   196
420
  3737736
100
AcDbVertex
100
AcDb2dVertex
 10
-72.40192413330078
 20
0.0000138098612297
 30
0.0000014303896023
  0
VERTEX
  5
1A2
330
FA
100
AcDbEntity
  8
OracDecor_cornice_mouldings
 62
   196
420
  3737736
100
AcDbVertex
100
AcDb2dVertex
 10
-78.46602630615234
 20
0.0000149665229401
 30
0.0000014303896023
  0
VERTEX
  5
1A3
330
FA
100
AcDbEntity
  8
OracDecor_cornice_mouldings
 62
   196
420
  3737736
100
AcDbVertex
100
AcDb2dVertex
 10
-80.3000030517578
 20
-1.058830142021179
 30
0.0000014303896023
  0
VERTEX
  5
1A4
330
FA
100
AcDbEntity
  8
OracDecor_cornice_mouldings
 62
   196
420
  3737736
100
AcDbVertex
100
AcDb2dVertex
 10
-80.806640625
 20
-1.247125387191772
 30
0.0000014303896023
  0
VERTEX
  5
1A5
330
FA
100
AcDbEntity
  8
OracDecor_cornice_mouldings
 62
   196
420
  3737736
100
AcDbVertex
100
AcDb2dVertex
 10
-81.52311706542969
 20
-1.261470556259155
 30
0.0000014303896023
  0
VERTEX
  5
1A6
330
FA
100
AcDbEntity
  8
OracDecor_cornice_mouldings
 62
   196
420
  3737736
100
AcDbVertex
100
AcDb2dVertex
 10
-82.1878662109375
 20
-0.9937549233436584
 30
0.0000014303896023
  0
VERTEX
  5
1A7
330
FA
100
AcDbEntity
  8
OracDecor_cornice_mouldings
 62
   196
420
  3737736
100
AcDbVertex
100
AcDb2dVertex
 10
-82.6944351196289
 20
-0.4868502020835877
 30
0.0000014303896023
  0
VERTEX
  5
1A8
330
FA
100
AcDbEntity
  8
OracDecor_cornice_mouldings
 62
   196
420
  3737736
100
AcDbVertex
100
AcDb2dVertex
 10
-82.92916107177735
 20
0.0000158178154379
 30
0.0000014303896023
  0
SEQEND
  5
1A9
330
FA
100
AcDbEntity
  8
OracDecor_cornice_mouldings
 62
   196
420
  3737736
  0
ENDSEC
  0
SECTION
  2
OBJECTS
  0
DICTIONARY
  5
C
330
0
100
AcDbDictionary
281
     1
  3
ACAD_COLOR
350
DC
  3
ACAD_DETAILVIEWSTYLE
350
F5
  3
ACAD_GROUP
350
D
  3
ACAD_LAYOUT
350
1A
  3
ACAD_MATERIAL
350
AA
  3
ACAD_MLEADERSTYLE
350
F1
  3
ACAD_MLINESTYLE
350
17
  3
ACAD_PLOTSETTINGS
350
19
  3
ACAD_PLOTSTYLENAME
350
E
  3
ACAD_SCALELIST
350
DF
  3
ACAD_SECTIONVIEWSTYLE
350
F3
  3
ACAD_TABLESTYLE
350
DD
  3
ACAD_VISUALSTYLE
350
C3
  3
ACDB_RECOMPOSE_DATA
350
1B6
  3
AcDbVariableDictionary
350
1AA
  0
DICTIONARY
  5
DC
102
{ACAD_REACTORS
330
C
102
}
330
C
100
AcDbDictionary
281
     1
  0
DICTIONARY
  5
F5
102
{ACAD_REACTORS
330
C
102
}
330
C
100
AcDbDictionary
281
     1
  3
Imperial24
350
F6
  0
DICTIONARY
  5
D
102
{ACAD_REACTORS
330
C
102
}
330
C
100
AcDbDictionary
281
     1
  0
DICTIONARY
  5
1A
102
{ACAD_REACTORS
330
C
102
}
330
C
100
AcDbDictionary
281
     1
  3
Layout1
350
1E
  3
Layout2
350
26
  3
Model
350
22
  0
DICTIONARY
  5
AA
102
{ACAD_REACTORS
330
C
102
}
330
C
100
AcDbDictionary
281
     1
  3
ByBlock
350
B3
  3
ByLayer
350
AB
  3
Global
350
BB
  0
DICTIONARY
  5
F1
102
{ACAD_REACTORS
330
C
102
}
330
C
100
AcDbDictionary
281
     1
  3
Standard
350
F2
  0
DICTIONARY
  5
17
102
{ACAD_REACTORS
330
C
102
}
330
C
100
AcDbDictionary
281
     1
  3
Standard
350
18
  0
DICTIONARY
  5
19
102
{ACAD_REACTORS
330
C
102
}
330
C
100
AcDbDictionary
281
     1
  0
ACDBDICTIONARYWDFLT
  5
E
102
{ACAD_REACTORS
330
C
102
}
330
C
100
AcDbDictionary
281
     1
  3
ByLayer
350
2D
  3
Normal
350
F
100
AcDbDictionaryWithDefault
340
F
  0
DICTIONARY
  5
DF
102
{ACAD_REACTORS
330
C
102
}
330
C
100
AcDbDictionary
281
     1
  3
A0
350
E0
  3
A1
350
E1
  3
A2
350
E2
  3
A3
350
E3
  3
A4
350
E4
  3
A5
350
E5
  3
A6
350
E6
  3
A7
350
E7
  3
A8
350
E8
  3
A9
350
E9
  3
B0
350
EA
  3
B1
350
EB
  3
B2
350
EC
  3
B3
350
ED
  3
B4
350
EE
  3
B5
350
EF
  3
B6
350
F0
  0
DICTIONARY
  5
F3
102
{ACAD_REACTORS
330
C
102
}
330
C
100
AcDbDictionary
281
     1
  3
Imperial24
350
F4
  0
DICTIONARY
  5
DD
102
{ACAD_REACTORS
330
C
102
}
330
C
100
AcDbDictionary
281
     1
  3
Standard
350
DE
  0
DICTIONARY
  5
C3
102
{ACAD_REACTORS
330
C
102
}
330
C
100
AcDbDictionary
281
     1
  3
2dWireframe
350
C9
  3
Basic
350
C8
  3
Brighten
350
CF
  3
ColorChange
350
D3
  3
Conceptual
350
CC
  3
Dim
350
CE
  3
EdgeColorOff
350
DB
  3
Facepattern
350
D2
  3
Flat
350
C4
  3
FlatWithEdges
350
C5
  3
Gouraud
350
C6
  3
GouraudWithEdges
350
C7
  3
Hidden
350
CB
  3
JitterOff
350
D9
  3
Linepattern
350
D1
  3
OverhangOff
350
DA
  3
Realistic
350
CD
  3
Shaded
350
D8
  3
Shaded with edges
350
D7
  3
Shades of Gray
350
D4
  3
Sketchy
350
D5
  3
Thicken
350
D0
  3
Wireframe
350
CA
  3
X-Ray
350
D6
  0
XRECORD
  5
1B6
102
{ACAD_REACTORS
330
C
102
}
330
C
100
AcDbXrecord
280
     1
 90
        1
330
DE
  0
DICTIONARY
  5
1AA
102
{ACAD_REACTORS
330
C
102
}
330
C
100
AcDbDictionary
281
     1
  3
CANNOSCALE
350
1B0
  3
CMLEADERSTYLE
350
1AC
  3
CTABLESTYLE
350
1AB
  3
CVIEWDETAILSTYLE
350
1AD
  3
CVIEWSECTIONSTYLE
350
1AE
  3
LAYEREVAL
350
1B2
  3
LAYERNOTIFY
350
1B3
  3
LIGHTINGUNITS
350
1B1
  3
MSLTSCALE
350
1AF
  0
ACDBDETAILVIEWSTYLE
  5
F6
102
{ACAD_XDICTIONARY
360
1EB
102
}
102
{ACAD_REACTORS
330
F5
102
}
330
F5
100
AcDbModelDocViewStyle
 70
     0
  3
Imperial24
290
     0
100
AcDbDetailViewStyle
 70
     0
 71
     0
 90
        3
 71
     1
340
11
 62
   256
 40
0.24
340
0
 62
   256
 40
0.24
300

 40
0.36
280
     3
 71
     2
340
16
 90
       25
 62
   256
 71
     3
340
11
 62
   256
 40
0.24
 90
        1
 40
0.75
 90
        1
300
%<\AcVar ViewType \f "%tc1">% %<\AcVar ViewDetailId>%\PSCALE %<\AcVar ViewScale \f "%sn">%
 71
     4
340
16
 90
       25
 62
   256
340
16
 90
       25
 62
   256
280
     0
  0
LAYOUT
  5
1E
102
{ACAD_REACTORS
330
1A
102
}
330
1A
100
AcDbPlotSettings
  1

  2
\\KTXNTBDC\CASF2PN1
  4

  6

 40
0.0
 41
0.0
 42
0.0
 43
0.0
 44
0.0
 45
0.0
 46
0.0
 47
0.0
 48
0.0
 49
0.0
140
0.0
141
0.0
142
1.0
143
1.0
 70
   688
 72
     0
 73
     0
 74
     5
  7

 75
    16
147
1.0
 76
     0
 77
     2
 78
   300
148
0.0
149
0.0
100
AcDbLayout
  1
Layout1
 70
     1
 71
     1
 10
0.0
 20
0.0
 11
12.0
 21
9.0
 12
0.0
 22
0.0
 32
0.0
 14
1.000000000000000E+20
 24
1.000000000000000E+20
 34
1.000000000000000E+20
 15
-1.000000000000000E+20
 25
-1.000000000000000E+20
 35
-1.000000000000000E+20
146
0.0
 13
0.0
 23
0.0
 33
0.0
 16
1.0
 26
0.0
 36
0.0
 17
0.0
 27
1.0
 37
0.0
 76
     0
330
1B
  0
LAYOUT
  5
26
102
{ACAD_REACTORS
330
1A
102
}
330
1A
100
AcDbPlotSettings
  1

  2
\\KTXNTBDC\CASF2PN1
  4

  6

 40
0.0
 41
0.0
 42
0.0
 43
0.0
 44
0.0
 45
0.0
 46
0.0
 47
0.0
 48
0.0
 49
0.0
140
0.0
141
0.0
142
1.0
143
1.0
 70
   688
 72
     0
 73
     0
 74
     5
  7

 75
    16
147
1.0
 76
     0
 77
     2
 78
   300
148
0.0
149
0.0
100
AcDbLayout
  1
Layout2
 70
     1
 71
     2
 10
0.0
 20
0.0
 11
12.0
 21
9.0
 12
0.0
 22
0.0
 32
0.0
 14
0.0
 24
0.0
 34
0.0
 15
0.0
 25
0.0
 35
0.0
146
0.0
 13
0.0
 23
0.0
 33
0.0
 16
1.0
 26
0.0
 36
0.0
 17
0.0
 27
1.0
 37
0.0
 76
     0
330
23
  0
LAYOUT
  5
22
102
{ACAD_REACTORS
330
1A
102
}
330
1A
100
AcDbPlotSettings
  1

  2
\\KTXNTBDC\CASF2PN1
  4

  6

 40
0.0
 41
0.0
 42
0.0
 43
0.0
 44
0.0
 45
0.0
 46
0.0
 47
0.0
 48
0.0
 49
0.0
140
0.0
141
0.0
142
1.0
143
1.0
 70
  1712
 72
     0
 73
     0
 74
     0
  7

 75
     0
147
1.0
 76
     0
 77
     2
 78
   300
148
0.0
149
0.0
100
AcDbLayout
  1
Model
 70
     1
 71
     0
 10
0.0
 20
0.0
 11
12.0
 21
9.0
 12
0.0
 22
0.0
 32
0.0
 14
0.0
 24
0.0
 34
0.0
 15
0.0
 25
0.0
 35
0.0
146
0.0
 13
0.0
 23
0.0
 33
0.0
 16
1.0
 26
0.0
 36
0.0
 17
0.0
 27
1.0
 37
0.0
 76
     0
330
1F
  0
MATERIAL
  5
B3
102
{ACAD_XDICTIONARY
360
B4
102
}
102
{ACAD_REACTORS
330
AA
102
}
330
AA
100
AcDbMaterial
  1
ByBlock
 72
     0
 43
0.0208333333333333
 43
0.0
 43
0.0
 43
0.0
 43
0.0
 43
0.0208333333333333
 43
0.0
 43
0.0
 43
0.0
 43
0.0
 43
1.0
 43
0.0
 43
0.0
 43
0.0
 43
0.0
 43
1.0
 77
     0
 47
0.0208333333333333
 47
0.0
 47
0.0
 47
0.0
 47
0.0
 47
0.0208333333333333
 47
0.0
 47
0.0
 47
0.0
 47
0.0
 47
1.0
 47
0.0
 47
0.0
 47
0.0
 47
0.0
 47
1.0
171
     0
 49
0.0208333333333333
 49
0.0
 49
0.0
 49
0.0
 49
0.0
 49
0.0208333333333333
 49
0.0
 49
0.0
 49
0.0
 49
0.0
 49
1.0
 49
0.0
 49
0.0
 49
0.0
 49
0.0
 49
1.0
175
     0
142
0.0208333333333333
142
0.0
142
0.0
142
0.0
142
0.0
142
0.0208333333333333
142
0.0
142
0.0
142
0.0
142
0.0
142
1.0
142
0.0
142
0.0
142
0.0
142
0.0
142
1.0
179
     0
144
0.0208333333333333
144
0.0
144
0.0
144
0.0
144
0.0
144
0.0208333333333333
144
0.0
144
0.0
144
0.0
144
0.0
144
1.0
144
0.0
144
0.0
144
0.0
144
0.0
144
1.0
147
0.0208333333333333
147
0.0
147
0.0
147
0.0
147
0.0
147
0.0208333333333333
147
0.0
147
0.0
147
0.0
147
0.0
147
1.0
147
0.0
147
0.0
147
0.0
147
0.0
147
1.0
  0
MATERIAL
  5
AB
102
{ACAD_XDICTIONARY
360
AC
102
}
102
{ACAD_REACTORS
330
AA
102
}
330
AA
100
AcDbMaterial
  1
ByLayer
 72
     0
 43
0.0208333333333333
 43
0.0
 43
0.0
 43
0.0
 43
0.0
 43
0.0208333333333333
 43
0.0
 43
0.0
 43
0.0
 43
0.0
 43
1.0
 43
0.0
 43
0.0
 43
0.0
 43
0.0
 43
1.0
 77
     0
 47
0.0208333333333333
 47
0.0
 47
0.0
 47
0.0
 47
0.0
 47
0.0208333333333333
 47
0.0
 47
0.0
 47
0.0
 47
0.0
 47
1.0
 47
0.0
 47
0.0
 47
0.0
 47
0.0
 47
1.0
171
     0
 49
0.0208333333333333
 49
0.0
 49
0.0
 49
0.0
 49
0.0
 49
0.0208333333333333
 49
0.0
 49
0.0
 49
0.0
 49
0.0
 49
1.0
 49
0.0
 49
0.0
 49
0.0
 49
0.0
 49
1.0
175
     0
142
0.0208333333333333
142
0.0
142
0.0
142
0.0
142
0.0
142
0.0208333333333333
142
0.0
142
0.0
142
0.0
142
0.0
142
1.0
142
0.0
142
0.0
142
0.0
142
0.0
142
1.0
179
     0
144
0.0208333333333333
144
0.0
144
0.0
144
0.0
144
0.0
144
0.0208333333333333
144
0.0
144
0.0
144
0.0
144
0.0
144
1.0
144
0.0
144
0.0
144
0.0
144
0.0
144
1.0
147
0.0208333333333333
147
0.0
147
0.0
147
0.0
147
0.0
147
0.0208333333333333
147
0.0
147
0.0
147
0.0
147
0.0
147
1.0
147
0.0
147
0.0
147
0.0
147
0.0
147
1.0
  0
MATERIAL
  5
BB
102
{ACAD_XDICTIONARY
360
BC
102
}
102
{ACAD_REACTORS
330
AA
102
}
330
AA
100
AcDbMaterial
  1
Global
 72
     0
 43
0.0208333333333333
 43
0.0
 43
0.0
 43
0.0
 43
0.0
 43
0.0208333333333333
 43
0.0
 43
0.0
 43
0.0
 43
0.0
 43
1.0
 43
0.0
 43
0.0
 43
0.0
 43
0.0
 43
1.0
 77
     0
 47
0.0208333333333333
 47
0.0
 47
0.0
 47
0.0
 47
0.0
 47
0.0208333333333333
 47
0.0
 47
0.0
 47
0.0
 47
0.0
 47
1.0
 47
0.0
 47
0.0
 47
0.0
 47
0.0
 47
1.0
171
     0
 49
0.0208333333333333
 49
0.0
 49
0.0
 49
0.0
 49
0.0
 49
0.0208333333333333
 49
0.0
 49
0.0
 49
0.0
 49
0.0
 49
1.0
 49
0.0
 49
0.0
 49
0.0
 49
0.0
 49
1.0
175
     0
142
0.0208333333333333
142
0.0
142
0.0
142
0.0
142
0.0
142
0.0208333333333333
142
0.0
142
0.0
142
0.0
142
0.0
142
1.0
142
0.0
142
0.0
142
0.0
142
0.0
142
1.0
179
     0
144
0.0208333333333333
144
0.0
144
0.0
144
0.0
144
0.0
144
0.0208333333333333
144
0.0
144
0.0
144
0.0
144
0.0
144
1.0
144
0.0
144
0.0
144
0.0
144
0.0
144
1.0
147
0.0208333333333333
147
0.0
147
0.0
147
0.0
147
0.0
147
0.0208333333333333
147
0.0
147
0.0
147
0.0
147
0.0
147
1.0
147
0.0
147
0.0
147
0.0
147
0.0
147
1.0
  0
MLEADERSTYLE
  5
F2
102
{ACAD_XDICTIONARY
360
1E7
102
}
102
{ACAD_REACTORS
330
F1
102
}
330
F1
100
AcDbMLeaderStyle
179
     2
170
     2
171
     1
172
     0
 90
        2
 40
0.0
 41
0.0
173
     1
 91
-1056964608
340
14
 92
       -2
290
     1
 42
0.09
291
     1
 43
0.36
  3
Standard
 44
0.18
300

342
11
174
     1
178
     6
175
     1
176
     0
 93
-1056964608
 45
0.18
292
     0
297
     0
 46
0.18
 94
-1056964608
 47
1.0
 49
1.0
140
1.0
293
     1
141
0.0
294
     1
177
     0
142
1.0
295
     0
296
     0
143
0.125
271
     0
272
     9
273
     9
  0
MLINESTYLE
  5
18
102
{ACAD_REACTORS
330
17
102
}
330
17
100
AcDbMlineStyle
  2
STANDARD
 70
     0
  3

 62
   256
 51
90.0
 52
90.0
 71
     2
 49
0.5
 62
   256
  6
BYLAYER
 49
-0.5
 62
   256
  6
BYLAYER
  0
ACDBPLACEHOLDER
  5
2D
102
{ACAD_REACTORS
330
E
102
}
330
E
  0
ACDBPLACEHOLDER
  5
F
102
{ACAD_REACTORS
330
E
102
}
330
E
  0
SCALE
  5
E0
102
{ACAD_REACTORS
330
DF
102
}
330
DF
100
AcDbScale
 70
     0
300
1:1
140
1.0
141
1.0
290
     1
  0
SCALE
  5
E1
102
{ACAD_REACTORS
330
DF
102
}
330
DF
100
AcDbScale
 70
     0
300
1/128" = 1'-0"
140
0.0078125
141
12.0
290
     0
  0
SCALE
  5
E2
102
{ACAD_REACTORS
330
DF
102
}
330
DF
100
AcDbScale
 70
     0
300
1/64" = 1'-0"
140
0.015625
141
12.0
290
     0
  0
SCALE
  5
E3
102
{ACAD_REACTORS
330
DF
102
}
330
DF
100
AcDbScale
 70
     0
300
1/32" = 1'-0"
140
0.03125
141
12.0
290
     0
  0
SCALE
  5
E4
102
{ACAD_REACTORS
330
DF
102
}
330
DF
100
AcDbScale
 70
     0
300
1/16" = 1'-0"
140
0.0625
141
12.0
290
     0
  0
SCALE
  5
E5
102
{ACAD_REACTORS
330
DF
102
}
330
DF
100
AcDbScale
 70
     0
300
3/32" = 1'-0"
140
0.09375
141
12.0
290
     0
  0
SCALE
  5
E6
102
{ACAD_REACTORS
330
DF
102
}
330
DF
100
AcDbScale
 70
     0
300
1/8" = 1'-0"
140
0.125
141
12.0
290
     0
  0
SCALE
  5
E7
102
{ACAD_REACTORS
330
DF
102
}
330
DF
100
AcDbScale
 70
     0
300
3/16" = 1'-0"
140
0.1875
141
12.0
290
     0
  0
SCALE
  5
E8
102
{ACAD_REACTORS
330
DF
102
}
330
DF
100
AcDbScale
 70
     0
300
1/4" = 1'-0"
140
0.25
141
12.0
290
     0
  0
SCALE
  5
E9
102
{ACAD_REACTORS
330
DF
102
}
330
DF
100
AcDbScale
 70
     0
300
3/8" = 1'-0"
140
0.375
141
12.0
290
     0
  0
SCALE
  5
EA
102
{ACAD_REACTORS
330
DF
102
}
330
DF
100
AcDbScale
 70
     0
300
1/2" = 1'-0"
140
0.5
141
12.0
290
     0
  0
SCALE
  5
EB
102
{ACAD_REACTORS
330
DF
102
}
330
DF
100
AcDbScale
 70
     0
300
3/4" = 1'-0"
140
0.75
141
12.0
290
     0
  0
SCALE
  5
EC
102
{ACAD_REACTORS
330
DF
102
}
330
DF
100
AcDbScale
 70
     0
300
1" = 1'-0"
140
1.0
141
12.0
290
     0
  0
SCALE
  5
ED
102
{ACAD_REACTORS
330
DF
102
}
330
DF
100
AcDbScale
 70
     0
300
1-1/2" = 1'-0"
140
1.5
141
12.0
290
     0
  0
SCALE
  5
EE
102
{ACAD_REACTORS
330
DF
102
}
330
DF
100
AcDbScale
 70
     0
300
3" = 1'-0"
140
3.0
141
12.0
290
     0
  0
SCALE
  5
EF
102
{ACAD_REACTORS
330
DF
102
}
330
DF
100
AcDbScale
 70
     0
300
6" = 1'-0"
140
6.0
141
12.0
290
     0
  0
SCALE
  5
F0
102
{ACAD_REACTORS
330
DF
102
}
330
DF
100
AcDbScale
 70
     0
300
1'-0" = 1'-0"
140
12.0
141
12.0
290
     0
  0
ACDBSECTIONVIEWSTYLE
  5
F4
102
{ACAD_XDICTIONARY
360
1E9
102
}
102
{ACAD_REACTORS
330
F3
102
}
330
F3
100
AcDbModelDocViewStyle
 70
     0
  3
Imperial24
290
     0
100
AcDbSectionViewStyle
 70
     0
 71
     0
 90
       78
 71
     1
340
11
 62
   256
 40
0.24
340
0
340
0
 62
   256
 40
0.24
300
I, O, Q, S, X, Z
 40
0.48
 90
        3
 40
0.18
 90
        1
 71
     2
340
16
 90
       25
 62
   256
340
16
 90
       50
 62
   256
 40
0.24
 40
0.0
 40
0.24
 71
     3
340
11
 62
   256
 40
0.24
 90
        1
 40
0.75
 90
        1
300
%<\AcVar ViewType \f "%tc1">% %<\AcVar ViewSectionStartId>%-%<\AcVar ViewSectionEndId>%\PSCALE %<\AcVar ViewScale \f "%sn">%
 71
     4
 62
   256
 62
   257
300
ANSI31
 40
1.0
 90
        0
290
     0
290
     0
 90
        6
 40
0.0
 40
1.570796326794896
 40
0.2617993877991494
 40
1.308996938995747
 40
-0.2617993877991494
 40
1.832595714594046
  0
TABLESTYLE
  5
DE
102
{ACAD_XDICTIONARY
360
1B4
102
}
102
{ACAD_REACTORS
330
DD
102
}
330
DD
100
AcDbTableStyle
280
     0
  3
Standard
 70
     0
 71
     0
 40
0.06
 41
0.06
280
     0
281
     0
  7
Standard
140
0.18
170
     2
 62
     0
 63
     7
283
     0
 90
      512
 91
        0
  1

274
    -2
284
     1
 64
     0
275
    -2
285
     1
 65
     0
276
    -2
286
     1
 66
     0
277
    -2
287
     1
 67
     0
278
    -2
288
     1
 68
     0
279
    -2
289
     1
 69
     0
  7
Standard
140
0.25
170
     5
 62
     0
 63
     7
283
     0
 90
      512
 91
        0
  1

274
    -2
284
     1
 64
     0
275
    -2
285
     1
 65
     0
276
    -2
286
     1
 66
     0
277
    -2
287
     1
 67
     0
278
    -2
288
     1
 68
     0
279
    -2
289
     1
 69
     0
  7
Standard
140
0.18
170
     5
 62
     0
 63
     7
283
     0
 90
      512
 91
        0
  1

274
    -2
284
     1
 64
     0
275
    -2
285
     1
 65
     0
276
    -2
286
     1
 66
     0
277
    -2
287
     1
 67
     0
278
    -2
288
     1
 68
     0
279
    -2
289
     1
 69
     0
  0
VISUALSTYLE
  5
C9
102
{ACAD_XDICTIONARY
360
1C1
102
}
102
{ACAD_REACTORS
330
C3
102
}
330
C3
100
AcDbVisualStyle
  2
2dWireframe
 70
     4
177
     2
291
     0
 71
     0
176
     1
 72
     2
176
     1
 73
     0
176
     1
 90
        0
176
     1
 40
0.6
176
     1
 41
30.0
176
     1
 63
     7
421
 16777215
176
     1
 74
     1
176
     1
 91
        4
176
     1
 64
     7
176
     1
 65
   257
176
     1
 75
     1
176
     1
175
     1
176
     1
 42
1.0
176
     1
 92
        0
176
     1
 66
   257
176
     1
 43
1.0
176
     1
 76
     1
176
     1
 77
     6
176
     1
 78
     2
176
     1
 67
     7
176
     1
 79
     5
176
     1
170
     0
176
     1
171
     0
176
     1
290
     0
176
     1
 93
        1
176
     1
 44
0.0
176
     1
173
     0
176
     1
1001
ACAD
1000
AcDbSavedByObjectVersion
1070
     0
  0
VISUALSTYLE
  5
C8
102
{ACAD_XDICTIONARY
360
1BF
102
}
102
{ACAD_REACTORS
330
C3
102
}
330
C3
100
AcDbVisualStyle
  2
Basic
 70
     7
177
     2
291
     1
 71
     1
176
     1
 72
     0
176
     1
 73
     1
176
     1
 90
        0
176
     1
 40
0.6
176
     1
 41
30.0
176
     1
 63
     7
421
 16777215
176
     1
 74
     0
176
     1
 91
        4
176
     1
 64
     7
176
     1
 65
   257
176
     1
 75
     1
176
     1
175
     1
176
     1
 42
1.0
176
     1
 92
        8
176
     1
 66
     7
176
     1
 43
1.0
176
     1
 76
     1
176
     1
 77
     6
176
     1
 78
     2
176
     1
 67
     7
176
     1
 79
     5
176
     1
170
     0
176
     1
171
     0
176
     1
290
     0
176
     1
 93
        1
176
     1
 44
0.0
176
     1
173
     0
176
     1
1001
ACAD
1000
AcDbSavedByObjectVersion
1070
     0
  0
VISUALSTYLE
  5
CF
102
{ACAD_XDICTIONARY
360
1CD
102
}
102
{ACAD_REACTORS
330
C3
102
}
330
C3
100
AcDbVisualStyle
  2
Brighten
 70
    12
177
     2
291
     1
 71
     2
176
     1
 72
     2
176
     1
 73
     0
176
     1
 90
        0
176
     1
 40
0.6
176
     1
 41
30.0
176
     1
 63
     7
421
 16777215
176
     1
 74
     1
176
     1
 91
        4
176
     1
 64
     7
176
     1
 65
   257
176
     1
 75
     1
176
     1
175
     1
176
     1
 42
1.0
176
     1
 92
        8
176
     1
 66
     7
176
     1
 43
1.0
176
     1
 76
     1
176
     1
 77
     6
176
     1
 78
     2
176
     1
 67
     7
176
     1
 79
     5
176
     1
170
     0
176
     1
171
     0
176
     1
290
     0
176
     1
 93
        1
176
     1
 44
50.0
176
     1
173
     0
176
     1
1001
ACAD
1000
AcDbSavedByObjectVersion
1070
     0
  0
VISUALSTYLE
  5
D3
102
{ACAD_XDICTIONARY
360
1D5
102
}
102
{ACAD_REACTORS
330
C3
102
}
330
C3
100
AcDbVisualStyle
  2
ColorChange
 70
    16
177
     2
291
     1
 71
     2
176
     1
 72
     2
176
     1
 73
     3
176
     1
 90
        0
176
     1
 40
0.6
176
     1
 41
30.0
176
     1
 63
     8
421
  8421504
176
     1
 74
     1
176
     1
 91
        4
176
     1
 64
     7
176
     1
 65
   257
176
     1
 75
     1
176
     1
175
     1
176
     1
 42
1.0
176
     1
 92
        8
176
     1
 66
     8
424
  8421504
176
     1
 43
1.0
176
     1
 76
     1
176
     1
 77
     6
176
     1
 78
     2
176
     1
 67
     7
176
     1
 79
     5
176
     1
170
     0
176
     1
171
     0
176
     1
290
     0
176
     1
 93
        1
176
     1
 44
0.0
176
     1
173
     0
176
     1
1001
ACAD
1000
AcDbSavedByObjectVersion
1070
     0
  0
VISUALSTYLE
  5
CC
102
{ACAD_XDICTIONARY
360
1C7
102
}
102
{ACAD_REACTORS
330
C3
102
}
330
C3
100
AcDbVisualStyle
  2
Conceptual
 70
     9
177
     2
291
     0
 71
     3
176
     1
 72
     2
176
     1
 73
     0
176
     1
 90
        0
176
     1
 40
0.6
176
     1
 41
30.0
176
     1
 63
     7
421
 16777215
176
     1
 74
     2
176
     1
 91
        2
176
     1
 64
     7
176
     1
 65
   257
176
     1
 75
     1
176
     1
175
     1
176
     1
 42
179.0
176
     1
 92
        8
176
     1
 66
     7
176
     1
 43
1.0
176
     1
 76
     1
176
     1
 77
     6
176
     1
 78
     2
176
     1
 67
     7
176
     1
 79
     3
176
     1
170
     0
176
     1
171
     0
176
     1
290
     0
176
     1
 93
        1
176
     1
 44
0.0
176
     1
173
     0
176
     1
1001
ACAD
1000
AcDbSavedByObjectVersion
1070
     0
  0
VISUALSTYLE
  5
CE
102
{ACAD_XDICTIONARY
360
1CB
102
}
102
{ACAD_REACTORS
330
C3
102
}
330
C3
100
AcDbVisualStyle
  2
Dim
 70
    11
177
     2
291
     1
 71
     2
176
     1
 72
     2
176
     1
 73
     0
176
     1
 90
        0
176
     1
 40
0.6
176
     1
 41
30.0
176
     1
 63
     7
421
 16777215
176
     1
 74
     1
176
     1
 91
        4
176
     1
 64
     7
176
     1
 65
   257
176
     1
 75
     1
176
     1
175
     1
176
     1
 42
1.0
176
     1
 92
        8
176
     1
 66
     7
176
     1
 43
1.0
176
     1
 76
     1
176
     1
 77
     6
176
     1
 78
     2
176
     1
 67
     7
176
     1
 79
     5
176
     1
170
     0
176
     1
171
     0
176
     1
290
     0
176
     1
 93
        1
176
     1
 44
-50.0
176
     1
173
     0
176
     1
1001
ACAD
1000
AcDbSavedByObjectVersion
1070
     0
  0
VISUALSTYLE
  5
DB
102
{ACAD_XDICTIONARY
360
1E5
102
}
102
{ACAD_REACTORS
330
C3
102
}
330
C3
100
AcDbVisualStyle
  2
EdgeColorOff
 70
    22
177
     2
291
     1
 71
     2
176
     0
 72
     2
176
     0
 73
     0
176
     0
 90
        0
176
     0
 40
0.6
176
     0
 41
30.0
176
     0
 63
     7
421
 16777215
176
     0
 74
     1
176
     0
 91
        4
176
     0
 64
     7
176
     0
 65
   257
176
     0
 75
     1
176
     0
175
     1
176
     0
 42
1.0
176
     0
 92
        8
176
     2
 66
     7
176
     0
 43
1.0
176
     0
 76
     1
176
     0
 77
     6
176
     0
 78
     2
176
     0
 67
     7
176
     0
 79
     5
176
     0
170
     0
176
     0
171
     0
176
     0
290
     0
176
     0
 93
        1
176
     0
 44
0.0
176
     0
173
     0
176
     0
1001
ACAD
1000
AcDbSavedByObjectVersion
1070
     0
  0
VISUALSTYLE
  5
D2
102
{ACAD_XDICTIONARY
360
1D3
102
}
102
{ACAD_REACTORS
330
C3
102
}
330
C3
100
AcDbVisualStyle
  2
Facepattern
 70
    15
177
     2
291
     1
 71
     2
176
     1
 72
     2
176
     1
 73
     0
176
     1
 90
        0
176
     1
 40
0.6
176
     1
 41
30.0
176
     1
 63
     7
421
 16777215
176
     1
 74
     1
176
     1
 91
        4
176
     1
 64
     7
176
     1
 65
   257
176
     1
 75
     1
176
     1
175
     1
176
     1
 42
1.0
176
     1
 92
        8
176
     1
 66
     7
176
     1
 43
1.0
176
     1
 76
     1
176
     1
 77
     6
176
     1
 78
     2
176
     1
 67
     7
176
     1
 79
     5
176
     1
170
     0
176
     1
171
     0
176
     1
290
     0
176
     1
 93
        1
176
     1
 44
0.0
176
     1
173
     0
176
     1
1001
ACAD
1000
AcDbSavedByObjectVersion
1070
     0
  0
VISUALSTYLE
  5
C4
102
{ACAD_XDICTIONARY
360
1B7
102
}
102
{ACAD_REACTORS
330
C3
102
}
330
C3
100
AcDbVisualStyle
  2
Flat
 70
     0
177
     2
291
     1
 71
     2
176
     1
 72
     1
176
     1
 73
     1
176
     1
 90
        2
176
     1
 40
0.6
176
     1
 41
30.0
176
     1
 63
     7
421
 16777215
176
     1
 74
     0
176
     1
 91
        0
176
     1
 64
     7
176
     1
 65
   257
176
     1
 75
     1
176
     1
175
     1
176
     1
 42
1.0
176
     1
 92
        8
176
     1
 66
     7
176
     1
 43
1.0
176
     1
 76
     1
176
     1
 77
     6
176
     1
 78
     2
176
     1
 67
     7
176
     1
 79
     5
176
     1
170
     0
176
     1
171
     0
176
     1
290
     0
176
     1
 93
       13
176
     1
 44
0.0
176
     1
173
     0
176
     1
1001
ACAD
1000
AcDbSavedByObjectVersion
1070
     0
  0
VISUALSTYLE
  5
C5
102
{ACAD_XDICTIONARY
360
1B9
102
}
102
{ACAD_REACTORS
330
C3
102
}
330
C3
100
AcDbVisualStyle
  2
FlatWithEdges
 70
     1
177
     2
291
     1
 71
     2
176
     1
 72
     1
176
     1
 73
     1
176
     1
 90
        2
176
     1
 40
0.6
176
     1
 41
30.0
176
     1
 63
     7
421
 16777215
176
     1
 74
     1
176
     1
 91
        0
176
     1
 64
     7
176
     1
 65
   257
176
     1
 75
     1
176
     1
175
     1
176
     1
 42
1.0
176
     1
 92
        0
176
     1
 66
   257
176
     1
 43
1.0
176
     1
 76
     1
176
     1
 77
     6
176
     1
 78
     2
176
     1
 67
     7
176
     1
 79
     5
176
     1
170
     0
176
     1
171
     0
176
     1
290
     0
176
     1
 93
       13
176
     1
 44
0.0
176
     1
173
     0
176
     1
1001
ACAD
1000
AcDbSavedByObjectVersion
1070
     0
  0
VISUALSTYLE
  5
C6
102
{ACAD_XDICTIONARY
360
1BB
102
}
102
{ACAD_REACTORS
330
C3
102
}
330
C3
100
AcDbVisualStyle
  2
Gouraud
 70
     2
177
     2
291
     1
 71
     2
176
     1
 72
     2
176
     1
 73
     1
176
     1
 90
        2
176
     1
 40
0.6
176
     1
 41
30.0
176
     1
 63
     7
421
 16777215
176
     1
 74
     0
176
     1
 91
        0
176
     1
 64
     7
176
     1
 65
   257
176
     1
 75
     1
176
     1
175
     1
176
     1
 42
1.0
176
     1
 92
        0
176
     1
 66
     7
176
     1
 43
1.0
176
     1
 76
     1
176
     1
 77
     6
176
     1
 78
     2
176
     1
 67
     7
176
     1
 79
     5
176
     1
170
     0
176
     1
171
     0
176
     1
290
     0
176
     1
 93
       13
176
     1
 44
0.0
176
     1
173
     0
176
     1
1001
ACAD
1000
AcDbSavedByObjectVersion
1070
     0
  0
VISUALSTYLE
  5
C7
102
{ACAD_XDICTIONARY
360
1BD
102
}
102
{ACAD_REACTORS
330
C3
102
}
330
C3
100
AcDbVisualStyle
  2
GouraudWithEdges
 70
     3
177
     2
291
     1
 71
     2
176
     1
 72
     2
176
     1
 73
     1
176
     1
 90
        2
176
     1
 40
0.6
176
     1
 41
30.0
176
     1
 63
     7
421
 16777215
176
     1
 74
     1
176
     1
 91
        0
176
     1
 64
     7
176
     1
 65
   257
176
     1
 75
     1
176
     1
175
     1
176
     1
 42
1.0
176
     1
 92
        0
176
     1
 66
   257
176
     1
 43
1.0
176
     1
 76
     1
176
     1
 77
     6
176
     1
 78
     2
176
     1
 67
     7
176
     1
 79
     5
176
     1
170
     0
176
     1
171
     0
176
     1
290
     0
176
     1
 93
       13
176
     1
 44
0.0
176
     1
173
     0
176
     1
1001
ACAD
1000
AcDbSavedByObjectVersion
1070
     0
  0
VISUALSTYLE
  5
CB
102
{ACAD_XDICTIONARY
360
1C5
102
}
102
{ACAD_REACTORS
330
C3
102
}
330
C3
100
AcDbVisualStyle
  2
Hidden
 70
     6
177
     2
291
     0
 71
     1
176
     1
 72
     2
176
     1
 73
     2
176
     1
 90
        0
176
     1
 40
0.6
176
     1
 41
30.0
176
     1
 63
     7
421
 16777215
176
     1
 74
     2
176
     1
 91
        2
176
     1
 64
     7
176
     1
 65
   257
176
     1
 75
     2
176
     1
175
     1
176
     1
 42
40.0
176
     1
 92
        0
176
     1
 66
   257
176
     1
 43
1.0
176
     1
 76
     1
176
     1
 77
     6
176
     1
 78
     2
176
     1
 67
     7
176
     1
 79
     3
176
     1
170
     0
176
     1
171
     0
176
     1
290
     0
176
     1
 93
        1
176
     1
 44
0.0
176
     1
173
     0
176
     1
1001
ACAD
1000
AcDbSavedByObjectVersion
1070
     0
  0
VISUALSTYLE
  5
D9
102
{ACAD_XDICTIONARY
360
1E1
102
}
102
{ACAD_REACTORS
330
C3
102
}
330
C3
100
AcDbVisualStyle
  2
JitterOff
 70
    20
177
     2
291
     1
 71
     2
176
     0
 72
     2
176
     0
 73
     0
176
     0
 90
        0
176
     0
 40
0.6
176
     0
 41
30.0
176
     0
 63
     7
421
 16777215
176
     0
 74
     1
176
     0
 91
        4
176
     0
 64
     7
176
     0
 65
   257
176
     0
 75
     1
176
     0
175
     1
176
     0
 42
1.0
176
     0
 92
       10
176
     2
 66
     7
176
     0
 43
1.0
176
     0
 76
     1
176
     0
 77
     6
176
     0
 78
     2
176
     0
 67
     7
176
     0
 79
     5
176
     0
170
     0
176
     0
171
     0
176
     0
290
     0
176
     0
 93
        1
176
     0
 44
0.0
176
     0
173
     0
176
     0
1001
ACAD
1000
AcDbSavedByObjectVersion
1070
     0
  0
VISUALSTYLE
  5
D1
102
{ACAD_XDICTIONARY
360
1D1
102
}
102
{ACAD_REACTORS
330
C3
102
}
330
C3
100
AcDbVisualStyle
  2
Linepattern
 70
    14
177
     2
291
     1
 71
     2
176
     1
 72
     2
176
     1
 73
     0
176
     1
 90
        0
176
     1
 40
0.6
176
     1
 41
30.0
176
     1
 63
     7
421
 16777215
176
     1
 74
     1
176
     1
 91
        4
176
     1
 64
     7
176
     1
 65
   257
176
     1
 75
     7
176
     1
175
     7
176
     1
 42
1.0
176
     1
 92
        8
176
     1
 66
     7
176
     1
 43
1.0
176
     1
 76
     1
176
     1
 77
     6
176
     1
 78
     2
176
     1
 67
     7
176
     1
 79
     5
176
     1
170
     0
176
     1
171
     0
176
     1
290
     0
176
     1
 93
        1
176
     1
 44
0.0
176
     1
173
     0
176
     1
1001
ACAD
1000
AcDbSavedByObjectVersion
1070
     0
  0
VISUALSTYLE
  5
DA
102
{ACAD_XDICTIONARY
360
1E3
102
}
102
{ACAD_REACTORS
330
C3
102
}
330
C3
100
AcDbVisualStyle
  2
OverhangOff
 70
    21
177
     2
291
     1
 71
     2
176
     0
 72
     2
176
     0
 73
     0
176
     0
 90
        0
176
     0
 40
0.6
176
     0
 41
30.0
176
     0
 63
     7
421
 16777215
176
     0
 74
     1
176
     0
 91
        4
176
     0
 64
     7
176
     0
 65
   257
176
     0
 75
     1
176
     0
175
     1
176
     0
 42
1.0
176
     0
 92
        9
176
     2
 66
     7
176
     0
 43
1.0
176
     0
 76
     1
176
     0
 77
     6
176
     0
 78
     2
176
     0
 67
     7
176
     0
 79
     5
176
     0
170
     0
176
     0
171
     0
176
     0
290
     0
176
     0
 93
        1
176
     0
 44
0.0
176
     0
173
     0
176
     0
1001
ACAD
1000
AcDbSavedByObjectVersion
1070
     0
  0
VISUALSTYLE
  5
CD
102
{ACAD_XDICTIONARY
360
1C9
102
}
102
{ACAD_REACTORS
330
C3
102
}
330
C3
100
AcDbVisualStyle
  2
Realistic
 70
     8
177
     2
291
     0
 71
     2
176
     1
 72
     3
176
     1
 73
     0
176
     1
 90
        2
176
     1
 40
0.6
176
     1
 41
30.0
176
     1
 63
     7
421
 16777215
176
     1
 74
     0
176
     1
 91
        0
176
     1
 64
     7
176
     1
 65
   257
176
     1
 75
     1
176
     1
175
     1
176
     1
 42
1.0
176
     1
 92
        8
176
     1
 66
   257
176
     1
 43
1.0
176
     1
 76
     1
176
     1
 77
     6
176
     1
 78
     2
176
     1
 67
     7
176
     1
 79
     3
176
     1
170
     0
176
     1
171
     0
176
     1
290
     0
176
     1
 93
       13
176
     1
 44
0.0
176
     1
173
     0
176
     1
1001
ACAD
1000
AcDbSavedByObjectVersion
1070
     0
  0
VISUALSTYLE
  5
D8
102
{ACAD_XDICTIONARY
360
1DF
102
}
102
{ACAD_REACTORS
330
C3
102
}
330
C3
100
AcDbVisualStyle
  2
Shaded
 70
    27
177
     2
291
     0
 71
     2
176
     1
 72
     2
176
     1
 73
     1
176
     1
 90
        2
176
     1
 40
0.6
176
     1
 41
30.0
176
     1
 63
     7
421
 16777215
176
     1
 74
     0
176
     1
 91
        4
176
     1
 64
     7
176
     1
 65
   257
176
     1
 75
     1
176
     1
175
     1
176
     1
 42
1.0
176
     1
 92
        8
176
     1
 66
   257
176
     1
 43
1.0
176
     1
 76
     1
176
     1
 77
     6
176
     1
 78
     2
176
     1
 67
     8
425
  7895160
176
     1
 79
     3
176
     1
170
     0
176
     1
171
     0
176
     1
290
     0
176
     1
 93
        5
176
     1
 44
0.0
176
     1
173
     0
176
     1
1001
ACAD
1000
AcDbSavedByObjectVersion
1070
     0
  0
VISUALSTYLE
  5
D7
102
{ACAD_XDICTIONARY
360
1DD
102
}
102
{ACAD_REACTORS
330
C3
102
}
330
C3
100
AcDbVisualStyle
  2
Shaded with edges
 70
    26
177
     2
291
     0
 71
     2
176
     1
 72
     2
176
     1
 73
     1
176
     1
 90
        2
176
     1
 40
0.6
176
     1
 41
30.0
176
     1
 63
     7
421
 16777215
176
     1
 74
     1
176
     1
 91
       10
176
     1
 64
     7
176
     1
 65
   257
176
     1
 75
     2
176
     1
175
     1
176
     1
 42
1.0
176
     1
 92
        8
176
     1
 66
   257
176
     1
 43
1.0
176
     1
 76
     1
176
     1
 77
     6
176
     1
 78
     2
176
     1
 67
     7
176
     1
 79
     3
176
     1
170
     0
176
     1
171
     0
176
     1
290
     0
176
     1
 93
        5
176
     1
 44
0.0
176
     1
173
     0
176
     1
1001
ACAD
1000
AcDbSavedByObjectVersion
1070
     0
  0
VISUALSTYLE
  5
D4
102
{ACAD_XDICTIONARY
360
1D7
102
}
102
{ACAD_REACTORS
330
C3
102
}
330
C3
100
AcDbVisualStyle
  2
Shades of Gray
 70
    23
177
     2
291
     0
 71
     2
176
     1
 72
     2
176
     1
 73
     3
176
     1
 90
        0
176
     1
 40
0.6
176
     1
 41
30.0
176
     1
 63
     7
421
 16777215
176
     1
 74
     2
176
     1
 91
        2
176
     1
 64
     7
176
     1
 65
     7
176
     1
 75
     1
176
     1
175
     1
176
     1
 42
40.0
176
     1
 92
        8
176
     1
 66
     7
176
     1
 43
1.0
176
     1
 76
     1
176
     1
 77
     6
176
     1
 78
     2
176
     1
 67
     7
176
     1
 79
     3
176
     1
170
     0
176
     1
171
     0
176
     1
290
     0
176
     1
 93
        1
176
     1
 44
0.0
176
     1
173
     0
176
     1
1001
ACAD
1000
AcDbSavedByObjectVersion
1070
     0
  0
VISUALSTYLE
  5
D5
102
{ACAD_XDICTIONARY
360
1D9
102
}
102
{ACAD_REACTORS
330
C3
102
}
330
C3
100
AcDbVisualStyle
  2
Sketchy
 70
    24
177
     2
291
     0
 71
     1
176
     1
 72
     2
176
     1
 73
     2
176
     1
 90
        0
176
     1
 40
0.6
176
     1
 41
30.0
176
     1
 63
     7
421
 16777215
176
     1
 74
     2
176
     1
 91
        2
176
     1
 64
     7
176
     1
 65
     7
176
     1
 75
     1
176
     1
175
     1
176
     1
 42
40.0
176
     1
 92
       11
176
     1
 66
     7
176
     1
 43
1.0
176
     1
 76
     1
176
     1
 77
     6
176
     1
 78
     2
176
     1
 67
     7
176
     1
 79
     6
176
     1
170
     0
176
     1
171
     0
176
     1
290
     0
176
     1
 93
        1
176
     1
 44
0.0
176
     1
173
     0
176
     1
1001
ACAD
1000
AcDbSavedByObjectVersion
1070
     0
  0
VISUALSTYLE
  5
D0
102
{ACAD_XDICTIONARY
360
1CF
102
}
102
{ACAD_REACTORS
330
C3
102
}
330
C3
100
AcDbVisualStyle
  2
Thicken
 70
    13
177
     2
291
     1
 71
     2
176
     1
 72
     2
176
     1
 73
     0
176
     1
 90
        0
176
     1
 40
0.6
176
     1
 41
30.0
176
     1
 63
     7
421
 16777215
176
     1
 74
     1
176
     1
 91
        4
176
     1
 64
     7
176
     1
 65
   257
176
     1
 75
     1
176
     1
175
     1
176
     1
 42
1.0
176
     1
 92
       12
176
     1
 66
     7
176
     1
 43
1.0
176
     1
 76
     1
176
     1
 77
     6
176
     1
 78
     2
176
     1
 67
     7
176
     1
 79
     5
176
     1
170
     0
176
     1
171
     0
176
     1
290
     0
176
     1
 93
        1
176
     1
 44
0.0
176
     1
173
     0
176
     1
1001
ACAD
1000
AcDbSavedByObjectVersion
1070
     0
  0
VISUALSTYLE
  5
CA
102
{ACAD_XDICTIONARY
360
1C3
102
}
102
{ACAD_REACTORS
330
C3
102
}
330
C3
100
AcDbVisualStyle
  2
Wireframe
 70
     5
177
     2
291
     0
 71
     0
176
     1
 72
     2
176
     1
 73
     0
176
     1
 90
        0
176
     1
 40
0.6
176
     1
 41
30.0
176
     1
 63
     7
421
 16777215
176
     1
 74
     1
176
     1
 91
        4
176
     1
 64
     7
176
     1
 65
   257
176
     1
 75
     1
176
     1
175
     1
176
     1
 42
1.0
176
     1
 92
        0
176
     1
 66
   257
176
     1
 43
1.0
176
     1
 76
     1
176
     1
 77
     6
176
     1
 78
     2
176
     1
 67
     7
176
     1
 79
     3
176
     1
170
     0
176
     1
171
     0
176
     1
290
     0
176
     1
 93
        1
176
     1
 44
0.0
176
     1
173
     0
176
     1
1001
ACAD
1000
AcDbSavedByObjectVersion
1070
     0
  0
VISUALSTYLE
  5
D6
102
{ACAD_XDICTIONARY
360
1DB
102
}
102
{ACAD_REACTORS
330
C3
102
}
330
C3
100
AcDbVisualStyle
  2
X-Ray
 70
    25
177
     2
291
     0
 71
     2
176
     1
 72
     2
176
     1
 73
     1
176
     1
 90
        1
176
     1
 40
0.5
176
     1
 41
30.0
176
     1
 63
     7
421
 16777215
176
     1
 74
     1
176
     1
 91
        0
176
     1
 64
     7
176
     1
 65
   257
176
     1
 75
     1
176
     1
175
     1
176
     1
 42
1.0
176
     1
 92
        8
176
     1
 66
     7
176
     1
 43
1.0
176
     1
 76
     1
176
     1
 77
     6
176
     1
 78
     2
176
     1
 67
     7
176
     1
 79
     3
176
     1
170
     0
176
     1
171
     0
176
     1
290
     0
176
     1
 93
       13
176
     1
 44
0.0
176
     1
173
     0
176
     1
1001
ACAD
1000
AcDbSavedByObjectVersion
1070
     0
  0
DICTIONARYVAR
  5
1B0
102
{ACAD_REACTORS
330
1AA
102
}
330
1AA
100
DictionaryVariables
280
     0
  1
1:1
  0
DICTIONARYVAR
  5
1AC
102
{ACAD_REACTORS
330
1AA
102
}
330
1AA
100
DictionaryVariables
280
     0
  1
STANDARD
  0
DICTIONARYVAR
  5
1AB
102
{ACAD_REACTORS
330
1AA
102
}
330
1AA
100
DictionaryVariables
280
     0
  1
STANDARD
  0
DICTIONARYVAR
  5
1AD
102
{ACAD_REACTORS
330
1AA
102
}
330
1AA
100
DictionaryVariables
280
     0
  1
Imperial24
  0
DICTIONARYVAR
  5
1AE
102
{ACAD_REACTORS
330
1AA
102
}
330
1AA
100
DictionaryVariables
280
     0
  1
Imperial24
  0
DICTIONARYVAR
  5
1B2
102
{ACAD_REACTORS
330
1AA
102
}
330
1AA
100
DictionaryVariables
280
     0
  1
1
  0
DICTIONARYVAR
  5
1B3
102
{ACAD_REACTORS
330
1AA
102
}
330
1AA
100
DictionaryVariables
280
     0
  1
15
  0
DICTIONARYVAR
  5
1B1
102
{ACAD_REACTORS
330
1AA
102
}
330
1AA
100
DictionaryVariables
280
     0
  1
0
  0
DICTIONARYVAR
  5
1AF
102
{ACAD_REACTORS
330
1AA
102
}
330
1AA
100
DictionaryVariables
280
     0
  1
0
  0
DICTIONARY
  5
1EB
330
F6
100
AcDbDictionary
280
     1
281
     1
  3
ACAD_XREC_ROUNDTRIP
360
1EC
  0
DICTIONARY
  5
B4
330
B3
100
AcDbDictionary
280
     1
281
     1
  3
BUMPTILE
360
B6
  3
DIFFUSETILE
360
B5
  3
OPACITYTILE
360
B9
  3
REFLECTIONTILE
360
B8
  3
REFRACTIONTILE
360
BA
  3
SPECULARTILE
360
B7
  0
DICTIONARY
  5
AC
330
AB
100
AcDbDictionary
280
     1
281
     1
  3
BUMPTILE
360
AE
  3
DIFFUSETILE
360
AD
  3
OPACITYTILE
360
B1
  3
REFLECTIONTILE
360
B0
  3
REFRACTIONTILE
360
B2
  3
SPECULARTILE
360
AF
  0
DICTIONARY
  5
BC
330
BB
100
AcDbDictionary
280
     1
281
     1
  3
BUMPTILE
360
BE
  3
DIFFUSETILE
360
BD
  3
OPACITYTILE
360
C1
  3
REFLECTIONTILE
360
C0
  3
REFRACTIONTILE
360
C2
  3
SPECULARTILE
360
BF
  0
DICTIONARY
  5
1E7
330
F2
100
AcDbDictionary
280
     1
281
     1
  3
ACAD_XREC_ROUNDTRIP
360
1E8
  0
DICTIONARY
  5
1E9
330
F4
100
AcDbDictionary
280
     1
281
     1
  3
ACAD_XREC_ROUNDTRIP
360
1EA
  0
DICTIONARY
  5
1B4
330
DE
100
AcDbDictionary
280
     1
281
     1
  3
ACAD_ROUNDTRIP_2008_TABLESTYLE_CELLSTYLEMAP
360
1B5
  0
DICTIONARY
  5
1C1
330
C9
100
AcDbDictionary
280
     1
281
     1
  3
ACAD_XREC_ROUNDTRIP
360
1C2
  0
DICTIONARY
  5
1BF
330
C8
100
AcDbDictionary
280
     1
281
     1
  3
ACAD_XREC_ROUNDTRIP
360
1C0
  0
DICTIONARY
  5
1CD
330
CF
100
AcDbDictionary
280
     1
281
     1
  3
ACAD_XREC_ROUNDTRIP
360
1CE
  0
DICTIONARY
  5
1D5
330
D3
100
AcDbDictionary
280
     1
281
     1
  3
ACAD_XREC_ROUNDTRIP
360
1D6
  0
DICTIONARY
  5
1C7
330
CC
100
AcDbDictionary
280
     1
281
     1
  3
ACAD_XREC_ROUNDTRIP
360
1C8
  0
DICTIONARY
  5
1CB
330
CE
100
AcDbDictionary
280
     1
281
     1
  3
ACAD_XREC_ROUNDTRIP
360
1CC
  0
DICTIONARY
  5
1E5
330
DB
100
AcDbDictionary
280
     1
281
     1
  3
ACAD_XREC_ROUNDTRIP
360
1E6
  0
DICTIONARY
  5
1D3
330
D2
100
AcDbDictionary
280
     1
281
     1
  3
ACAD_XREC_ROUNDTRIP
360
1D4
  0
DICTIONARY
  5
1B7
330
C4
100
AcDbDictionary
280
     1
281
     1
  3
ACAD_XREC_ROUNDTRIP
360
1B8
  0
DICTIONARY
  5
1B9
330
C5
100
AcDbDictionary
280
     1
281
     1
  3
ACAD_XREC_ROUNDTRIP
360
1BA
  0
DICTIONARY
  5
1BB
330
C6
100
AcDbDictionary
280
     1
281
     1
  3
ACAD_XREC_ROUNDTRIP
360
1BC
  0
DICTIONARY
  5
1BD
330
C7
100
AcDbDictionary
280
     1
281
     1
  3
ACAD_XREC_ROUNDTRIP
360
1BE
  0
DICTIONARY
  5
1C5
330
CB
100
AcDbDictionary
280
     1
281
     1
  3
ACAD_XREC_ROUNDTRIP
360
1C6
  0
DICTIONARY
  5
1E1
330
D9
100
AcDbDictionary
280
     1
281
     1
  3
ACAD_XREC_ROUNDTRIP
360
1E2
  0
DICTIONARY
  5
1D1
330
D1
100
AcDbDictionary
280
     1
281
     1
  3
ACAD_XREC_ROUNDTRIP
360
1D2
  0
DICTIONARY
  5
1E3
330
DA
100
AcDbDictionary
280
     1
281
     1
  3
ACAD_XREC_ROUNDTRIP
360
1E4
  0
DICTIONARY
  5
1C9
330
CD
100
AcDbDictionary
280
     1
281
     1
  3
ACAD_XREC_ROUNDTRIP
360
1CA
  0
DICTIONARY
  5
1DF
330
D8
100
AcDbDictionary
280
     1
281
     1
  3
ACAD_XREC_ROUNDTRIP
360
1E0
  0
DICTIONARY
  5
1DD
330
D7
100
AcDbDictionary
280
     1
281
     1
  3
ACAD_XREC_ROUNDTRIP
360
1DE
  0
DICTIONARY
  5
1D7
330
D4
100
AcDbDictionary
280
     1
281
     1
  3
ACAD_XREC_ROUNDTRIP
360
1D8
  0
DICTIONARY
  5
1D9
330
D5
100
AcDbDictionary
280
     1
281
     1
  3
ACAD_XREC_ROUNDTRIP
360
1DA
  0
DICTIONARY
  5
1CF
330
D0
100
AcDbDictionary
280
     1
281
     1
  3
ACAD_XREC_ROUNDTRIP
360
1D0
  0
DICTIONARY
  5
1C3
330
CA
100
AcDbDictionary
280
     1
281
     1
  3
ACAD_XREC_ROUNDTRIP
360
1C4
  0
DICTIONARY
  5
1DB
330
D6
100
AcDbDictionary
280
     1
281
     1
  3
ACAD_XREC_ROUNDTRIP
360
1DC
  0
XRECORD
  5
1EC
102
{ACAD_REACTORS
330
1EB
102
}
330
1EB
100
AcDbXrecord
280
     1
102
DISPLAYNAME
  1
Imperial24
102
FLAGS
 90
        0
  0
XRECORD
  5
B6
102
{ACAD_REACTORS
330
B4
102
}
330
B4
100
AcDbXrecord
280
     1
270
     1
271
     1
  0
XRECORD
  5
B5
102
{ACAD_REACTORS
330
B4
102
}
330
B4
100
AcDbXrecord
280
     1
270
     1
271
     1
  0
XRECORD
  5
B9
102
{ACAD_REACTORS
330
B4
102
}
330
B4
100
AcDbXrecord
280
     1
270
     1
271
     1
  0
XRECORD
  5
B8
102
{ACAD_REACTORS
330
B4
102
}
330
B4
100
AcDbXrecord
280
     1
270
     1
271
     1
  0
XRECORD
  5
BA
102
{ACAD_REACTORS
330
B4
102
}
330
B4
100
AcDbXrecord
280
     1
270
     1
271
     1
  0
XRECORD
  5
B7
102
{ACAD_REACTORS
330
B4
102
}
330
B4
100
AcDbXrecord
280
     1
270
     1
271
     1
  0
XRECORD
  5
AE
102
{ACAD_REACTORS
330
AC
102
}
330
AC
100
AcDbXrecord
280
     1
270
     1
271
     1
  0
XRECORD
  5
AD
102
{ACAD_REACTORS
330
AC
102
}
330
AC
100
AcDbXrecord
280
     1
270
     1
271
     1
  0
XRECORD
  5
B1
102
{ACAD_REACTORS
330
AC
102
}
330
AC
100
AcDbXrecord
280
     1
270
     1
271
     1
  0
XRECORD
  5
B0
102
{ACAD_REACTORS
330
AC
102
}
330
AC
100
AcDbXrecord
280
     1
270
     1
271
     1
  0
XRECORD
  5
B2
102
{ACAD_REACTORS
330
AC
102
}
330
AC
100
AcDbXrecord
280
     1
270
     1
271
     1
  0
XRECORD
  5
AF
102
{ACAD_REACTORS
330
AC
102
}
330
AC
100
AcDbXrecord
280
     1
270
     1
271
     1
  0
XRECORD
  5
BE
102
{ACAD_REACTORS
330
BC
102
}
330
BC
100
AcDbXrecord
280
     1
270
     1
271
     1
  0
XRECORD
  5
BD
102
{ACAD_REACTORS
330
BC
102
}
330
BC
100
AcDbXrecord
280
     1
270
     1
271
     1
  0
XRECORD
  5
C1
102
{ACAD_REACTORS
330
BC
102
}
330
BC
100
AcDbXrecord
280
     1
270
     1
271
     1
  0
XRECORD
  5
C0
102
{ACAD_REACTORS
330
BC
102
}
330
BC
100
AcDbXrecord
280
     1
270
     1
271
     1
  0
XRECORD
  5
C2
102
{ACAD_REACTORS
330
BC
102
}
330
BC
100
AcDbXrecord
280
     1
270
     1
271
     1
  0
XRECORD
  5
BF
102
{ACAD_REACTORS
330
BC
102
}
330
BC
100
AcDbXrecord
280
     1
270
     1
271
     1
  0
XRECORD
  5
1E8
102
{ACAD_REACTORS
330
1E7
102
}
330
1E7
100
AcDbXrecord
280
     1
102
ACAD_ROUNDTRIP_2012_MLEADER_STYLE
298
     1
  0
XRECORD
  5
1EA
102
{ACAD_REACTORS
330
1E9
102
}
330
1E9
100
AcDbXrecord
280
     1
102
DISPLAYNAME
  1
Imperial24
102
FLAGS
 90
        0
  0
CELLSTYLEMAP
  5
1B5
102
{ACAD_REACTORS
330
1B4
102
}
330
1B4
100
AcDbCellStyleMap
 90
        3
300
CELLSTYLE
  1
TABLEFORMAT_BEGIN
 90
        5
170
     1
 91
        0
 92
    32768
 62
   257
 93
        1
300
CONTENTFORMAT
  1
CONTENTFORMAT_BEGIN
 90
        0
 91
        0
 92
      512
 93
        0
300

 40
0.0
140
1.0
 94
        5
 62
     0
340
11
144
0.25
309
CONTENTFORMAT_END
171
     0
 94
        0
309
TABLEFORMAT_END
  1
CELLSTYLE_BEGIN
 90
        1
 91
        1
300
_TITLE
309
CELLSTYLE_END
300
CELLSTYLE
  1
TABLEFORMAT_BEGIN
 90
        5
170
     1
 91
        0
 92
        0
 62
   257
 93
        1
300
CONTENTFORMAT
  1
CONTENTFORMAT_BEGIN
 90
        0
 91
        0
 92
      512
 93
        0
300

 40
0.0
140
1.0
 94
        5
 62
     0
340
11
144
0.18
309
CONTENTFORMAT_END
171
     0
 94
        0
309
TABLEFORMAT_END
  1
CELLSTYLE_BEGIN
 90
        2
 91
        1
300
_HEADER
309
CELLSTYLE_END
300
CELLSTYLE
  1
TABLEFORMAT_BEGIN
 90
        5
170
     1
 91
        0
 92
        0
 62
   257
 93
        1
300
CONTENTFORMAT
  1
CONTENTFORMAT_BEGIN
 90
        0
 91
        0
 92
      512
 93
        0
300

 40
0.0
140
1.0
 94
        2
 62
     0
340
11
144
0.18
309
CONTENTFORMAT_END
171
     0
 94
        0
309
TABLEFORMAT_END
  1
CELLSTYLE_BEGIN
 90
        3
 91
        2
300
_DATA
309
CELLSTYLE_END
  0
XRECORD
  5
1C2
102
{ACAD_REACTORS
330
1C1
102
}
330
1C1
100
AcDbXrecord
280
     1
102
RTVSPost2010Prop28
280
     1
102
RTVSPost2010PropOp28
 70
     1
102
RTVSPost2010Prop29
280
     1
102
RTVSPost2010PropOp29
 70
     1
102
RTVSPost2010Prop30
280
     0
102
RTVSPost2010PropOp30
 70
     1
102
RTVSPost2010Prop31
280
     0
102
RTVSPost2010PropOp31
 70
     1
102
RTVSPost2010Prop32
280
     0
102
RTVSPost2010PropOp32
 70
     1
102
RTVSPost2010Prop33
280
     0
102
RTVSPost2010PropOp33
 70
     1
102
RTVSPost2010Prop34
280
     0
102
RTVSPost2010PropOp34
 70
     1
102
RTVSPost2010Prop35
280
     0
102
RTVSPost2010PropOp35
 70
     1
102
RTVSPost2010Prop36
280
     0
102
RTVSPost2010PropOp36
 70
     1
102
RTVSPost2010Prop37
 90
       50
102
RTVSPost2010PropOp37
 70
     1
102
RTVSPost2010Prop38
140
0.0
102
RTVSPost2010PropOp38
 70
     1
102
RTVSPost2010Prop39
140
1.0
102
RTVSPost2010PropOp39
 70
     1
102
RTVSPost2010Prop40
 90
        0
102
RTVSPost2010PropOp40
 70
     1
102
RTVSPost2010Prop41ColorIndex
 90
       18
102
RTVSPost2010Prop41ColorRGB
 90
        0
102
RTVSPost2010PropOp41
 70
     1
102
RTVSPost2010Prop42
 90
       50
102
RTVSPost2010PropOp42
 70
     1
102
RTVSPost2010Prop43
 90
        3
102
RTVSPost2010PropOp43
 70
     1
102
RTVSPost2010Prop44ColorIndex
 90
        5
102
RTVSPost2010Prop44ColorRGB
 90
      255
102
RTVSPost2010PropOp44
 70
     1
102
RTVSPost2010Prop45
280
     0
102
RTVSPost2010PropOp45
 70
     1
102
RTVSPost2010Prop46
 90
       50
102
RTVSPost2010PropOp46
 70
     1
102
RTVSPost2010Prop47
 90
       50
102
RTVSPost2010PropOp47
 70
     1
102
RTVSPost2010Prop48
 90
       50
102
RTVSPost2010PropOp48
 70
     1
102
RTVSPost2010Prop49
280
     0
102
RTVSPost2010PropOp49
 70
     1
102
RTVSPost2010Prop50
 90
       50
102
RTVSPost2010PropOp50
 70
     1
102
RTVSPost2010Prop51ColorIndex
 90
      256
102
RTVSPost2010Prop51ColorRGB
 90
-16777216
102
RTVSPost2010PropOp51
 70
     0
102
RTVSPost2010Prop52
140
1.0
102
RTVSPost2010PropOp52
 70
     0
102
RTVSPost2010Prop53
 90
        2
102
RTVSPost2010PropOp53
 70
     1
102
RTVSPost2010Prop54
  1
strokes_ogs.tif
102
RTVSPost2010PropOp54
 70
     1
102
RTVSPost2010Prop55
280
     0
102
RTVSPost2010PropOp55
 70
     1
102
RTVSPost2010Prop56
140
1.0
102
RTVSPost2010PropOp56
 70
     1
102
RTVSPost2010Prop57
140
1.0
102
RTVSPost2010PropOp57
 70
     1
  0
XRECORD
  5
1C0
102
{ACAD_REACTORS
330
1BF
102
}
330
1BF
100
AcDbXrecord
280
     1
102
RTVSPost2010Prop28
280
     0
102
RTVSPost2010PropOp28
 70
     1
102
RTVSPost2010Prop29
280
     1
102
RTVSPost2010PropOp29
 70
     1
102
RTVSPost2010Prop30
280
     1
102
RTVSPost2010PropOp30
 70
     1
102
RTVSPost2010Prop31
280
     0
102
RTVSPost2010PropOp31
 70
     1
102
RTVSPost2010Prop32
280
     0
102
RTVSPost2010PropOp32
 70
     1
102
RTVSPost2010Prop33
280
     0
102
RTVSPost2010PropOp33
 70
     1
102
RTVSPost2010Prop34
280
     0
102
RTVSPost2010PropOp34
 70
     1
102
RTVSPost2010Prop35
280
     0
102
RTVSPost2010PropOp35
 70
     1
102
RTVSPost2010Prop36
280
     0
102
RTVSPost2010PropOp36
 70
     1
102
RTVSPost2010Prop37
 90
       50
102
RTVSPost2010PropOp37
 70
     1
102
RTVSPost2010Prop38
140
0.0
102
RTVSPost2010PropOp38
 70
     1
102
RTVSPost2010Prop39
140
1.0
102
RTVSPost2010PropOp39
 70
     1
102
RTVSPost2010Prop40
 90
        0
102
RTVSPost2010PropOp40
 70
     1
102
RTVSPost2010Prop41ColorIndex
 90
       18
102
RTVSPost2010Prop41ColorRGB
 90
        0
102
RTVSPost2010PropOp41
 70
     1
102
RTVSPost2010Prop42
 90
       50
102
RTVSPost2010PropOp42
 70
     1
102
RTVSPost2010Prop43
 90
        3
102
RTVSPost2010PropOp43
 70
     1
102
RTVSPost2010Prop44ColorIndex
 90
        5
102
RTVSPost2010Prop44ColorRGB
 90
      255
102
RTVSPost2010PropOp44
 70
     1
102
RTVSPost2010Prop45
280
     0
102
RTVSPost2010PropOp45
 70
     1
102
RTVSPost2010Prop46
 90
       50
102
RTVSPost2010PropOp46
 70
     1
102
RTVSPost2010Prop47
 90
       50
102
RTVSPost2010PropOp47
 70
     1
102
RTVSPost2010Prop48
 90
       50
102
RTVSPost2010PropOp48
 70
     1
102
RTVSPost2010Prop49
280
     0
102
RTVSPost2010PropOp49
 70
     1
102
RTVSPost2010Prop50
 90
       50
102
RTVSPost2010PropOp50
 70
     1
102
RTVSPost2010Prop51ColorIndex
 90
      256
102
RTVSPost2010Prop51ColorRGB
 90
-16777216
102
RTVSPost2010PropOp51
 70
     0
102
RTVSPost2010Prop52
140
1.0
102
RTVSPost2010PropOp52
 70
     0
102
RTVSPost2010Prop53
 90
        2
102
RTVSPost2010PropOp53
 70
     1
102
RTVSPost2010Prop54
  1
strokes_ogs.tif
102
RTVSPost2010PropOp54
 70
     1
102
RTVSPost2010Prop55
280
     0
102
RTVSPost2010PropOp55
 70
     1
102
RTVSPost2010Prop56
140
1.0
102
RTVSPost2010PropOp56
 70
     1
102
RTVSPost2010Prop57
140
1.0
102
RTVSPost2010PropOp57
 70
     1
  0
XRECORD
  5
1CE
102
{ACAD_REACTORS
330
1CD
102
}
330
1CD
100
AcDbXrecord
280
     1
102
RTVSPost2010Prop28
280
     0
102
RTVSPost2010PropOp28
 70
     1
102
RTVSPost2010Prop29
280
     1
102
RTVSPost2010PropOp29
 70
     1
102
RTVSPost2010Prop30
280
     1
102
RTVSPost2010PropOp30
 70
     1
102
RTVSPost2010Prop31
280
     0
102
RTVSPost2010PropOp31
 70
     1
102
RTVSPost2010Prop32
280
     0
102
RTVSPost2010PropOp32
 70
     1
102
RTVSPost2010Prop33
280
     0
102
RTVSPost2010PropOp33
 70
     1
102
RTVSPost2010Prop34
280
     0
102
RTVSPost2010PropOp34
 70
     1
102
RTVSPost2010Prop35
280
     0
102
RTVSPost2010PropOp35
 70
     1
102
RTVSPost2010Prop36
280
     0
102
RTVSPost2010PropOp36
 70
     1
102
RTVSPost2010Prop37
 90
       50
102
RTVSPost2010PropOp37
 70
     1
102
RTVSPost2010Prop38
140
0.0
102
RTVSPost2010PropOp38
 70
     1
102
RTVSPost2010Prop39
140
1.0
102
RTVSPost2010PropOp39
 70
     1
102
RTVSPost2010Prop40
 90
        0
102
RTVSPost2010PropOp40
 70
     1
102
RTVSPost2010Prop41ColorIndex
 90
       18
102
RTVSPost2010Prop41ColorRGB
 90
        0
102
RTVSPost2010PropOp41
 70
     1
102
RTVSPost2010Prop42
 90
       50
102
RTVSPost2010PropOp42
 70
     1
102
RTVSPost2010Prop43
 90
        3
102
RTVSPost2010PropOp43
 70
     1
102
RTVSPost2010Prop44ColorIndex
 90
        5
102
RTVSPost2010Prop44ColorRGB
 90
      255
102
RTVSPost2010PropOp44
 70
     1
102
RTVSPost2010Prop45
280
     0
102
RTVSPost2010PropOp45
 70
     1
102
RTVSPost2010Prop46
 90
       50
102
RTVSPost2010PropOp46
 70
     1
102
RTVSPost2010Prop47
 90
       50
102
RTVSPost2010PropOp47
 70
     1
102
RTVSPost2010Prop48
 90
       50
102
RTVSPost2010PropOp48
 70
     1
102
RTVSPost2010Prop49
280
     0
102
RTVSPost2010PropOp49
 70
     1
102
RTVSPost2010Prop50
 90
       50
102
RTVSPost2010PropOp50
 70
     1
102
RTVSPost2010Prop51ColorIndex
 90
      256
102
RTVSPost2010Prop51ColorRGB
 90
-16777216
102
RTVSPost2010PropOp51
 70
     0
102
RTVSPost2010Prop52
140
1.0
102
RTVSPost2010PropOp52
 70
     0
102
RTVSPost2010Prop53
 90
        2
102
RTVSPost2010PropOp53
 70
     1
102
RTVSPost2010Prop54
  1
strokes_ogs.tif
102
RTVSPost2010PropOp54
 70
     1
102
RTVSPost2010Prop55
280
     0
102
RTVSPost2010PropOp55
 70
     1
102
RTVSPost2010Prop56
140
1.0
102
RTVSPost2010PropOp56
 70
     1
102
RTVSPost2010Prop57
140
1.0
102
RTVSPost2010PropOp57
 70
     1
  0
XRECORD
  5
1D6
102
{ACAD_REACTORS
330
1D5
102
}
330
1D5
100
AcDbXrecord
280
     1
102
RTVSPost2010Prop28
280
     0
102
RTVSPost2010PropOp28
 70
     1
102
RTVSPost2010Prop29
280
     1
102
RTVSPost2010PropOp29
 70
     1
102
RTVSPost2010Prop30
280
     1
102
RTVSPost2010PropOp30
 70
     1
102
RTVSPost2010Prop31
280
     0
102
RTVSPost2010PropOp31
 70
     1
102
RTVSPost2010Prop32
280
     0
102
RTVSPost2010PropOp32
 70
     1
102
RTVSPost2010Prop33
280
     0
102
RTVSPost2010PropOp33
 70
     1
102
RTVSPost2010Prop34
280
     0
102
RTVSPost2010PropOp34
 70
     1
102
RTVSPost2010Prop35
280
     0
102
RTVSPost2010PropOp35
 70
     1
102
RTVSPost2010Prop36
280
     0
102
RTVSPost2010PropOp36
 70
     1
102
RTVSPost2010Prop37
 90
       50
102
RTVSPost2010PropOp37
 70
     1
102
RTVSPost2010Prop38
140
0.0
102
RTVSPost2010PropOp38
 70
     1
102
RTVSPost2010Prop39
140
1.0
102
RTVSPost2010PropOp39
 70
     1
102
RTVSPost2010Prop40
 90
        0
102
RTVSPost2010PropOp40
 70
     1
102
RTVSPost2010Prop41ColorIndex
 90
       18
102
RTVSPost2010Prop41ColorRGB
 90
        0
102
RTVSPost2010PropOp41
 70
     1
102
RTVSPost2010Prop42
 90
       50
102
RTVSPost2010PropOp42
 70
     1
102
RTVSPost2010Prop43
 90
        3
102
RTVSPost2010PropOp43
 70
     1
102
RTVSPost2010Prop44ColorIndex
 90
        5
102
RTVSPost2010Prop44ColorRGB
 90
      255
102
RTVSPost2010PropOp44
 70
     1
102
RTVSPost2010Prop45
280
     0
102
RTVSPost2010PropOp45
 70
     1
102
RTVSPost2010Prop46
 90
       50
102
RTVSPost2010PropOp46
 70
     1
102
RTVSPost2010Prop47
 90
       50
102
RTVSPost2010PropOp47
 70
     1
102
RTVSPost2010Prop48
 90
       50
102
RTVSPost2010PropOp48
 70
     1
102
RTVSPost2010Prop49
280
     0
102
RTVSPost2010PropOp49
 70
     1
102
RTVSPost2010Prop50
 90
       50
102
RTVSPost2010PropOp50
 70
     1
102
RTVSPost2010Prop51ColorIndex
 90
      256
102
RTVSPost2010Prop51ColorRGB
 90
-16777216
102
RTVSPost2010PropOp51
 70
     0
102
RTVSPost2010Prop52
140
1.0
102
RTVSPost2010PropOp52
 70
     0
102
RTVSPost2010Prop53
 90
        2
102
RTVSPost2010PropOp53
 70
     1
102
RTVSPost2010Prop54
  1
strokes_ogs.tif
102
RTVSPost2010PropOp54
 70
     1
102
RTVSPost2010Prop55
280
     0
102
RTVSPost2010PropOp55
 70
     1
102
RTVSPost2010Prop56
140
1.0
102
RTVSPost2010PropOp56
 70
     1
102
RTVSPost2010Prop57
140
1.0
102
RTVSPost2010PropOp57
 70
     1
  0
XRECORD
  5
1C8
102
{ACAD_REACTORS
330
1C7
102
}
330
1C7
100
AcDbXrecord
280
     1
102
RTVSPost2010Prop28
280
     0
102
RTVSPost2010PropOp28
 70
     1
102
RTVSPost2010Prop29
280
     1
102
RTVSPost2010PropOp29
 70
     1
102
RTVSPost2010Prop30
280
     1
102
RTVSPost2010PropOp30
 70
     1
102
RTVSPost2010Prop31
280
     0
102
RTVSPost2010PropOp31
 70
     1
102
RTVSPost2010Prop32
280
     0
102
RTVSPost2010PropOp32
 70
     1
102
RTVSPost2010Prop33
280
     0
102
RTVSPost2010PropOp33
 70
     1
102
RTVSPost2010Prop34
280
     0
102
RTVSPost2010PropOp34
 70
     1
102
RTVSPost2010Prop35
280
     0
102
RTVSPost2010PropOp35
 70
     1
102
RTVSPost2010Prop36
280
     0
102
RTVSPost2010PropOp36
 70
     1
102
RTVSPost2010Prop37
 90
       50
102
RTVSPost2010PropOp37
 70
     1
102
RTVSPost2010Prop38
140
0.0
102
RTVSPost2010PropOp38
 70
     1
102
RTVSPost2010Prop39
140
1.0
102
RTVSPost2010PropOp39
 70
     1
102
RTVSPost2010Prop40
 90
        0
102
RTVSPost2010PropOp40
 70
     1
102
RTVSPost2010Prop41ColorIndex
 90
       18
102
RTVSPost2010Prop41ColorRGB
 90
        0
102
RTVSPost2010PropOp41
 70
     1
102
RTVSPost2010Prop42
 90
       50
102
RTVSPost2010PropOp42
 70
     1
102
RTVSPost2010Prop43
 90
        3
102
RTVSPost2010PropOp43
 70
     1
102
RTVSPost2010Prop44ColorIndex
 90
        5
102
RTVSPost2010Prop44ColorRGB
 90
      255
102
RTVSPost2010PropOp44
 70
     1
102
RTVSPost2010Prop45
280
     0
102
RTVSPost2010PropOp45
 70
     1
102
RTVSPost2010Prop46
 90
       50
102
RTVSPost2010PropOp46
 70
     1
102
RTVSPost2010Prop47
 90
       50
102
RTVSPost2010PropOp47
 70
     1
102
RTVSPost2010Prop48
 90
       50
102
RTVSPost2010PropOp48
 70
     1
102
RTVSPost2010Prop49
280
     0
102
RTVSPost2010PropOp49
 70
     1
102
RTVSPost2010Prop50
 90
       50
102
RTVSPost2010PropOp50
 70
     1
102
RTVSPost2010Prop51ColorIndex
 90
      256
102
RTVSPost2010Prop51ColorRGB
 90
-16777216
102
RTVSPost2010PropOp51
 70
     0
102
RTVSPost2010Prop52
140
1.0
102
RTVSPost2010PropOp52
 70
     0
102
RTVSPost2010Prop53
 90
        2
102
RTVSPost2010PropOp53
 70
     1
102
RTVSPost2010Prop54
  1
strokes_ogs.tif
102
RTVSPost2010PropOp54
 70
     1
102
RTVSPost2010Prop55
280
     0
102
RTVSPost2010PropOp55
 70
     1
102
RTVSPost2010Prop56
140
1.0
102
RTVSPost2010PropOp56
 70
     1
102
RTVSPost2010Prop57
140
1.0
102
RTVSPost2010PropOp57
 70
     1
  0
XRECORD
  5
1CC
102
{ACAD_REACTORS
330
1CB
102
}
330
1CB
100
AcDbXrecord
280
     1
102
RTVSPost2010Prop28
280
     0
102
RTVSPost2010PropOp28
 70
     1
102
RTVSPost2010Prop29
280
     1
102
RTVSPost2010PropOp29
 70
     1
102
RTVSPost2010Prop30
280
     1
102
RTVSPost2010PropOp30
 70
     1
102
RTVSPost2010Prop31
280
     0
102
RTVSPost2010PropOp31
 70
     1
102
RTVSPost2010Prop32
280
     0
102
RTVSPost2010PropOp32
 70
     1
102
RTVSPost2010Prop33
280
     0
102
RTVSPost2010PropOp33
 70
     1
102
RTVSPost2010Prop34
280
     0
102
RTVSPost2010PropOp34
 70
     1
102
RTVSPost2010Prop35
280
     0
102
RTVSPost2010PropOp35
 70
     1
102
RTVSPost2010Prop36
280
     0
102
RTVSPost2010PropOp36
 70
     1
102
RTVSPost2010Prop37
 90
       50
102
RTVSPost2010PropOp37
 70
     1
102
RTVSPost2010Prop38
140
0.0
102
RTVSPost2010PropOp38
 70
     1
102
RTVSPost2010Prop39
140
1.0
102
RTVSPost2010PropOp39
 70
     1
102
RTVSPost2010Prop40
 90
        0
102
RTVSPost2010PropOp40
 70
     1
102
RTVSPost2010Prop41ColorIndex
 90
       18
102
RTVSPost2010Prop41ColorRGB
 90
        0
102
RTVSPost2010PropOp41
 70
     1
102
RTVSPost2010Prop42
 90
       50
102
RTVSPost2010PropOp42
 70
     1
102
RTVSPost2010Prop43
 90
        3
102
RTVSPost2010PropOp43
 70
     1
102
RTVSPost2010Prop44ColorIndex
 90
        5
102
RTVSPost2010Prop44ColorRGB
 90
      255
102
RTVSPost2010PropOp44
 70
     1
102
RTVSPost2010Prop45
280
     0
102
RTVSPost2010PropOp45
 70
     1
102
RTVSPost2010Prop46
 90
       50
102
RTVSPost2010PropOp46
 70
     1
102
RTVSPost2010Prop47
 90
       50
102
RTVSPost2010PropOp47
 70
     1
102
RTVSPost2010Prop48
 90
       50
102
RTVSPost2010PropOp48
 70
     1
102
RTVSPost2010Prop49
280
     0
102
RTVSPost2010PropOp49
 70
     1
102
RTVSPost2010Prop50
 90
       50
102
RTVSPost2010PropOp50
 70
     1
102
RTVSPost2010Prop51ColorIndex
 90
      256
102
RTVSPost2010Prop51ColorRGB
 90
-16777216
102
RTVSPost2010PropOp51
 70
     0
102
RTVSPost2010Prop52
140
1.0
102
RTVSPost2010PropOp52
 70
     0
102
RTVSPost2010Prop53
 90
        2
102
RTVSPost2010PropOp53
 70
     1
102
RTVSPost2010Prop54
  1
strokes_ogs.tif
102
RTVSPost2010PropOp54
 70
     1
102
RTVSPost2010Prop55
280
     0
102
RTVSPost2010PropOp55
 70
     1
102
RTVSPost2010Prop56
140
1.0
102
RTVSPost2010PropOp56
 70
     1
102
RTVSPost2010Prop57
140
1.0
102
RTVSPost2010PropOp57
 70
     1
  0
XRECORD
  5
1E6
102
{ACAD_REACTORS
330
1E5
102
}
330
1E5
100
AcDbXrecord
280
     1
102
RTVSPost2010Prop28
280
     0
102
RTVSPost2010PropOp28
 70
     0
102
RTVSPost2010Prop29
280
     1
102
RTVSPost2010PropOp29
 70
     0
102
RTVSPost2010Prop30
280
     1
102
RTVSPost2010PropOp30
 70
     0
102
RTVSPost2010Prop31
280
     0
102
RTVSPost2010PropOp31
 70
     0
102
RTVSPost2010Prop32
280
     0
102
RTVSPost2010PropOp32
 70
     0
102
RTVSPost2010Prop33
280
     0
102
RTVSPost2010PropOp33
 70
     0
102
RTVSPost2010Prop34
280
     0
102
RTVSPost2010PropOp34
 70
     0
102
RTVSPost2010Prop35
280
     0
102
RTVSPost2010PropOp35
 70
     0
102
RTVSPost2010Prop36
280
     0
102
RTVSPost2010PropOp36
 70
     0
102
RTVSPost2010Prop37
 90
       50
102
RTVSPost2010PropOp37
 70
     0
102
RTVSPost2010Prop38
140
0.0
102
RTVSPost2010PropOp38
 70
     0
102
RTVSPost2010Prop39
140
1.0
102
RTVSPost2010PropOp39
 70
     0
102
RTVSPost2010Prop40
 90
        0
102
RTVSPost2010PropOp40
 70
     0
102
RTVSPost2010Prop41ColorIndex
 90
       18
102
RTVSPost2010Prop41ColorRGB
 90
        0
102
RTVSPost2010PropOp41
 70
     0
102
RTVSPost2010Prop42
 90
       50
102
RTVSPost2010PropOp42
 70
     0
102
RTVSPost2010Prop43
 90
        3
102
RTVSPost2010PropOp43
 70
     0
102
RTVSPost2010Prop44ColorIndex
 90
        5
102
RTVSPost2010Prop44ColorRGB
 90
      255
102
RTVSPost2010PropOp44
 70
     0
102
RTVSPost2010Prop45
280
     0
102
RTVSPost2010PropOp45
 70
     0
102
RTVSPost2010Prop46
 90
       50
102
RTVSPost2010PropOp46
 70
     0
102
RTVSPost2010Prop47
 90
       50
102
RTVSPost2010PropOp47
 70
     0
102
RTVSPost2010Prop48
 90
       50
102
RTVSPost2010PropOp48
 70
     0
102
RTVSPost2010Prop49
280
     0
102
RTVSPost2010PropOp49
 70
     0
102
RTVSPost2010Prop50
 90
       50
102
RTVSPost2010PropOp50
 70
     0
102
RTVSPost2010Prop51ColorIndex
 90
      256
102
RTVSPost2010Prop51ColorRGB
 90
-16777216
102
RTVSPost2010PropOp51
 70
     0
102
RTVSPost2010Prop52
140
1.0
102
RTVSPost2010PropOp52
 70
     0
102
RTVSPost2010Prop53
 90
        2
102
RTVSPost2010PropOp53
 70
     0
102
RTVSPost2010Prop54
  1
strokes_ogs.tif
102
RTVSPost2010PropOp54
 70
     0
102
RTVSPost2010Prop55
280
     0
102
RTVSPost2010PropOp55
 70
     0
102
RTVSPost2010Prop56
140
1.0
102
RTVSPost2010PropOp56
 70
     0
102
RTVSPost2010Prop57
140
1.0
102
RTVSPost2010PropOp57
 70
     0
  0
XRECORD
  5
1D4
102
{ACAD_REACTORS
330
1D3
102
}
330
1D3
100
AcDbXrecord
280
     1
102
RTVSPost2010Prop28
280
     0
102
RTVSPost2010PropOp28
 70
     1
102
RTVSPost2010Prop29
280
     1
102
RTVSPost2010PropOp29
 70
     1
102
RTVSPost2010Prop30
280
     1
102
RTVSPost2010PropOp30
 70
     1
102
RTVSPost2010Prop31
280
     0
102
RTVSPost2010PropOp31
 70
     1
102
RTVSPost2010Prop32
280
     0
102
RTVSPost2010PropOp32
 70
     1
102
RTVSPost2010Prop33
280
     0
102
RTVSPost2010PropOp33
 70
     1
102
RTVSPost2010Prop34
280
     0
102
RTVSPost2010PropOp34
 70
     1
102
RTVSPost2010Prop35
280
     0
102
RTVSPost2010PropOp35
 70
     1
102
RTVSPost2010Prop36
280
     0
102
RTVSPost2010PropOp36
 70
     1
102
RTVSPost2010Prop37
 90
       50
102
RTVSPost2010PropOp37
 70
     1
102
RTVSPost2010Prop38
140
0.0
102
RTVSPost2010PropOp38
 70
     1
102
RTVSPost2010Prop39
140
1.0
102
RTVSPost2010PropOp39
 70
     1
102
RTVSPost2010Prop40
 90
        0
102
RTVSPost2010PropOp40
 70
     1
102
RTVSPost2010Prop41ColorIndex
 90
       18
102
RTVSPost2010Prop41ColorRGB
 90
        0
102
RTVSPost2010PropOp41
 70
     1
102
RTVSPost2010Prop42
 90
       50
102
RTVSPost2010PropOp42
 70
     1
102
RTVSPost2010Prop43
 90
        3
102
RTVSPost2010PropOp43
 70
     1
102
RTVSPost2010Prop44ColorIndex
 90
        5
102
RTVSPost2010Prop44ColorRGB
 90
      255
102
RTVSPost2010PropOp44
 70
     1
102
RTVSPost2010Prop45
280
     0
102
RTVSPost2010PropOp45
 70
     1
102
RTVSPost2010Prop46
 90
       50
102
RTVSPost2010PropOp46
 70
     1
102
RTVSPost2010Prop47
 90
       50
102
RTVSPost2010PropOp47
 70
     1
102
RTVSPost2010Prop48
 90
       50
102
RTVSPost2010PropOp48
 70
     1
102
RTVSPost2010Prop49
280
     0
102
RTVSPost2010PropOp49
 70
     1
102
RTVSPost2010Prop50
 90
       50
102
RTVSPost2010PropOp50
 70
     1
102
RTVSPost2010Prop51ColorIndex
 90
      256
102
RTVSPost2010Prop51ColorRGB
 90
-16777216
102
RTVSPost2010PropOp51
 70
     0
102
RTVSPost2010Prop52
140
1.0
102
RTVSPost2010PropOp52
 70
     0
102
RTVSPost2010Prop53
 90
        2
102
RTVSPost2010PropOp53
 70
     1
102
RTVSPost2010Prop54
  1
strokes_ogs.tif
102
RTVSPost2010PropOp54
 70
     1
102
RTVSPost2010Prop55
280
     0
102
RTVSPost2010PropOp55
 70
     1
102
RTVSPost2010Prop56
140
1.0
102
RTVSPost2010PropOp56
 70
     1
102
RTVSPost2010Prop57
140
1.0
102
RTVSPost2010PropOp57
 70
     1
  0
XRECORD
  5
1B8
102
{ACAD_REACTORS
330
1B7
102
}
330
1B7
100
AcDbXrecord
280
     1
102
RTVSPost2010Prop28
280
     0
102
RTVSPost2010PropOp28
 70
     1
102
RTVSPost2010Prop29
280
     1
102
RTVSPost2010PropOp29
 70
     1
102
RTVSPost2010Prop30
280
     1
102
RTVSPost2010PropOp30
 70
     1
102
RTVSPost2010Prop31
280
     0
102
RTVSPost2010PropOp31
 70
     1
102
RTVSPost2010Prop32
280
     0
102
RTVSPost2010PropOp32
 70
     1
102
RTVSPost2010Prop33
280
     0
102
RTVSPost2010PropOp33
 70
     1
102
RTVSPost2010Prop34
280
     0
102
RTVSPost2010PropOp34
 70
     1
102
RTVSPost2010Prop35
280
     0
102
RTVSPost2010PropOp35
 70
     1
102
RTVSPost2010Prop36
280
     0
102
RTVSPost2010PropOp36
 70
     1
102
RTVSPost2010Prop37
 90
       50
102
RTVSPost2010PropOp37
 70
     1
102
RTVSPost2010Prop38
140
0.0
102
RTVSPost2010PropOp38
 70
     1
102
RTVSPost2010Prop39
140
1.0
102
RTVSPost2010PropOp39
 70
     1
102
RTVSPost2010Prop40
 90
        0
102
RTVSPost2010PropOp40
 70
     1
102
RTVSPost2010Prop41ColorIndex
 90
       18
102
RTVSPost2010Prop41ColorRGB
 90
        0
102
RTVSPost2010PropOp41
 70
     1
102
RTVSPost2010Prop42
 90
       50
102
RTVSPost2010PropOp42
 70
     1
102
RTVSPost2010Prop43
 90
        3
102
RTVSPost2010PropOp43
 70
     1
102
RTVSPost2010Prop44ColorIndex
 90
        5
102
RTVSPost2010Prop44ColorRGB
 90
      255
102
RTVSPost2010PropOp44
 70
     1
102
RTVSPost2010Prop45
280
     0
102
RTVSPost2010PropOp45
 70
     1
102
RTVSPost2010Prop46
 90
       50
102
RTVSPost2010PropOp46
 70
     1
102
RTVSPost2010Prop47
 90
       50
102
RTVSPost2010PropOp47
 70
     1
102
RTVSPost2010Prop48
 90
       50
102
RTVSPost2010PropOp48
 70
     1
102
RTVSPost2010Prop49
280
     0
102
RTVSPost2010PropOp49
 70
     1
102
RTVSPost2010Prop50
 90
       50
102
RTVSPost2010PropOp50
 70
     1
102
RTVSPost2010Prop51ColorIndex
 90
      256
102
RTVSPost2010Prop51ColorRGB
 90
-16777216
102
RTVSPost2010PropOp51
 70
     0
102
RTVSPost2010Prop52
140
1.0
102
RTVSPost2010PropOp52
 70
     0
102
RTVSPost2010Prop53
 90
        2
102
RTVSPost2010PropOp53
 70
     1
102
RTVSPost2010Prop54
  1
strokes_ogs.tif
102
RTVSPost2010PropOp54
 70
     1
102
RTVSPost2010Prop55
280
     0
102
RTVSPost2010PropOp55
 70
     1
102
RTVSPost2010Prop56
140
1.0
102
RTVSPost2010PropOp56
 70
     1
102
RTVSPost2010Prop57
140
1.0
102
RTVSPost2010PropOp57
 70
     1
  0
XRECORD
  5
1BA
102
{ACAD_REACTORS
330
1B9
102
}
330
1B9
100
AcDbXrecord
280
     1
102
RTVSPost2010Prop28
280
     0
102
RTVSPost2010PropOp28
 70
     1
102
RTVSPost2010Prop29
280
     1
102
RTVSPost2010PropOp29
 70
     1
102
RTVSPost2010Prop30
280
     1
102
RTVSPost2010PropOp30
 70
     1
102
RTVSPost2010Prop31
280
     0
102
RTVSPost2010PropOp31
 70
     1
102
RTVSPost2010Prop32
280
     0
102
RTVSPost2010PropOp32
 70
     1
102
RTVSPost2010Prop33
280
     0
102
RTVSPost2010PropOp33
 70
     1
102
RTVSPost2010Prop34
280
     0
102
RTVSPost2010PropOp34
 70
     1
102
RTVSPost2010Prop35
280
     0
102
RTVSPost2010PropOp35
 70
     1
102
RTVSPost2010Prop36
280
     0
102
RTVSPost2010PropOp36
 70
     1
102
RTVSPost2010Prop37
 90
       50
102
RTVSPost2010PropOp37
 70
     1
102
RTVSPost2010Prop38
140
0.0
102
RTVSPost2010PropOp38
 70
     1
102
RTVSPost2010Prop39
140
1.0
102
RTVSPost2010PropOp39
 70
     1
102
RTVSPost2010Prop40
 90
        0
102
RTVSPost2010PropOp40
 70
     1
102
RTVSPost2010Prop41ColorIndex
 90
       18
102
RTVSPost2010Prop41ColorRGB
 90
        0
102
RTVSPost2010PropOp41
 70
     1
102
RTVSPost2010Prop42
 90
       50
102
RTVSPost2010PropOp42
 70
     1
102
RTVSPost2010Prop43
 90
        3
102
RTVSPost2010PropOp43
 70
     1
102
RTVSPost2010Prop44ColorIndex
 90
        5
102
RTVSPost2010Prop44ColorRGB
 90
      255
102
RTVSPost2010PropOp44
 70
     1
102
RTVSPost2010Prop45
280
     0
102
RTVSPost2010PropOp45
 70
     1
102
RTVSPost2010Prop46
 90
       50
102
RTVSPost2010PropOp46
 70
     1
102
RTVSPost2010Prop47
 90
       50
102
RTVSPost2010PropOp47
 70
     1
102
RTVSPost2010Prop48
 90
       50
102
RTVSPost2010PropOp48
 70
     1
102
RTVSPost2010Prop49
280
     0
102
RTVSPost2010PropOp49
 70
     1
102
RTVSPost2010Prop50
 90
       50
102
RTVSPost2010PropOp50
 70
     1
102
RTVSPost2010Prop51ColorIndex
 90
      256
102
RTVSPost2010Prop51ColorRGB
 90
-16777216
102
RTVSPost2010PropOp51
 70
     0
102
RTVSPost2010Prop52
140
1.0
102
RTVSPost2010PropOp52
 70
     0
102
RTVSPost2010Prop53
 90
        2
102
RTVSPost2010PropOp53
 70
     1
102
RTVSPost2010Prop54
  1
strokes_ogs.tif
102
RTVSPost2010PropOp54
 70
     1
102
RTVSPost2010Prop55
280
     0
102
RTVSPost2010PropOp55
 70
     1
102
RTVSPost2010Prop56
140
1.0
102
RTVSPost2010PropOp56
 70
     1
102
RTVSPost2010Prop57
140
1.0
102
RTVSPost2010PropOp57
 70
     1
  0
XRECORD
  5
1BC
102
{ACAD_REACTORS
330
1BB
102
}
330
1BB
100
AcDbXrecord
280
     1
102
RTVSPost2010Prop28
280
     0
102
RTVSPost2010PropOp28
 70
     1
102
RTVSPost2010Prop29
280
     1
102
RTVSPost2010PropOp29
 70
     1
102
RTVSPost2010Prop30
280
     1
102
RTVSPost2010PropOp30
 70
     1
102
RTVSPost2010Prop31
280
     0
102
RTVSPost2010PropOp31
 70
     1
102
RTVSPost2010Prop32
280
     0
102
RTVSPost2010PropOp32
 70
     1
102
RTVSPost2010Prop33
280
     0
102
RTVSPost2010PropOp33
 70
     1
102
RTVSPost2010Prop34
280
     0
102
RTVSPost2010PropOp34
 70
     1
102
RTVSPost2010Prop35
280
     0
102
RTVSPost2010PropOp35
 70
     1
102
RTVSPost2010Prop36
280
     0
102
RTVSPost2010PropOp36
 70
     1
102
RTVSPost2010Prop37
 90
       50
102
RTVSPost2010PropOp37
 70
     1
102
RTVSPost2010Prop38
140
0.0
102
RTVSPost2010PropOp38
 70
     1
102
RTVSPost2010Prop39
140
1.0
102
RTVSPost2010PropOp39
 70
     1
102
RTVSPost2010Prop40
 90
        0
102
RTVSPost2010PropOp40
 70
     1
102
RTVSPost2010Prop41ColorIndex
 90
       18
102
RTVSPost2010Prop41ColorRGB
 90
        0
102
RTVSPost2010PropOp41
 70
     1
102
RTVSPost2010Prop42
 90
       50
102
RTVSPost2010PropOp42
 70
     1
102
RTVSPost2010Prop43
 90
        3
102
RTVSPost2010PropOp43
 70
     1
102
RTVSPost2010Prop44ColorIndex
 90
        5
102
RTVSPost2010Prop44ColorRGB
 90
      255
102
RTVSPost2010PropOp44
 70
     1
102
RTVSPost2010Prop45
280
     0
102
RTVSPost2010PropOp45
 70
     1
102
RTVSPost2010Prop46
 90
       50
102
RTVSPost2010PropOp46
 70
     1
102
RTVSPost2010Prop47
 90
       50
102
RTVSPost2010PropOp47
 70
     1
102
RTVSPost2010Prop48
 90
       50
102
RTVSPost2010PropOp48
 70
     1
102
RTVSPost2010Prop49
280
     0
102
RTVSPost2010PropOp49
 70
     1
102
RTVSPost2010Prop50
 90
       50
102
RTVSPost2010PropOp50
 70
     1
102
RTVSPost2010Prop51ColorIndex
 90
      256
102
RTVSPost2010Prop51ColorRGB
 90
-16777216
102
RTVSPost2010PropOp51
 70
     0
102
RTVSPost2010Prop52
140
1.0
102
RTVSPost2010PropOp52
 70
     0
102
RTVSPost2010Prop53
 90
        2
102
RTVSPost2010PropOp53
 70
     1
102
RTVSPost2010Prop54
  1
strokes_ogs.tif
102
RTVSPost2010PropOp54
 70
     1
102
RTVSPost2010Prop55
280
     0
102
RTVSPost2010PropOp55
 70
     1
102
RTVSPost2010Prop56
140
1.0
102
RTVSPost2010PropOp56
 70
     1
102
RTVSPost2010Prop57
140
1.0
102
RTVSPost2010PropOp57
 70
     1
  0
XRECORD
  5
1BE
102
{ACAD_REACTORS
330
1BD
102
}
330
1BD
100
AcDbXrecord
280
     1
102
RTVSPost2010Prop28
280
     0
102
RTVSPost2010PropOp28
 70
     1
102
RTVSPost2010Prop29
280
     1
102
RTVSPost2010PropOp29
 70
     1
102
RTVSPost2010Prop30
280
     1
102
RTVSPost2010PropOp30
 70
     1
102
RTVSPost2010Prop31
280
     0
102
RTVSPost2010PropOp31
 70
     1
102
RTVSPost2010Prop32
280
     0
102
RTVSPost2010PropOp32
 70
     1
102
RTVSPost2010Prop33
280
     0
102
RTVSPost2010PropOp33
 70
     1
102
RTVSPost2010Prop34
280
     0
102
RTVSPost2010PropOp34
 70
     1
102
RTVSPost2010Prop35
280
     0
102
RTVSPost2010PropOp35
 70
     1
102
RTVSPost2010Prop36
280
     0
102
RTVSPost2010PropOp36
 70
     1
102
RTVSPost2010Prop37
 90
       50
102
RTVSPost2010PropOp37
 70
     1
102
RTVSPost2010Prop38
140
0.0
102
RTVSPost2010PropOp38
 70
     1
102
RTVSPost2010Prop39
140
1.0
102
RTVSPost2010PropOp39
 70
     1
102
RTVSPost2010Prop40
 90
        0
102
RTVSPost2010PropOp40
 70
     1
102
RTVSPost2010Prop41ColorIndex
 90
       18
102
RTVSPost2010Prop41ColorRGB
 90
        0
102
RTVSPost2010PropOp41
 70
     1
102
RTVSPost2010Prop42
 90
       50
102
RTVSPost2010PropOp42
 70
     1
102
RTVSPost2010Prop43
 90
        3
102
RTVSPost2010PropOp43
 70
     1
102
RTVSPost2010Prop44ColorIndex
 90
        5
102
RTVSPost2010Prop44ColorRGB
 90
      255
102
RTVSPost2010PropOp44
 70
     1
102
RTVSPost2010Prop45
280
     0
102
RTVSPost2010PropOp45
 70
     1
102
RTVSPost2010Prop46
 90
       50
102
RTVSPost2010PropOp46
 70
     1
102
RTVSPost2010Prop47
 90
       50
102
RTVSPost2010PropOp47
 70
     1
102
RTVSPost2010Prop48
 90
       50
102
RTVSPost2010PropOp48
 70
     1
102
RTVSPost2010Prop49
280
     0
102
RTVSPost2010PropOp49
 70
     1
102
RTVSPost2010Prop50
 90
       50
102
RTVSPost2010PropOp50
 70
     1
102
RTVSPost2010Prop51ColorIndex
 90
      256
102
RTVSPost2010Prop51ColorRGB
 90
-16777216
102
RTVSPost2010PropOp51
 70
     0
102
RTVSPost2010Prop52
140
1.0
102
RTVSPost2010PropOp52
 70
     0
102
RTVSPost2010Prop53
 90
        2
102
RTVSPost2010PropOp53
 70
     1
102
RTVSPost2010Prop54
  1
strokes_ogs.tif
102
RTVSPost2010PropOp54
 70
     1
102
RTVSPost2010Prop55
280
     0
102
RTVSPost2010PropOp55
 70
     1
102
RTVSPost2010Prop56
140
1.0
102
RTVSPost2010PropOp56
 70
     1
102
RTVSPost2010Prop57
140
1.0
102
RTVSPost2010PropOp57
 70
     1
  0
XRECORD
  5
1C6
102
{ACAD_REACTORS
330
1C5
102
}
330
1C5
100
AcDbXrecord
280
     1
102
RTVSPost2010Prop28
280
     0
102
RTVSPost2010PropOp28
 70
     1
102
RTVSPost2010Prop29
280
     1
102
RTVSPost2010PropOp29
 70
     1
102
RTVSPost2010Prop30
280
     1
102
RTVSPost2010PropOp30
 70
     1
102
RTVSPost2010Prop31
280
     0
102
RTVSPost2010PropOp31
 70
     1
102
RTVSPost2010Prop32
280
     0
102
RTVSPost2010PropOp32
 70
     1
102
RTVSPost2010Prop33
280
     0
102
RTVSPost2010PropOp33
 70
     1
102
RTVSPost2010Prop34
280
     0
102
RTVSPost2010PropOp34
 70
     1
102
RTVSPost2010Prop35
280
     0
102
RTVSPost2010PropOp35
 70
     1
102
RTVSPost2010Prop36
280
     0
102
RTVSPost2010PropOp36
 70
     1
102
RTVSPost2010Prop37
 90
       50
102
RTVSPost2010PropOp37
 70
     1
102
RTVSPost2010Prop38
140
0.0
102
RTVSPost2010PropOp38
 70
     1
102
RTVSPost2010Prop39
140
1.0
102
RTVSPost2010PropOp39
 70
     1
102
RTVSPost2010Prop40
 90
        0
102
RTVSPost2010PropOp40
 70
     1
102
RTVSPost2010Prop41ColorIndex
 90
       18
102
RTVSPost2010Prop41ColorRGB
 90
        0
102
RTVSPost2010PropOp41
 70
     1
102
RTVSPost2010Prop42
 90
       50
102
RTVSPost2010PropOp42
 70
     1
102
RTVSPost2010Prop43
 90
        3
102
RTVSPost2010PropOp43
 70
     1
102
RTVSPost2010Prop44ColorIndex
 90
        5
102
RTVSPost2010Prop44ColorRGB
 90
      255
102
RTVSPost2010PropOp44
 70
     1
102
RTVSPost2010Prop45
280
     0
102
RTVSPost2010PropOp45
 70
     1
102
RTVSPost2010Prop46
 90
       50
102
RTVSPost2010PropOp46
 70
     1
102
RTVSPost2010Prop47
 90
       50
102
RTVSPost2010PropOp47
 70
     1
102
RTVSPost2010Prop48
 90
       50
102
RTVSPost2010PropOp48
 70
     1
102
RTVSPost2010Prop49
280
     0
102
RTVSPost2010PropOp49
 70
     1
102
RTVSPost2010Prop50
 90
       50
102
RTVSPost2010PropOp50
 70
     1
102
RTVSPost2010Prop51ColorIndex
 90
      256
102
RTVSPost2010Prop51ColorRGB
 90
-16777216
102
RTVSPost2010PropOp51
 70
     0
102
RTVSPost2010Prop52
140
1.0
102
RTVSPost2010PropOp52
 70
     0
102
RTVSPost2010Prop53
 90
        2
102
RTVSPost2010PropOp53
 70
     1
102
RTVSPost2010Prop54
  1
strokes_ogs.tif
102
RTVSPost2010PropOp54
 70
     1
102
RTVSPost2010Prop55
280
     0
102
RTVSPost2010PropOp55
 70
     1
102
RTVSPost2010Prop56
140
1.0
102
RTVSPost2010PropOp56
 70
     1
102
RTVSPost2010Prop57
140
1.0
102
RTVSPost2010PropOp57
 70
     1
  0
XRECORD
  5
1E2
102
{ACAD_REACTORS
330
1E1
102
}
330
1E1
100
AcDbXrecord
280
     1
102
RTVSPost2010Prop28
280
     0
102
RTVSPost2010PropOp28
 70
     0
102
RTVSPost2010Prop29
280
     1
102
RTVSPost2010PropOp29
 70
     0
102
RTVSPost2010Prop30
280
     1
102
RTVSPost2010PropOp30
 70
     0
102
RTVSPost2010Prop31
280
     0
102
RTVSPost2010PropOp31
 70
     0
102
RTVSPost2010Prop32
280
     0
102
RTVSPost2010PropOp32
 70
     0
102
RTVSPost2010Prop33
280
     0
102
RTVSPost2010PropOp33
 70
     0
102
RTVSPost2010Prop34
280
     0
102
RTVSPost2010PropOp34
 70
     0
102
RTVSPost2010Prop35
280
     0
102
RTVSPost2010PropOp35
 70
     0
102
RTVSPost2010Prop36
280
     0
102
RTVSPost2010PropOp36
 70
     0
102
RTVSPost2010Prop37
 90
       50
102
RTVSPost2010PropOp37
 70
     0
102
RTVSPost2010Prop38
140
0.0
102
RTVSPost2010PropOp38
 70
     0
102
RTVSPost2010Prop39
140
1.0
102
RTVSPost2010PropOp39
 70
     0
102
RTVSPost2010Prop40
 90
        0
102
RTVSPost2010PropOp40
 70
     0
102
RTVSPost2010Prop41ColorIndex
 90
       18
102
RTVSPost2010Prop41ColorRGB
 90
        0
102
RTVSPost2010PropOp41
 70
     0
102
RTVSPost2010Prop42
 90
       50
102
RTVSPost2010PropOp42
 70
     0
102
RTVSPost2010Prop43
 90
        3
102
RTVSPost2010PropOp43
 70
     0
102
RTVSPost2010Prop44ColorIndex
 90
        5
102
RTVSPost2010Prop44ColorRGB
 90
      255
102
RTVSPost2010PropOp44
 70
     0
102
RTVSPost2010Prop45
280
     0
102
RTVSPost2010PropOp45
 70
     0
102
RTVSPost2010Prop46
 90
       50
102
RTVSPost2010PropOp46
 70
     0
102
RTVSPost2010Prop47
 90
       50
102
RTVSPost2010PropOp47
 70
     0
102
RTVSPost2010Prop48
 90
       50
102
RTVSPost2010PropOp48
 70
     0
102
RTVSPost2010Prop49
280
     0
102
RTVSPost2010PropOp49
 70
     0
102
RTVSPost2010Prop50
 90
       50
102
RTVSPost2010PropOp50
 70
     0
102
RTVSPost2010Prop51ColorIndex
 90
      256
102
RTVSPost2010Prop51ColorRGB
 90
-16777216
102
RTVSPost2010PropOp51
 70
     0
102
RTVSPost2010Prop52
140
1.0
102
RTVSPost2010PropOp52
 70
     0
102
RTVSPost2010Prop53
 90
        2
102
RTVSPost2010PropOp53
 70
     0
102
RTVSPost2010Prop54
  1
strokes_ogs.tif
102
RTVSPost2010PropOp54
 70
     0
102
RTVSPost2010Prop55
280
     0
102
RTVSPost2010PropOp55
 70
     0
102
RTVSPost2010Prop56
140
1.0
102
RTVSPost2010PropOp56
 70
     0
102
RTVSPost2010Prop57
140
1.0
102
RTVSPost2010PropOp57
 70
     0
  0
XRECORD
  5
1D2
102
{ACAD_REACTORS
330
1D1
102
}
330
1D1
100
AcDbXrecord
280
     1
102
RTVSPost2010Prop28
280
     0
102
RTVSPost2010PropOp28
 70
     1
102
RTVSPost2010Prop29
280
     1
102
RTVSPost2010PropOp29
 70
     1
102
RTVSPost2010Prop30
280
     1
102
RTVSPost2010PropOp30
 70
     1
102
RTVSPost2010Prop31
280
     0
102
RTVSPost2010PropOp31
 70
     1
102
RTVSPost2010Prop32
280
     0
102
RTVSPost2010PropOp32
 70
     1
102
RTVSPost2010Prop33
280
     0
102
RTVSPost2010PropOp33
 70
     1
102
RTVSPost2010Prop34
280
     0
102
RTVSPost2010PropOp34
 70
     1
102
RTVSPost2010Prop35
280
     0
102
RTVSPost2010PropOp35
 70
     1
102
RTVSPost2010Prop36
280
     0
102
RTVSPost2010PropOp36
 70
     1
102
RTVSPost2010Prop37
 90
       50
102
RTVSPost2010PropOp37
 70
     1
102
RTVSPost2010Prop38
140
0.0
102
RTVSPost2010PropOp38
 70
     1
102
RTVSPost2010Prop39
140
1.0
102
RTVSPost2010PropOp39
 70
     1
102
RTVSPost2010Prop40
 90
        0
102
RTVSPost2010PropOp40
 70
     1
102
RTVSPost2010Prop41ColorIndex
 90
       18
102
RTVSPost2010Prop41ColorRGB
 90
        0
102
RTVSPost2010PropOp41
 70
     1
102
RTVSPost2010Prop42
 90
       50
102
RTVSPost2010PropOp42
 70
     1
102
RTVSPost2010Prop43
 90
        3
102
RTVSPost2010PropOp43
 70
     1
102
RTVSPost2010Prop44ColorIndex
 90
        5
102
RTVSPost2010Prop44ColorRGB
 90
      255
102
RTVSPost2010PropOp44
 70
     1
102
RTVSPost2010Prop45
280
     0
102
RTVSPost2010PropOp45
 70
     1
102
RTVSPost2010Prop46
 90
       50
102
RTVSPost2010PropOp46
 70
     1
102
RTVSPost2010Prop47
 90
       50
102
RTVSPost2010PropOp47
 70
     1
102
RTVSPost2010Prop48
 90
       50
102
RTVSPost2010PropOp48
 70
     1
102
RTVSPost2010Prop49
280
     0
102
RTVSPost2010PropOp49
 70
     1
102
RTVSPost2010Prop50
 90
       50
102
RTVSPost2010PropOp50
 70
     1
102
RTVSPost2010Prop51ColorIndex
 90
      256
102
RTVSPost2010Prop51ColorRGB
 90
-16777216
102
RTVSPost2010PropOp51
 70
     0
102
RTVSPost2010Prop52
140
1.0
102
RTVSPost2010PropOp52
 70
     0
102
RTVSPost2010Prop53
 90
        2
102
RTVSPost2010PropOp53
 70
     1
102
RTVSPost2010Prop54
  1
strokes_ogs.tif
102
RTVSPost2010PropOp54
 70
     1
102
RTVSPost2010Prop55
280
     0
102
RTVSPost2010PropOp55
 70
     1
102
RTVSPost2010Prop56
140
1.0
102
RTVSPost2010PropOp56
 70
     1
102
RTVSPost2010Prop57
140
1.0
102
RTVSPost2010PropOp57
 70
     1
  0
XRECORD
  5
1E4
102
{ACAD_REACTORS
330
1E3
102
}
330
1E3
100
AcDbXrecord
280
     1
102
RTVSPost2010Prop28
280
     0
102
RTVSPost2010PropOp28
 70
     0
102
RTVSPost2010Prop29
280
     1
102
RTVSPost2010PropOp29
 70
     0
102
RTVSPost2010Prop30
280
     1
102
RTVSPost2010PropOp30
 70
     0
102
RTVSPost2010Prop31
280
     0
102
RTVSPost2010PropOp31
 70
     0
102
RTVSPost2010Prop32
280
     0
102
RTVSPost2010PropOp32
 70
     0
102
RTVSPost2010Prop33
280
     0
102
RTVSPost2010PropOp33
 70
     0
102
RTVSPost2010Prop34
280
     0
102
RTVSPost2010PropOp34
 70
     0
102
RTVSPost2010Prop35
280
     0
102
RTVSPost2010PropOp35
 70
     0
102
RTVSPost2010Prop36
280
     0
102
RTVSPost2010PropOp36
 70
     0
102
RTVSPost2010Prop37
 90
       50
102
RTVSPost2010PropOp37
 70
     0
102
RTVSPost2010Prop38
140
0.0
102
RTVSPost2010PropOp38
 70
     0
102
RTVSPost2010Prop39
140
1.0
102
RTVSPost2010PropOp39
 70
     0
102
RTVSPost2010Prop40
 90
        0
102
RTVSPost2010PropOp40
 70
     0
102
RTVSPost2010Prop41ColorIndex
 90
       18
102
RTVSPost2010Prop41ColorRGB
 90
        0
102
RTVSPost2010PropOp41
 70
     0
102
RTVSPost2010Prop42
 90
       50
102
RTVSPost2010PropOp42
 70
     0
102
RTVSPost2010Prop43
 90
        3
102
RTVSPost2010PropOp43
 70
     0
102
RTVSPost2010Prop44ColorIndex
 90
        5
102
RTVSPost2010Prop44ColorRGB
 90
      255
102
RTVSPost2010PropOp44
 70
     0
102
RTVSPost2010Prop45
280
     0
102
RTVSPost2010PropOp45
 70
     0
102
RTVSPost2010Prop46
 90
       50
102
RTVSPost2010PropOp46
 70
     0
102
RTVSPost2010Prop47
 90
       50
102
RTVSPost2010PropOp47
 70
     0
102
RTVSPost2010Prop48
 90
       50
102
RTVSPost2010PropOp48
 70
     0
102
RTVSPost2010Prop49
280
     0
102
RTVSPost2010PropOp49
 70
     0
102
RTVSPost2010Prop50
 90
       50
102
RTVSPost2010PropOp50
 70
     0
102
RTVSPost2010Prop51ColorIndex
 90
      256
102
RTVSPost2010Prop51ColorRGB
 90
-16777216
102
RTVSPost2010PropOp51
 70
     0
102
RTVSPost2010Prop52
140
1.0
102
RTVSPost2010PropOp52
 70
     0
102
RTVSPost2010Prop53
 90
        2
102
RTVSPost2010PropOp53
 70
     0
102
RTVSPost2010Prop54
  1
strokes_ogs.tif
102
RTVSPost2010PropOp54
 70
     0
102
RTVSPost2010Prop55
280
     0
102
RTVSPost2010PropOp55
 70
     0
102
RTVSPost2010Prop56
140
1.0
102
RTVSPost2010PropOp56
 70
     0
102
RTVSPost2010Prop57
140
1.0
102
RTVSPost2010PropOp57
 70
     0
  0
XRECORD
  5
1CA
102
{ACAD_REACTORS
330
1C9
102
}
330
1C9
100
AcDbXrecord
280
     1
102
RTVSPost2010Prop28
280
     0
102
RTVSPost2010PropOp28
 70
     1
102
RTVSPost2010Prop29
280
     1
102
RTVSPost2010PropOp29
 70
     1
102
RTVSPost2010Prop30
280
     1
102
RTVSPost2010PropOp30
 70
     1
102
RTVSPost2010Prop31
280
     0
102
RTVSPost2010PropOp31
 70
     1
102
RTVSPost2010Prop32
280
     0
102
RTVSPost2010PropOp32
 70
     1
102
RTVSPost2010Prop33
280
     0
102
RTVSPost2010PropOp33
 70
     1
102
RTVSPost2010Prop34
280
     0
102
RTVSPost2010PropOp34
 70
     1
102
RTVSPost2010Prop35
280
     0
102
RTVSPost2010PropOp35
 70
     1
102
RTVSPost2010Prop36
280
     0
102
RTVSPost2010PropOp36
 70
     1
102
RTVSPost2010Prop37
 90
       50
102
RTVSPost2010PropOp37
 70
     1
102
RTVSPost2010Prop38
140
0.0
102
RTVSPost2010PropOp38
 70
     1
102
RTVSPost2010Prop39
140
1.0
102
RTVSPost2010PropOp39
 70
     1
102
RTVSPost2010Prop40
 90
        0
102
RTVSPost2010PropOp40
 70
     1
102
RTVSPost2010Prop41ColorIndex
 90
       18
102
RTVSPost2010Prop41ColorRGB
 90
        0
102
RTVSPost2010PropOp41
 70
     1
102
RTVSPost2010Prop42
 90
       50
102
RTVSPost2010PropOp42
 70
     1
102
RTVSPost2010Prop43
 90
        3
102
RTVSPost2010PropOp43
 70
     1
102
RTVSPost2010Prop44ColorIndex
 90
        5
102
RTVSPost2010Prop44ColorRGB
 90
      255
102
RTVSPost2010PropOp44
 70
     1
102
RTVSPost2010Prop45
280
     0
102
RTVSPost2010PropOp45
 70
     1
102
RTVSPost2010Prop46
 90
       50
102
RTVSPost2010PropOp46
 70
     1
102
RTVSPost2010Prop47
 90
       50
102
RTVSPost2010PropOp47
 70
     1
102
RTVSPost2010Prop48
 90
       50
102
RTVSPost2010PropOp48
 70
     1
102
RTVSPost2010Prop49
280
     0
102
RTVSPost2010PropOp49
 70
     1
102
RTVSPost2010Prop50
 90
       50
102
RTVSPost2010PropOp50
 70
     1
102
RTVSPost2010Prop51ColorIndex
 90
      256
102
RTVSPost2010Prop51ColorRGB
 90
-16777216
102
RTVSPost2010PropOp51
 70
     0
102
RTVSPost2010Prop52
140
1.0
102
RTVSPost2010PropOp52
 70
     0
102
RTVSPost2010Prop53
 90
        2
102
RTVSPost2010PropOp53
 70
     1
102
RTVSPost2010Prop54
  1
strokes_ogs.tif
102
RTVSPost2010PropOp54
 70
     1
102
RTVSPost2010Prop55
280
     0
102
RTVSPost2010PropOp55
 70
     1
102
RTVSPost2010Prop56
140
1.0
102
RTVSPost2010PropOp56
 70
     1
102
RTVSPost2010Prop57
140
1.0
102
RTVSPost2010PropOp57
 70
     1
  0
XRECORD
  5
1E0
102
{ACAD_REACTORS
330
1DF
102
}
330
1DF
100
AcDbXrecord
280
     1
102
RTVSPost2010Prop28
280
     0
102
RTVSPost2010PropOp28
 70
     1
102
RTVSPost2010Prop29
280
     1
102
RTVSPost2010PropOp29
 70
     1
102
RTVSPost2010Prop30
280
     1
102
RTVSPost2010PropOp30
 70
     1
102
RTVSPost2010Prop31
280
     0
102
RTVSPost2010PropOp31
 70
     1
102
RTVSPost2010Prop32
280
     0
102
RTVSPost2010PropOp32
 70
     1
102
RTVSPost2010Prop33
280
     0
102
RTVSPost2010PropOp33
 70
     1
102
RTVSPost2010Prop34
280
     0
102
RTVSPost2010PropOp34
 70
     1
102
RTVSPost2010Prop35
280
     0
102
RTVSPost2010PropOp35
 70
     1
102
RTVSPost2010Prop36
280
     0
102
RTVSPost2010PropOp36
 70
     1
102
RTVSPost2010Prop37
 90
       50
102
RTVSPost2010PropOp37
 70
     1
102
RTVSPost2010Prop38
140
0.0
102
RTVSPost2010PropOp38
 70
     1
102
RTVSPost2010Prop39
140
1.0
102
RTVSPost2010PropOp39
 70
     1
102
RTVSPost2010Prop40
 90
        0
102
RTVSPost2010PropOp40
 70
     1
102
RTVSPost2010Prop41ColorIndex
 90
       18
102
RTVSPost2010Prop41ColorRGB
 90
        0
102
RTVSPost2010PropOp41
 70
     1
102
RTVSPost2010Prop42
 90
       50
102
RTVSPost2010PropOp42
 70
     1
102
RTVSPost2010Prop43
 90
        3
102
RTVSPost2010PropOp43
 70
     1
102
RTVSPost2010Prop44ColorIndex
 90
        5
102
RTVSPost2010Prop44ColorRGB
 90
      255
102
RTVSPost2010PropOp44
 70
     1
102
RTVSPost2010Prop45
280
     0
102
RTVSPost2010PropOp45
 70
     1
102
RTVSPost2010Prop46
 90
       50
102
RTVSPost2010PropOp46
 70
     1
102
RTVSPost2010Prop47
 90
       50
102
RTVSPost2010PropOp47
 70
     1
102
RTVSPost2010Prop48
 90
       50
102
RTVSPost2010PropOp48
 70
     1
102
RTVSPost2010Prop49
280
     0
102
RTVSPost2010PropOp49
 70
     1
102
RTVSPost2010Prop50
 90
       50
102
RTVSPost2010PropOp50
 70
     1
102
RTVSPost2010Prop51ColorIndex
 90
      256
102
RTVSPost2010Prop51ColorRGB
 90
-16777216
102
RTVSPost2010PropOp51
 70
     0
102
RTVSPost2010Prop52
140
1.0
102
RTVSPost2010PropOp52
 70
     0
102
RTVSPost2010Prop53
 90
        2
102
RTVSPost2010PropOp53
 70
     1
102
RTVSPost2010Prop54
  1
strokes_ogs.tif
102
RTVSPost2010PropOp54
 70
     1
102
RTVSPost2010Prop55
280
     0
102
RTVSPost2010PropOp55
 70
     1
102
RTVSPost2010Prop56
140
1.0
102
RTVSPost2010PropOp56
 70
     1
102
RTVSPost2010Prop57
140
1.0
102
RTVSPost2010PropOp57
 70
     1
  0
XRECORD
  5
1DE
102
{ACAD_REACTORS
330
1DD
102
}
330
1DD
100
AcDbXrecord
280
     1
102
RTVSPost2010Prop28
280
     0
102
RTVSPost2010PropOp28
 70
     1
102
RTVSPost2010Prop29
280
     1
102
RTVSPost2010PropOp29
 70
     1
102
RTVSPost2010Prop30
280
     1
102
RTVSPost2010PropOp30
 70
     1
102
RTVSPost2010Prop31
280
     0
102
RTVSPost2010PropOp31
 70
     1
102
RTVSPost2010Prop32
280
     0
102
RTVSPost2010PropOp32
 70
     1
102
RTVSPost2010Prop33
280
     0
102
RTVSPost2010PropOp33
 70
     1
102
RTVSPost2010Prop34
280
     0
102
RTVSPost2010PropOp34
 70
     1
102
RTVSPost2010Prop35
280
     0
102
RTVSPost2010PropOp35
 70
     1
102
RTVSPost2010Prop36
280
     0
102
RTVSPost2010PropOp36
 70
     1
102
RTVSPost2010Prop37
 90
       50
102
RTVSPost2010PropOp37
 70
     1
102
RTVSPost2010Prop38
140
0.0
102
RTVSPost2010PropOp38
 70
     1
102
RTVSPost2010Prop39
140
1.0
102
RTVSPost2010PropOp39
 70
     1
102
RTVSPost2010Prop40
 90
        0
102
RTVSPost2010PropOp40
 70
     1
102
RTVSPost2010Prop41ColorIndex
 90
       18
102
RTVSPost2010Prop41ColorRGB
 90
        0
102
RTVSPost2010PropOp41
 70
     1
102
RTVSPost2010Prop42
 90
       50
102
RTVSPost2010PropOp42
 70
     1
102
RTVSPost2010Prop43
 90
        3
102
RTVSPost2010PropOp43
 70
     1
102
RTVSPost2010Prop44ColorIndex
 90
        5
102
RTVSPost2010Prop44ColorRGB
 90
      255
102
RTVSPost2010PropOp44
 70
     1
102
RTVSPost2010Prop45
280
     0
102
RTVSPost2010PropOp45
 70
     1
102
RTVSPost2010Prop46
 90
       50
102
RTVSPost2010PropOp46
 70
     1
102
RTVSPost2010Prop47
 90
       50
102
RTVSPost2010PropOp47
 70
     1
102
RTVSPost2010Prop48
 90
       50
102
RTVSPost2010PropOp48
 70
     1
102
RTVSPost2010Prop49
280
     0
102
RTVSPost2010PropOp49
 70
     1
102
RTVSPost2010Prop50
 90
       50
102
RTVSPost2010PropOp50
 70
     1
102
RTVSPost2010Prop51ColorIndex
 90
      256
102
RTVSPost2010Prop51ColorRGB
 90
-16777216
102
RTVSPost2010PropOp51
 70
     0
102
RTVSPost2010Prop52
140
1.0
102
RTVSPost2010PropOp52
 70
     0
102
RTVSPost2010Prop53
 90
        2
102
RTVSPost2010PropOp53
 70
     1
102
RTVSPost2010Prop54
  1
strokes_ogs.tif
102
RTVSPost2010PropOp54
 70
     1
102
RTVSPost2010Prop55
280
     0
102
RTVSPost2010PropOp55
 70
     1
102
RTVSPost2010Prop56
140
1.0
102
RTVSPost2010PropOp56
 70
     1
102
RTVSPost2010Prop57
140
1.0
102
RTVSPost2010PropOp57
 70
     1
  0
XRECORD
  5
1D8
102
{ACAD_REACTORS
330
1D7
102
}
330
1D7
100
AcDbXrecord
280
     1
102
RTVSPost2010Prop28
280
     0
102
RTVSPost2010PropOp28
 70
     1
102
RTVSPost2010Prop29
280
     1
102
RTVSPost2010PropOp29
 70
     1
102
RTVSPost2010Prop30
280
     1
102
RTVSPost2010PropOp30
 70
     1
102
RTVSPost2010Prop31
280
     0
102
RTVSPost2010PropOp31
 70
     1
102
RTVSPost2010Prop32
280
     0
102
RTVSPost2010PropOp32
 70
     1
102
RTVSPost2010Prop33
280
     0
102
RTVSPost2010PropOp33
 70
     1
102
RTVSPost2010Prop34
280
     0
102
RTVSPost2010PropOp34
 70
     1
102
RTVSPost2010Prop35
280
     0
102
RTVSPost2010PropOp35
 70
     1
102
RTVSPost2010Prop36
280
     0
102
RTVSPost2010PropOp36
 70
     1
102
RTVSPost2010Prop37
 90
       50
102
RTVSPost2010PropOp37
 70
     1
102
RTVSPost2010Prop38
140
0.0
102
RTVSPost2010PropOp38
 70
     1
102
RTVSPost2010Prop39
140
1.0
102
RTVSPost2010PropOp39
 70
     1
102
RTVSPost2010Prop40
 90
        0
102
RTVSPost2010PropOp40
 70
     1
102
RTVSPost2010Prop41ColorIndex
 90
       18
102
RTVSPost2010Prop41ColorRGB
 90
        0
102
RTVSPost2010PropOp41
 70
     1
102
RTVSPost2010Prop42
 90
       50
102
RTVSPost2010PropOp42
 70
     1
102
RTVSPost2010Prop43
 90
        3
102
RTVSPost2010PropOp43
 70
     1
102
RTVSPost2010Prop44ColorIndex
 90
        5
102
RTVSPost2010Prop44ColorRGB
 90
      255
102
RTVSPost2010PropOp44
 70
     1
102
RTVSPost2010Prop45
280
     0
102
RTVSPost2010PropOp45
 70
     1
102
RTVSPost2010Prop46
 90
       50
102
RTVSPost2010PropOp46
 70
     1
102
RTVSPost2010Prop47
 90
       50
102
RTVSPost2010PropOp47
 70
     1
102
RTVSPost2010Prop48
 90
       50
102
RTVSPost2010PropOp48
 70
     1
102
RTVSPost2010Prop49
280
     0
102
RTVSPost2010PropOp49
 70
     1
102
RTVSPost2010Prop50
 90
       50
102
RTVSPost2010PropOp50
 70
     1
102
RTVSPost2010Prop51ColorIndex
 90
      256
102
RTVSPost2010Prop51ColorRGB
 90
-16777216
102
RTVSPost2010PropOp51
 70
     0
102
RTVSPost2010Prop52
140
1.0
102
RTVSPost2010PropOp52
 70
     0
102
RTVSPost2010Prop53
 90
        2
102
RTVSPost2010PropOp53
 70
     1
102
RTVSPost2010Prop54
  1
strokes_ogs.tif
102
RTVSPost2010PropOp54
 70
     1
102
RTVSPost2010Prop55
280
     0
102
RTVSPost2010PropOp55
 70
     1
102
RTVSPost2010Prop56
140
1.0
102
RTVSPost2010PropOp56
 70
     1
102
RTVSPost2010Prop57
140
1.0
102
RTVSPost2010PropOp57
 70
     1
  0
XRECORD
  5
1DA
102
{ACAD_REACTORS
330
1D9
102
}
330
1D9
100
AcDbXrecord
280
     1
102
RTVSPost2010Prop28
280
     0
102
RTVSPost2010PropOp28
 70
     1
102
RTVSPost2010Prop29
280
     1
102
RTVSPost2010PropOp29
 70
     1
102
RTVSPost2010Prop30
280
     1
102
RTVSPost2010PropOp30
 70
     1
102
RTVSPost2010Prop31
280
     0
102
RTVSPost2010PropOp31
 70
     1
102
RTVSPost2010Prop32
280
     0
102
RTVSPost2010PropOp32
 70
     1
102
RTVSPost2010Prop33
280
     0
102
RTVSPost2010PropOp33
 70
     1
102
RTVSPost2010Prop34
280
     0
102
RTVSPost2010PropOp34
 70
     1
102
RTVSPost2010Prop35
280
     0
102
RTVSPost2010PropOp35
 70
     1
102
RTVSPost2010Prop36
280
     0
102
RTVSPost2010PropOp36
 70
     1
102
RTVSPost2010Prop37
 90
       50
102
RTVSPost2010PropOp37
 70
     1
102
RTVSPost2010Prop38
140
0.0
102
RTVSPost2010PropOp38
 70
     1
102
RTVSPost2010Prop39
140
1.0
102
RTVSPost2010PropOp39
 70
     1
102
RTVSPost2010Prop40
 90
        0
102
RTVSPost2010PropOp40
 70
     1
102
RTVSPost2010Prop41ColorIndex
 90
       18
102
RTVSPost2010Prop41ColorRGB
 90
        0
102
RTVSPost2010PropOp41
 70
     1
102
RTVSPost2010Prop42
 90
       50
102
RTVSPost2010PropOp42
 70
     1
102
RTVSPost2010Prop43
 90
        3
102
RTVSPost2010PropOp43
 70
     1
102
RTVSPost2010Prop44ColorIndex
 90
        5
102
RTVSPost2010Prop44ColorRGB
 90
      255
102
RTVSPost2010PropOp44
 70
     1
102
RTVSPost2010Prop45
280
     0
102
RTVSPost2010PropOp45
 70
     1
102
RTVSPost2010Prop46
 90
       50
102
RTVSPost2010PropOp46
 70
     1
102
RTVSPost2010Prop47
 90
       50
102
RTVSPost2010PropOp47
 70
     1
102
RTVSPost2010Prop48
 90
       50
102
RTVSPost2010PropOp48
 70
     1
102
RTVSPost2010Prop49
280
     0
102
RTVSPost2010PropOp49
 70
     1
102
RTVSPost2010Prop50
 90
       50
102
RTVSPost2010PropOp50
 70
     1
102
RTVSPost2010Prop51ColorIndex
 90
      256
102
RTVSPost2010Prop51ColorRGB
 90
-16777216
102
RTVSPost2010PropOp51
 70
     0
102
RTVSPost2010Prop52
140
1.0
102
RTVSPost2010PropOp52
 70
     0
102
RTVSPost2010Prop53
 90
        2
102
RTVSPost2010PropOp53
 70
     1
102
RTVSPost2010Prop54
  1
strokes_ogs.tif
102
RTVSPost2010PropOp54
 70
     1
102
RTVSPost2010Prop55
280
     0
102
RTVSPost2010PropOp55
 70
     1
102
RTVSPost2010Prop56
140
1.0
102
RTVSPost2010PropOp56
 70
     1
102
RTVSPost2010Prop57
140
1.0
102
RTVSPost2010PropOp57
 70
     1
  0
XRECORD
  5
1D0
102
{ACAD_REACTORS
330
1CF
102
}
330
1CF
100
AcDbXrecord
280
     1
102
RTVSPost2010Prop28
280
     0
102
RTVSPost2010PropOp28
 70
     1
102
RTVSPost2010Prop29
280
     1
102
RTVSPost2010PropOp29
 70
     1
102
RTVSPost2010Prop30
280
     1
102
RTVSPost2010PropOp30
 70
     1
102
RTVSPost2010Prop31
280
     0
102
RTVSPost2010PropOp31
 70
     1
102
RTVSPost2010Prop32
280
     0
102
RTVSPost2010PropOp32
 70
     1
102
RTVSPost2010Prop33
280
     0
102
RTVSPost2010PropOp33
 70
     1
102
RTVSPost2010Prop34
280
     0
102
RTVSPost2010PropOp34
 70
     1
102
RTVSPost2010Prop35
280
     0
102
RTVSPost2010PropOp35
 70
     1
102
RTVSPost2010Prop36
280
     0
102
RTVSPost2010PropOp36
 70
     1
102
RTVSPost2010Prop37
 90
       50
102
RTVSPost2010PropOp37
 70
     1
102
RTVSPost2010Prop38
140
0.0
102
RTVSPost2010PropOp38
 70
     1
102
RTVSPost2010Prop39
140
1.0
102
RTVSPost2010PropOp39
 70
     1
102
RTVSPost2010Prop40
 90
        0
102
RTVSPost2010PropOp40
 70
     1
102
RTVSPost2010Prop41ColorIndex
 90
       18
102
RTVSPost2010Prop41ColorRGB
 90
        0
102
RTVSPost2010PropOp41
 70
     1
102
RTVSPost2010Prop42
 90
       50
102
RTVSPost2010PropOp42
 70
     1
102
RTVSPost2010Prop43
 90
        3
102
RTVSPost2010PropOp43
 70
     1
102
RTVSPost2010Prop44ColorIndex
 90
        5
102
RTVSPost2010Prop44ColorRGB
 90
      255
102
RTVSPost2010PropOp44
 70
     1
102
RTVSPost2010Prop45
280
     0
102
RTVSPost2010PropOp45
 70
     1
102
RTVSPost2010Prop46
 90
       50
102
RTVSPost2010PropOp46
 70
     1
102
RTVSPost2010Prop47
 90
       50
102
RTVSPost2010PropOp47
 70
     1
102
RTVSPost2010Prop48
 90
       50
102
RTVSPost2010PropOp48
 70
     1
102
RTVSPost2010Prop49
280
     0
102
RTVSPost2010PropOp49
 70
     1
102
RTVSPost2010Prop50
 90
       50
102
RTVSPost2010PropOp50
 70
     1
102
RTVSPost2010Prop51ColorIndex
 90
      256
102
RTVSPost2010Prop51ColorRGB
 90
-16777216
102
RTVSPost2010PropOp51
 70
     0
102
RTVSPost2010Prop52
140
1.0
102
RTVSPost2010PropOp52
 70
     0
102
RTVSPost2010Prop53
 90
        2
102
RTVSPost2010PropOp53
 70
     1
102
RTVSPost2010Prop54
  1
strokes_ogs.tif
102
RTVSPost2010PropOp54
 70
     1
102
RTVSPost2010Prop55
280
     0
102
RTVSPost2010PropOp55
 70
     1
102
RTVSPost2010Prop56
140
1.0
102
RTVSPost2010PropOp56
 70
     1
102
RTVSPost2010Prop57
140
1.0
102
RTVSPost2010PropOp57
 70
     1
  0
XRECORD
  5
1C4
102
{ACAD_REACTORS
330
1C3
102
}
330
1C3
100
AcDbXrecord
280
     1
102
RTVSPost2010Prop28
280
     0
102
RTVSPost2010PropOp28
 70
     1
102
RTVSPost2010Prop29
280
     1
102
RTVSPost2010PropOp29
 70
     1
102
RTVSPost2010Prop30
280
     1
102
RTVSPost2010PropOp30
 70
     1
102
RTVSPost2010Prop31
280
     0
102
RTVSPost2010PropOp31
 70
     1
102
RTVSPost2010Prop32
280
     0
102
RTVSPost2010PropOp32
 70
     1
102
RTVSPost2010Prop33
280
     0
102
RTVSPost2010PropOp33
 70
     1
102
RTVSPost2010Prop34
280
     0
102
RTVSPost2010PropOp34
 70
     1
102
RTVSPost2010Prop35
280
     0
102
RTVSPost2010PropOp35
 70
     1
102
RTVSPost2010Prop36
280
     0
102
RTVSPost2010PropOp36
 70
     1
102
RTVSPost2010Prop37
 90
       50
102
RTVSPost2010PropOp37
 70
     1
102
RTVSPost2010Prop38
140
0.0
102
RTVSPost2010PropOp38
 70
     1
102
RTVSPost2010Prop39
140
1.0
102
RTVSPost2010PropOp39
 70
     1
102
RTVSPost2010Prop40
 90
        0
102
RTVSPost2010PropOp40
 70
     1
102
RTVSPost2010Prop41ColorIndex
 90
       18
102
RTVSPost2010Prop41ColorRGB
 90
        0
102
RTVSPost2010PropOp41
 70
     1
102
RTVSPost2010Prop42
 90
       50
102
RTVSPost2010PropOp42
 70
     1
102
RTVSPost2010Prop43
 90
        3
102
RTVSPost2010PropOp43
 70
     1
102
RTVSPost2010Prop44ColorIndex
 90
        5
102
RTVSPost2010Prop44ColorRGB
 90
      255
102
RTVSPost2010PropOp44
 70
     1
102
RTVSPost2010Prop45
280
     0
102
RTVSPost2010PropOp45
 70
     1
102
RTVSPost2010Prop46
 90
       50
102
RTVSPost2010PropOp46
 70
     1
102
RTVSPost2010Prop47
 90
       50
102
RTVSPost2010PropOp47
 70
     1
102
RTVSPost2010Prop48
 90
       50
102
RTVSPost2010PropOp48
 70
     1
102
RTVSPost2010Prop49
280
     0
102
RTVSPost2010PropOp49
 70
     1
102
RTVSPost2010Prop50
 90
       50
102
RTVSPost2010PropOp50
 70
     1
102
RTVSPost2010Prop51ColorIndex
 90
      256
102
RTVSPost2010Prop51ColorRGB
 90
-16777216
102
RTVSPost2010PropOp51
 70
     0
102
RTVSPost2010Prop52
140
1.0
102
RTVSPost2010PropOp52
 70
     0
102
RTVSPost2010Prop53
 90
        2
102
RTVSPost2010PropOp53
 70
     1
102
RTVSPost2010Prop54
  1
strokes_ogs.tif
102
RTVSPost2010PropOp54
 70
     1
102
RTVSPost2010Prop55
280
     0
102
RTVSPost2010PropOp55
 70
     1
102
RTVSPost2010Prop56
140
1.0
102
RTVSPost2010PropOp56
 70
     1
102
RTVSPost2010Prop57
140
1.0
102
RTVSPost2010PropOp57
 70
     1
  0
XRECORD
  5
1DC
102
{ACAD_REACTORS
330
1DB
102
}
330
1DB
100
AcDbXrecord
280
     1
102
RTVSPost2010Prop28
280
     0
102
RTVSPost2010PropOp28
 70
     1
102
RTVSPost2010Prop29
280
     1
102
RTVSPost2010PropOp29
 70
     1
102
RTVSPost2010Prop30
280
     1
102
RTVSPost2010PropOp30
 70
     1
102
RTVSPost2010Prop31
280
     0
102
RTVSPost2010PropOp31
 70
     1
102
RTVSPost2010Prop32
280
     0
102
RTVSPost2010PropOp32
 70
     1
102
RTVSPost2010Prop33
280
     0
102
RTVSPost2010PropOp33
 70
     1
102
RTVSPost2010Prop34
280
     0
102
RTVSPost2010PropOp34
 70
     1
102
RTVSPost2010Prop35
280
     0
102
RTVSPost2010PropOp35
 70
     1
102
RTVSPost2010Prop36
280
     0
102
RTVSPost2010PropOp36
 70
     1
102
RTVSPost2010Prop37
 90
       50
102
RTVSPost2010PropOp37
 70
     1
102
RTVSPost2010Prop38
140
0.0
102
RTVSPost2010PropOp38
 70
     1
102
RTVSPost2010Prop39
140
1.0
102
RTVSPost2010PropOp39
 70
     1
102
RTVSPost2010Prop40
 90
        0
102
RTVSPost2010PropOp40
 70
     1
102
RTVSPost2010Prop41ColorIndex
 90
       18
102
RTVSPost2010Prop41ColorRGB
 90
        0
102
RTVSPost2010PropOp41
 70
     1
102
RTVSPost2010Prop42
 90
       50
102
RTVSPost2010PropOp42
 70
     1
102
RTVSPost2010Prop43
 90
        3
102
RTVSPost2010PropOp43
 70
     1
102
RTVSPost2010Prop44ColorIndex
 90
        5
102
RTVSPost2010Prop44ColorRGB
 90
      255
102
RTVSPost2010PropOp44
 70
     1
102
RTVSPost2010Prop45
280
     0
102
RTVSPost2010PropOp45
 70
     1
102
RTVSPost2010Prop46
 90
       50
102
RTVSPost2010PropOp46
 70
     1
102
RTVSPost2010Prop47
 90
       50
102
RTVSPost2010PropOp47
 70
     1
102
RTVSPost2010Prop48
 90
       50
102
RTVSPost2010PropOp48
 70
     1
102
RTVSPost2010Prop49
280
     0
102
RTVSPost2010PropOp49
 70
     1
102
RTVSPost2010Prop50
 90
       50
102
RTVSPost2010PropOp50
 70
     1
102
RTVSPost2010Prop51ColorIndex
 90
      256
102
RTVSPost2010Prop51ColorRGB
 90
-16777216
102
RTVSPost2010PropOp51
 70
     0
102
RTVSPost2010Prop52
140
1.0
102
RTVSPost2010PropOp52
 70
     0
102
RTVSPost2010Prop53
 90
        2
102
RTVSPost2010PropOp53
 70
     1
102
RTVSPost2010Prop54
  1
strokes_ogs.tif
102
RTVSPost2010PropOp54
 70
     1
102
RTVSPost2010Prop55
280
     0
102
RTVSPost2010PropOp55
 70
     1
102
RTVSPost2010Prop56
140
1.0
102
RTVSPost2010PropOp56
 70
     1
102
RTVSPost2010Prop57
140
1.0
102
RTVSPost2010PropOp57
 70
     1
  0
ENDSEC
  0
EOF
