  0
SECTION
  2
HEADER
  9
$ACADVER
  1
AC1024
  9
$ACADMAINTVER
 70
   205
  9
$DWGCODEPAGE
  3
ANSI_1251
  9
$INSBASE
 10
0.0
 20
0.0
 30
0.0
  9
$EXTMIN
 10
1.000000000000000E+20
 20
1.000000000000000E+20
 30
1.000000000000000E+20
  9
$EXTMAX
 10
-1.000000000000000E+20
 20
-1.000000000000000E+20
 30
-1.000000000000000E+20
  9
$LIMMIN
 10
0.0
 20
0.0
  9
$LIMMAX
 10
12.0
 20
9.0
  9
$ORTHOMODE
 70
     0
  9
$REGENMODE
 70
     1
  9
$FILLMODE
 70
     1
  9
$QTEXTMODE
 70
     0
  9
$MIRRTEXT
 70
     1
  9
$LTSCALE
 40
1.0
  9
$ATTMODE
 70
     1
  9
$TEXTSIZE
 40
0.2
  9
$TRACEWID
 40
0.05
  9
$TEXTSTYLE
  7
Standard
  9
$CLAYER
  8
OracDecor_cornice_mouldings
  9
$CELTYPE
  6
ByLayer
  9
$CECOLOR
 62
   256
  9
$CELTSCALE
 40
1.0
  9
$DISPSILH
 70
     0
  9
$DIMSCALE
 40
1.0
  9
$DIMASZ
 40
0.18
  9
$DIMEXO
 40
0.0625
  9
$DIMDLI
 40
0.38
  9
$DIMRND
 40
0.0
  9
$DIMDLE
 40
0.0
  9
$DIMEXE
 40
0.18
  9
$DIMTP
 40
0.0
  9
$DIMTM
 40
0.0
  9
$DIMTXT
 40
0.18
  9
$DIMCEN
 40
0.09
  9
$DIMTSZ
 40
0.0
  9
$DIMTOL
 70
     0
  9
$DIMLIM
 70
     0
  9
$DIMTIH
 70
     1
  9
$DIMTOH
 70
     1
  9
$DIMSE1
 70
     0
  9
$DIMSE2
 70
     0
  9
$DIMTAD
 70
     0
  9
$DIMZIN
 70
     0
  9
$DIMBLK
  1

  9
$DIMASO
 70
     1
  9
$DIMSHO
 70
     1
  9
$DIMPOST
  1

  9
$DIMAPOST
  1

  9
$DIMALT
 70
     0
  9
$DIMALTD
 70
     2
  9
$DIMALTF
 40
25.4
  9
$DIMLFAC
 40
1.0
  9
$DIMTOFL
 70
     0
  9
$DIMTVP
 40
0.0
  9
$DIMTIX
 70
     0
  9
$DIMSOXD
 70
     0
  9
$DIMSAH
 70
     0
  9
$DIMBLK1
  1

  9
$DIMBLK2
  1

  9
$DIMSTYLE
  2
Standard
  9
$DIMCLRD
 70
     0
  9
$DIMCLRE
 70
     0
  9
$DIMCLRT
 70
     0
  9
$DIMTFAC
 40
1.0
  9
$DIMGAP
 40
0.09
  9
$DIMJUST
 70
     0
  9
$DIMSD1
 70
     0
  9
$DIMSD2
 70
     0
  9
$DIMTOLJ
 70
     1
  9
$DIMTZIN
 70
     0
  9
$DIMALTZ
 70
     0
  9
$DIMALTTZ
 70
     0
  9
$DIMUPT
 70
     0
  9
$DIMDEC
 70
     4
  9
$DIMTDEC
 70
     4
  9
$DIMALTU
 70
     2
  9
$DIMALTTD
 70
     2
  9
$DIMTXSTY
  7
Standard
  9
$DIMAUNIT
 70
     0
  9
$DIMADEC
 70
     0
  9
$DIMALTRND
 40
0.0
  9
$DIMAZIN
 70
     0
  9
$DIMDSEP
 70
    46
  9
$DIMATFIT
 70
     3
  9
$DIMFRAC
 70
     0
  9
$DIMLDRBLK
  1

  9
$DIMLUNIT
 70
     2
  9
$DIMLWD
 70
    -2
  9
$DIMLWE
 70
    -2
  9
$DIMTMOVE
 70
     0
  9
$DIMFXL
 40
1.0
  9
$DIMFXLON
 70
     0
  9
$DIMJOGANG
 40
0.7853981633974483
  9
$DIMTFILL
 70
     0
  9
$DIMTFILLCLR
 70
     0
  9
$DIMARCSYM
 70
     0
  9
$DIMLTYPE
  6

  9
$DIMLTEX1
  6

  9
$DIMLTEX2
  6

  9
$DIMTXTDIRECTION
 70
     0
  9
$LUNITS
 70
     2
  9
$LUPREC
 70
     4
  9
$SKETCHINC
 40
0.1
  9
$FILLETRAD
 40
0.5
  9
$AUNITS
 70
     0
  9
$AUPREC
 70
     0
  9
$MENU
  1
.
  9
$ELEVATION
 40
0.0
  9
$PELEVATION
 40
0.0
  9
$THICKNESS
 40
0.0
  9
$LIMCHECK
 70
     0
  9
$CHAMFERA
 40
0.5
  9
$CHAMFERB
 40
0.5
  9
$CHAMFERC
 40
1.0
  9
$CHAMFERD
 40
0.0
  9
$SKPOLY
 70
     0
  9
$TDCREATE
 40
2451380.930432396
  9
$TDUCREATE
 40
2451380.805432396
  9
$TDUPDATE
 40
2451380.966180555
  9
$TDUUPDATE
 40
2451380.841180556
  9
$TDINDWG
 40
0.0075653125
  9
$TDUSRTIMER
 40
0.0075562731
  9
$USRTIMER
 70
     1
  9
$ANGBASE
 50
0.0
  9
$ANGDIR
 70
     0
  9
$PDMODE
 70
     0
  9
$PDSIZE
 40
0.0
  9
$PLINEWID
 40
0.0
  9
$SPLFRAME
 70
     0
  9
$SPLINETYPE
 70
     6
  9
$SPLINESEGS
 70
     8
  9
$HANDSEED
  5
1AE
  9
$SURFTAB1
 70
     6
  9
$SURFTAB2
 70
     6
  9
$SURFTYPE
 70
     6
  9
$SURFU
 70
     6
  9
$SURFV
 70
     6
  9
$UCSBASE
  2

  9
$UCSNAME
  2

  9
$UCSORG
 10
0.0
 20
0.0
 30
0.0
  9
$UCSXDIR
 10
1.0
 20
0.0
 30
0.0
  9
$UCSYDIR
 10
0.0
 20
1.0
 30
0.0
  9
$UCSORTHOREF
  2

  9
$UCSORTHOVIEW
 70
     0
  9
$UCSORGTOP
 10
0.0
 20
0.0
 30
0.0
  9
$UCSORGBOTTOM
 10
0.0
 20
0.0
 30
0.0
  9
$UCSORGLEFT
 10
0.0
 20
0.0
 30
0.0
  9
$UCSORGRIGHT
 10
0.0
 20
0.0
 30
0.0
  9
$UCSORGFRONT
 10
0.0
 20
0.0
 30
0.0
  9
$UCSORGBACK
 10
0.0
 20
0.0
 30
0.0
  9
$PUCSBASE
  2

  9
$PUCSNAME
  2

  9
$PUCSORG
 10
0.0
 20
0.0
 30
0.0
  9
$PUCSXDIR
 10
1.0
 20
0.0
 30
0.0
  9
$PUCSYDIR
 10
0.0
 20
1.0
 30
0.0
  9
$PUCSORTHOREF
  2

  9
$PUCSORTHOVIEW
 70
     0
  9
$PUCSORGTOP
 10
0.0
 20
0.0
 30
0.0
  9
$PUCSORGBOTTOM
 10
0.0
 20
0.0
 30
0.0
  9
$PUCSORGLEFT
 10
0.0
 20
0.0
 30
0.0
  9
$PUCSORGRIGHT
 10
0.0
 20
0.0
 30
0.0
  9
$PUCSORGFRONT
 10
0.0
 20
0.0
 30
0.0
  9
$PUCSORGBACK
 10
0.0
 20
0.0
 30
0.0
  9
$USERI1
 70
     0
  9
$USERI2
 70
     0
  9
$USERI3
 70
     0
  9
$USERI4
 70
     0
  9
$USERI5
 70
     0
  9
$USERR1
 40
0.0
  9
$USERR2
 40
0.0
  9
$USERR3
 40
0.0
  9
$USERR4
 40
0.0
  9
$USERR5
 40
0.0
  9
$WORLDVIEW
 70
     1
  9
$SHADEDGE
 70
     3
  9
$SHADEDIF
 70
    70
  9
$TILEMODE
 70
     1
  9
$MAXACTVP
 70
    64
  9
$PINSBASE
 10
0.0
 20
0.0
 30
0.0
  9
$PLIMCHECK
 70
     0
  9
$PEXTMIN
 10
1.000000000000000E+20
 20
1.000000000000000E+20
 30
1.000000000000000E+20
  9
$PEXTMAX
 10
-1.000000000000000E+20
 20
-1.000000000000000E+20
 30
-1.000000000000000E+20
  9
$PLIMMIN
 10
0.0
 20
0.0
  9
$PLIMMAX
 10
12.0
 20
9.0
  9
$UNITMODE
 70
     0
  9
$VISRETAIN
 70
     1
  9
$PLINEGEN
 70
     0
  9
$PSLTSCALE
 70
     1
  9
$TREEDEPTH
 70
  3020
  9
$CMLSTYLE
  2
Standard
  9
$CMLJUST
 70
     0
  9
$CMLSCALE
 40
1.0
  9
$PROXYGRAPHICS
 70
     1
  9
$MEASUREMENT
 70
     1
  9
$CELWEIGHT
370
    -1
  9
$ENDCAPS
280
     0
  9
$JOINSTYLE
280
     0
  9
$LWDISPLAY
290
     0
  9
$INSUNITS
 70
     4
  9
$HYPERLINKBASE
  1

  9
$STYLESHEET
  1

  9
$XEDIT
290
     1
  9
$CEPSNTYPE
380
     0
  9
$PSTYLEMODE
290
     1
  9
$FINGERPRINTGUID
  2
{12F50282-3ED8-11D3-A8B7-0060B0F84BC6}
  9
$VERSIONGUID
  2
{12F50293-3ED8-11D3-A8B7-0060B0F84BC6}
  9
$EXTNAMES
290
     1
  9
$PSVPSCALE
 40
0.0
  9
$OLESTARTUP
290
     0
  9
$SORTENTS
280
   127
  9
$INDEXCTL
280
     0
  9
$HIDETEXT
280
     0
  9
$XCLIPFRAME
280
     2
  9
$HALOGAP
280
     0
  9
$OBSCOLOR
 70
   257
  9
$OBSLTYPE
280
     0
  9
$INTERSECTIONDISPLAY
280
     0
  9
$INTERSECTIONCOLOR
 70
   257
  9
$DIMASSOC
280
     1
  9
$PROJECTNAME
  1

  9
$CAMERADISPLAY
290
     0
  9
$LENSLENGTH
 40
50.0
  9
$CAMERAHEIGHT
 40
0.0
  9
$STEPSPERSEC
 40
2.0
  9
$STEPSIZE
 40
6.0
  9
$3DDWFPREC
 40
2.0
  9
$PSOLWIDTH
 40
0.25
  9
$PSOLHEIGHT
 40
4.0
  9
$LOFTANG1
 40
1.570796326794896
  9
$LOFTANG2
 40
1.570796326794896
  9
$LOFTMAG1
 40
0.0
  9
$LOFTMAG2
 40
0.0
  9
$LOFTPARAM
 70
     7
  9
$LOFTNORMALS
280
     1
  9
$LATITUDE
 40
37.795
  9
$LONGITUDE
 40
-122.394
  9
$NORTHDIRECTION
 40
0.0
  9
$TIMEZONE
 70
 -8000
  9
$LIGHTGLYPHDISPLAY
280
     1
  9
$TILEMODELIGHTSYNCH
280
     1
  9
$CMATERIAL
347
AB
  9
$SOLIDHIST
280
     0
  9
$SHOWHIST
280
     1
  9
$DWFFRAME
280
     2
  9
$DGNFRAME
280
     0
  9
$REALWORLDSCALE
290
     1
  9
$INTERFERECOLOR
 62
     1
  9
$INTERFEREOBJVS
345
CD
  9
$INTERFEREVPVS
346
CA
  9
$CSHADOW
280
     0
  9
$SHADOWPLANELOCATION
 40
0.0
  0
ENDSEC
  0
SECTION
  2
CLASSES
  0
CLASS
  1
ACDBDICTIONARYWDFLT
  2
AcDbDictionaryWithDefault
  3
ObjectDBX Classes
 90
        0
 91
        1
280
     0
281
     0
  0
CLASS
  1
ACDBPLACEHOLDER
  2
AcDbPlaceHolder
  3
ObjectDBX Classes
 90
        0
 91
        2
280
     0
281
     0
  0
CLASS
  1
LAYOUT
  2
AcDbLayout
  3
ObjectDBX Classes
 90
        0
 91
        3
280
     0
281
     0
  0
CLASS
  1
MATERIAL
  2
AcDbMaterial
  3
ObjectDBX Classes
 90
     1153
 91
        3
280
     0
281
     0
  0
CLASS
  1
VISUALSTYLE
  2
AcDbVisualStyle
  3
ObjectDBX Classes
 90
     4095
 91
       24
280
     0
281
     0
  0
CLASS
  1
TABLESTYLE
  2
AcDbTableStyle
  3
ObjectDBX Classes
 90
     4095
 91
        1
280
     0
281
     0
  0
CLASS
  1
SCALE
  2
AcDbScale
  3
ObjectDBX Classes
 90
     1153
 91
       17
280
     0
281
     0
  0
CLASS
  1
MLEADERSTYLE
  2
AcDbMLeaderStyle
  3
ACDB_MLEADERSTYLE_CLASS
 90
     4095
 91
        1
280
     0
281
     0
  0
CLASS
  1
ACDBSECTIONVIEWSTYLE
  2
AcDbSectionViewStyle
  3
ObjectDBX Classes
 90
     1025
 91
        1
280
     0
281
     0
  0
CLASS
  1
ACDBDETAILVIEWSTYLE
  2
AcDbDetailViewStyle
  3
ObjectDBX Classes
 90
     1025
 91
        1
280
     0
281
     0
  0
CLASS
  1
MESH
  2
AcDbSubDMesh
  3
ObjectDBX Classes
 90
        0
 91
        1
280
     0
281
     1
  0
CLASS
  1
DICTIONARYVAR
  2
AcDbDictionaryVar
  3
ObjectDBX Classes
 90
        0
 91
        9
280
     0
281
     0
  0
CLASS
  1
CELLSTYLEMAP
  2
AcDbCellStyleMap
  3
ObjectDBX Classes
 90
     1152
 91
        1
280
     0
281
     0
  0
ENDSEC
  0
SECTION
  2
TABLES
  0
TABLE
  2
VPORT
  5
8
330
0
100
AcDbSymbolTable
 70
     1
  0
VPORT
  5
A8
330
8
100
AcDbSymbolTableRecord
100
AcDbViewportTableRecord
  2
*Active
 70
     0
 10
0.0
 20
0.0
 11
1.0
 21
1.0
 12
0.0000755271612434
 22
-28.57737731933594
 13
0.0
 23
0.0
 14
0.5
 24
0.5
 15
0.5
 25
0.5
 16
-1.0
 26
-1.0
 36
1.0
 17
0.0
 27
0.0
 37
0.0
 40
1134.999914886739
 41
1.625228261336372
 42
50.0
 43
0.0
 44
0.0
 50
0.0
 51
0.0
 71
     0
 72
   100
 73
     1
 74
     3
 75
     0
 76
     0
 77
     0
 78
     0
281
     0
 65
     1
110
0.0
120
0.0
130
0.0
111
1.0
121
0.0
131
0.0
112
0.0
122
1.0
132
0.0
 79
     0
146
0.0
348
C9
 60
     3
 61
     5
292
     1
282
     1
141
0.0
142
0.0
 63
   250
421
  3355443
  0
ENDTAB
  0
TABLE
  2
LTYPE
  5
5
330
0
100
AcDbSymbolTable
 70
     1
  0
LTYPE
  5
14
330
5
100
AcDbSymbolTableRecord
100
AcDbLinetypeTableRecord
  2
ByBlock
 70
     0
  3

 72
    65
 73
     0
 40
0.0
  0
LTYPE
  5
15
330
5
100
AcDbSymbolTableRecord
100
AcDbLinetypeTableRecord
  2
ByLayer
 70
     0
  3

 72
    65
 73
     0
 40
0.0
  0
LTYPE
  5
16
330
5
100
AcDbSymbolTableRecord
100
AcDbLinetypeTableRecord
  2
Continuous
 70
     0
  3
Solid line
 72
    65
 73
     0
 40
0.0
  0
ENDTAB
  0
TABLE
  2
LAYER
  5
2
330
0
100
AcDbSymbolTable
 70
     3
  0
LAYER
  5
10
330
2
100
AcDbSymbolTableRecord
100
AcDbLayerTableRecord
  2
0
 70
     0
 62
     7
  6
Continuous
370
    -3
390
F
347
BB
  0
LAYER
  5
2B
330
2
100
AcDbSymbolTableRecord
100
AcDbLayerTableRecord
  2
ASHADE
 70
     4
 62
     7
  6
Continuous
370
    -3
390
2D
347
BB
  0
LAYER
  5
F8
330
2
100
AcDbSymbolTableRecord
100
AcDbLayerTableRecord
  2
OracDecor_cornice_mouldings
 70
     0
 62
   111
420
 10085560
  6
Continuous
370
    -3
390
F
347
BB
  0
ENDTAB
  0
TABLE
  2
STYLE
  5
3
330
0
100
AcDbSymbolTable
 70
     2
  0
STYLE
  5
11
330
3
100
AcDbSymbolTableRecord
100
AcDbTextStyleTableRecord
  2
Standard
 70
     0
 40
0.0
 41
1.0
 50
0.0
 71
     0
 42
0.2
  3
txt
  4

  0
STYLE
  5
2C
330
3
100
AcDbSymbolTableRecord
100
AcDbTextStyleTableRecord
  2
ASHADE
 70
     0
 40
0.2
 41
1.0
 50
0.0
 71
     0
 42
0.2
  3
simplex
  4

  0
ENDTAB
  0
TABLE
  2
VIEW
  5
6
330
0
100
AcDbSymbolTable
 70
     0
  0
ENDTAB
  0
TABLE
  2
UCS
  5
7
330
0
100
AcDbSymbolTable
 70
     0
  0
ENDTAB
  0
TABLE
  2
APPID
  5
9
330
0
100
AcDbSymbolTable
 70
     6
  0
APPID
  5
12
330
9
100
AcDbSymbolTableRecord
100
AcDbRegAppTableRecord
  2
ACAD
 70
     0
  0
APPID
  5
8F
330
9
100
AcDbSymbolTableRecord
100
AcDbRegAppTableRecord
  2
AVE_RENDER
 70
     0
  0
APPID
  5
90
330
9
100
AcDbSymbolTableRecord
100
AcDbRegAppTableRecord
  2
AVE_ENTITY_MATERIAL
 70
     0
  0
APPID
  5
9C
330
9
100
AcDbSymbolTableRecord
100
AcDbRegAppTableRecord
  2
AVE_FINISH
 70
     0
  0
APPID
  5
9D
330
9
100
AcDbSymbolTableRecord
100
AcDbRegAppTableRecord
  2
AVE_MATERIAL
 70
     0
  0
APPID
  5
9E
330
9
100
AcDbSymbolTableRecord
100
AcDbRegAppTableRecord
  2
AVE_GLOBAL
 70
     0
  0
ENDTAB
  0
TABLE
  2
DIMSTYLE
  5
A
330
0
100
AcDbSymbolTable
 70
     1
100
AcDbDimStyleTable
 71
     0
  0
DIMSTYLE
105
27
330
A
100
AcDbSymbolTableRecord
100
AcDbDimStyleTableRecord
  2
Standard
 70
     0
340
11
  0
ENDTAB
  0
TABLE
  2
BLOCK_RECORD
  5
1
330
0
100
AcDbSymbolTable
 70
     6
  0
BLOCK_RECORD
  5
1F
330
1
100
AcDbSymbolTableRecord
100
AcDbBlockTableRecord
  2
*Model_Space
340
22
 70
     0
280
     1
281
     0
  0
BLOCK_RECORD
  5
1B
330
1
100
AcDbSymbolTableRecord
100
AcDbBlockTableRecord
  2
*Paper_Space
340
1E
 70
     0
280
     1
281
     0
  0
BLOCK_RECORD
  5
23
330
1
100
AcDbSymbolTableRecord
100
AcDbBlockTableRecord
  2
*Paper_Space0
340
26
 70
     0
280
     1
281
     0
  0
BLOCK_RECORD
  5
2E
330
1
100
AcDbSymbolTableRecord
100
AcDbBlockTableRecord
  2
direct
340
0
 70
     0
280
     1
281
     0
  0
BLOCK_RECORD
  5
42
330
1
100
AcDbSymbolTableRecord
100
AcDbBlockTableRecord
  2
overhead
340
0
 70
     0
280
     1
281
     0
  0
BLOCK_RECORD
  5
5F
330
1
100
AcDbSymbolTableRecord
100
AcDbBlockTableRecord
  2
sh_spot
340
0
 70
     0
280
     1
281
     0
  0
BLOCK_RECORD
  5
91
330
1
100
AcDbSymbolTableRecord
100
AcDbBlockTableRecord
  2
AVE_RENDER
340
0
102
{BLKREFS
331
94
331
95
331
96
331
97
331
98
331
99
331
9A
331
9B
102
}
 70
     0
280
     1
281
     0
  0
BLOCK_RECORD
  5
9F
330
1
100
AcDbSymbolTableRecord
100
AcDbBlockTableRecord
  2
AVE_GLOBAL
340
0
102
{BLKREFS
331
A2
102
}
 70
     0
280
     1
281
     0
  0
ENDTAB
  0
ENDSEC
  0
SECTION
  2
BLOCKS
  0
BLOCK
  5
20
330
1F
100
AcDbEntity
  8
0
100
AcDbBlockBegin
  2
*Model_Space
 70
     0
 10
0.0
 20
0.0
 30
0.0
  3
*Model_Space
  1

  0
ENDBLK
  5
21
330
1F
100
AcDbEntity
  8
0
100
AcDbBlockEnd
  0
BLOCK
  5
1C
330
1B
100
AcDbEntity
 67
     1
  8
0
100
AcDbBlockBegin
  2
*Paper_Space
 70
     0
 10
0.0
 20
0.0
 30
0.0
  3
*Paper_Space
  1

  0
ENDBLK
  5
1D
330
1B
100
AcDbEntity
 67
     1
  8
0
100
AcDbBlockEnd
  0
BLOCK
  5
24
330
23
100
AcDbEntity
 67
     1
  8
0
100
AcDbBlockBegin
  2
*Paper_Space0
 70
     0
 10
0.0
 20
0.0
 30
0.0
  3
*Paper_Space0
  1

  0
ENDBLK
  5
25
330
23
100
AcDbEntity
 67
     1
  8
0
100
AcDbBlockEnd
  0
BLOCK
  5
40
330
2E
100
AcDbEntity
  8
0
100
AcDbBlockBegin
  2
direct
 70
     2
 10
0.0
 20
0.0
 30
0.0
  3
direct
  1

  0
ATTDEF
  5
2F
330
2E
100
AcDbEntity
  8
ASHADE
  6
Continuous
 62
     1
100
AcDbText
 10
0.0
 20
-0.1
 30
0.0
 40
0.2
  1

  7
ASHADE
 72
     1
 11
0.0
 21
-0.1
 31
0.0
100
AcDbAttributeDefinition
280
     0
  3
Light Name
  2
SNAME
 70
     0
280
     0
  0
ARC
  5
30
330
2E
100
AcDbEntity
  8
ASHADE
  6
Continuous
 62
     7
100
AcDbCircle
 10
0.0
 20
0.0
 30
0.0
 40
0.3
100
AcDbArc
 50
205.6792886194569
 51
334.3207113805431
  0
ARC
  5
31
330
2E
100
AcDbEntity
  8
ASHADE
  6
Continuous
 62
     7
100
AcDbCircle
 10
0.0
 20
0.0
 30
0.0
 40
0.3
100
AcDbArc
 50
25.67928861945685
 51
154.3207113805431
  0
LINE
  5
32
330
2E
100
AcDbEntity
  8
ASHADE
  6
Continuous
 62
     7
100
AcDbLine
 10
-0.21
 20
0.2142428528562855
 30
0.0
 11
-0.21
 21
0.5
 31
0.0
  0
LINE
  5
33
330
2E
100
AcDbEntity
  8
ASHADE
  6
Continuous
 62
     7
100
AcDbLine
 10
-0.11
 20
0.2791057147390572
 30
0.0
 11
-0.11
 21
0.5
 31
0.0
  0
LINE
  5
34
330
2E
100
AcDbEntity
  8
ASHADE
  6
Continuous
 62
     7
100
AcDbLine
 10
0.21
 20
0.2142428528562855
 30
0.0
 11
0.21
 21
0.5
 31
0.0
  0
ATTDEF
  5
35
330
2E
100
AcDbEntity
  8
ASHADE
  6
Continuous
 62
     7
100
AcDbText
 10
0.0
 20
0.25
 30
0.0
 40
0.01
  1

100
AcDbAttributeDefinition
280
     0
  3
Look-at Y
  2
LAY
 70
     1
280
     0
  0
ATTDEF
  5
36
330
2E
100
AcDbEntity
  8
ASHADE
  6
Continuous
 62
     7
100
AcDbText
 10
0.0
 20
0.22
 30
0.0
 40
0.01
  1
1
100
AcDbAttributeDefinition
280
     0
  3
Light Intensity
  2
INTENSITY
 70
     1
280
     0
  0
ATTDEF
  5
37
330
2E
100
AcDbEntity
  8
ASHADE
  6
Continuous
 62
     7
100
AcDbText
 10
0.0
 20
0.16
 30
0.0
 40
0.01
  1
-1
100
AcDbAttributeDefinition
280
     0
  3
*not used*
  2
BEAMD
 70
     1
280
     0
  0
ATTDEF
  5
38
330
2E
100
AcDbEntity
  8
ASHADE
  6
Continuous
 62
     7
100
AcDbText
 10
0.0
 20
0.175
 30
0.0
 40
0.01
  1
-1
100
AcDbAttributeDefinition
280
     0
  3
*not used*
  2
CONED
 70
     1
280
     0
  0
ATTDEF
  5
39
330
2E
100
AcDbEntity
  8
ASHADE
  6
Continuous
 62
     7
100
AcDbText
 10
0.0
 20
0.19
 30
0.0
 40
0.01
  1
0
100
AcDbAttributeDefinition
280
     0
  3
Depth Map Size
  2
CONEA
 70
     1
280
     0
  0
ATTDEF
  5
3A
330
2E
100
AcDbEntity
  8
ASHADE
  6
Continuous
 62
     7
100
AcDbText
 10
0.0
 20
0.2050000000000001
 30
0.0
 40
0.01
  1
1,1,1
100
AcDbAttributeDefinition
280
     0
  3
Light Color (RGB)
  2
COLOR
 70
     1
280
     0
  0
ATTDEF
  5
3B
330
2E
100
AcDbEntity
  8
ASHADE
  6
Continuous
 62
     7
100
AcDbText
 10
0.0
 20
0.235
 30
0.0
 40
0.01
  1

100
AcDbAttributeDefinition
280
     0
  3
Look-at Z
  2
LAZ
 70
     1
280
     0
  0
LINE
  5
3C
330
2E
100
AcDbEntity
  8
ASHADE
  6
Continuous
 62
     7
100
AcDbLine
 10
0.0
 20
0.3
 30
0.0
 11
0.0
 21
0.5
 31
0.0
  0
LINE
  5
3D
330
2E
100
AcDbEntity
  8
ASHADE
  6
Continuous
 62
     7
100
AcDbLine
 10
0.11
 20
0.2791057147390572
 30
0.0
 11
0.11
 21
0.5
 31
0.0
  0
ATTDEF
  5
3E
330
2E
100
AcDbEntity
  8
ASHADE
  6
Continuous
 62
     7
100
AcDbText
 10
0.0
 20
0.265
 30
0.0
 40
0.01
  1

100
AcDbAttributeDefinition
280
     0
  3
Look-at X
  2
LAX
 70
     1
280
     0
  0
ATTDEF
  5
3F
330
2E
100
AcDbEntity
  8
ASHADE
  6
Continuous
 62
     7
100
AcDbText
 10
0.0
 20
0.28
 30
0.0
 40
0.01
  1

100
AcDbAttributeDefinition
280
     0
  3

  2
GNAME
 70
     1
280
     0
  0
ENDBLK
  5
41
330
2E
100
AcDbEntity
  8
0
100
AcDbBlockEnd
  0
BLOCK
  5
5D
330
42
100
AcDbEntity
  8
0
100
AcDbBlockBegin
  2
overhead
 70
     2
 10
0.0
 20
0.0
 30
0.0
  3
overhead
  1

  0
ATTDEF
  5
43
330
42
100
AcDbEntity
  8
ASHADE
  6
Continuous
 62
     1
100
AcDbText
 10
0.0
 20
-0.1
 30
0.0
 40
0.2
  1

  7
ASHADE
 72
     1
 11
0.0
 21
-0.1
 31
0.0
100
AcDbAttributeDefinition
280
     0
  3
Light Name
  2
SNAME
 70
     0
280
     0
  0
ARC
  5
44
330
42
100
AcDbEntity
  8
ASHADE
  6
Continuous
 62
     7
100
AcDbCircle
 10
0.0
 20
0.0
 30
0.0
 40
0.3
100
AcDbArc
 50
205.6792886194569
 51
334.3207113805431
  0
LINE
  5
45
330
42
100
AcDbEntity
  8
ASHADE
  6
Continuous
 62
     7
100
AcDbLine
 10
-0.2041413561583015
 20
-0.2198324514393848
 30
0.0
 11
-0.2721884748777353
 21
-0.2931099352525131
 31
0.0
  0
LINE
  5
46
330
42
100
AcDbEntity
  8
ASHADE
  6
Continuous
 62
     7
100
AcDbLine
 10
-0.1096591641591904
 20
-0.2792398032442862
 30
0.0
 11
-0.1279356915190555
 21
-0.3257797704516673
 31
0.0
  0
LINE
  5
47
330
42
100
AcDbEntity
  8
ASHADE
  6
Continuous
 62
     7
100
AcDbLine
 10
0.0
 20
-0.2999999999999999
 30
0.0
 11
0.0
 21
-0.4
 31
0.0
  0
LINE
  5
48
330
42
100
AcDbEntity
  8
ASHADE
  6
Continuous
 62
     7
100
AcDbLine
 10
0.1096591641591904
 20
-0.2792398032442862
 30
0.0
 11
0.1279356915190555
 21
-0.3257797704516673
 31
0.0
  0
LINE
  5
49
330
42
100
AcDbEntity
  8
ASHADE
  6
Continuous
 62
     7
100
AcDbLine
 10
0.2041413561583015
 20
-0.2198324514393848
 30
0.0
 11
0.2721884748777353
 21
-0.2931099352525131
 31
0.0
  0
ARC
  5
4A
330
42
100
AcDbEntity
  8
ASHADE
  6
Continuous
 62
     7
100
AcDbCircle
 10
0.0
 20
0.0
 30
0.0
 40
0.3
100
AcDbArc
 50
25.67928861945685
 51
154.3207113805431
  0
LINE
  5
4B
330
42
100
AcDbEntity
  8
ASHADE
  6
Continuous
 62
     7
100
AcDbLine
 10
-0.2703701166919155
 20
0.13
 30
0.0
 11
-0.3154318028072347
 21
0.1516666666666666
 31
0.0
  0
LINE
  5
4C
330
42
100
AcDbEntity
  8
ASHADE
  6
Continuous
 62
     7
100
AcDbLine
 10
-0.2703701166919155
 20
-0.13
 30
0.0
 11
-0.3154318028072347
 21
-0.1516666666666666
 31
0.0
  0
LINE
  5
4D
330
42
100
AcDbEntity
  8
ASHADE
  6
Continuous
 62
     7
100
AcDbLine
 10
-0.2041413561583015
 20
0.2198324514393849
 30
0.0
 11
-0.2721884748777353
 21
0.2931099352525131
 31
0.0
  0
LINE
  5
4E
330
42
100
AcDbEntity
  8
ASHADE
  6
Continuous
 62
     7
100
AcDbLine
 10
-0.1096591641591904
 20
0.2792398032442862
 30
0.0
 11
-0.1279356915190555
 21
0.3257797704516674
 31
0.0
  0
LINE
  5
4F
330
42
100
AcDbEntity
  8
ASHADE
  6
Continuous
 62
     7
100
AcDbLine
 10
0.2703701166919155
 20
-0.13
 30
0.0
 11
0.3154318028072347
 21
-0.1516666666666666
 31
0.0
  0
LINE
  5
50
330
42
100
AcDbEntity
  8
ASHADE
  6
Continuous
 62
     7
100
AcDbLine
 10
0.2703701166919155
 20
0.13
 30
0.0
 11
0.3154318028072347
 21
0.1516666666666666
 31
0.0
  0
LINE
  5
51
330
42
100
AcDbEntity
  8
ASHADE
  6
Continuous
 62
     7
100
AcDbLine
 10
0.0
 20
0.3
 30
0.0
 11
0.0
 21
0.4
 31
0.0
  0
ATTDEF
  5
52
330
42
100
AcDbEntity
  8
ASHADE
  6
Continuous
 62
     7
100
AcDbText
 10
0.0
 20
0.22
 30
0.0
 40
0.01
  1
1
100
AcDbAttributeDefinition
280
     0
  3
Light Intensity
  2
INTENSITY
 70
     1
280
     0
  0
ATTDEF
  5
53
330
42
100
AcDbEntity
  8
ASHADE
  6
Continuous
 62
     7
100
AcDbText
 10
0.0
 20
0.16
 30
0.0
 40
0.01
  1
-1
100
AcDbAttributeDefinition
280
     0
  3
*not used*
  2
BEAMD
 70
     1
280
     0
  0
ATTDEF
  5
54
330
42
100
AcDbEntity
  8
ASHADE
  6
Continuous
 62
     7
100
AcDbText
 10
0.0
 20
0.175
 30
0.0
 40
0.01
  1
-1
100
AcDbAttributeDefinition
280
     0
  3
*not used*
  2
CONED
 70
     1
280
     0
  0
ATTDEF
  5
55
330
42
100
AcDbEntity
  8
ASHADE
  6
Continuous
 62
     7
100
AcDbText
 10
0.0
 20
0.19
 30
0.0
 40
0.01
  1
0
100
AcDbAttributeDefinition
280
     0
  3
Depth Map Size
  2
CONEA
 70
     1
280
     0
  0
ATTDEF
  5
56
330
42
100
AcDbEntity
  8
ASHADE
  6
Continuous
 62
     7
100
AcDbText
 10
0.0
 20
0.2050000000000001
 30
0.0
 40
0.01
  1
1,1,1
100
AcDbAttributeDefinition
280
     0
  3
Light Color (RGB)
  2
COLOR
 70
     1
280
     0
  0
ATTDEF
  5
57
330
42
100
AcDbEntity
  8
ASHADE
  6
Continuous
 62
     7
100
AcDbText
 10
0.0
 20
0.235
 30
0.0
 40
0.01
  1

100
AcDbAttributeDefinition
280
     0
  3
Look-at Z
  2
LAZ
 70
     1
280
     0
  0
ATTDEF
  5
58
330
42
100
AcDbEntity
  8
ASHADE
  6
Continuous
 62
     7
100
AcDbText
 10
0.0
 20
0.25
 30
0.0
 40
0.01
  1

100
AcDbAttributeDefinition
280
     0
  3
Look-at Y
  2
LAY
 70
     1
280
     0
  0
ATTDEF
  5
59
330
42
100
AcDbEntity
  8
ASHADE
  6
Continuous
 62
     7
100
AcDbText
 10
0.0
 20
0.265
 30
0.0
 40
0.01
  1

100
AcDbAttributeDefinition
280
     0
  3
Look-at X
  2
LAX
 70
     1
280
     0
  0
ATTDEF
  5
5A
330
42
100
AcDbEntity
  8
ASHADE
  6
Continuous
 62
     7
100
AcDbText
 10
0.0
 20
0.28
 30
0.0
 40
0.01
  1

100
AcDbAttributeDefinition
280
     0
  3

  2
GNAME
 70
     1
280
     0
  0
LINE
  5
5B
330
42
100
AcDbEntity
  8
ASHADE
  6
Continuous
 62
     7
100
AcDbLine
 10
0.1096591641591904
 20
0.2792398032442862
 30
0.0
 11
0.1279356915190555
 21
0.3257797704516674
 31
0.0
  0
LINE
  5
5C
330
42
100
AcDbEntity
  8
ASHADE
  6
Continuous
 62
     7
100
AcDbLine
 10
0.2041413561583015
 20
0.2198324514393849
 30
0.0
 11
0.2721884748777353
 21
0.2931099352525131
 31
0.0
  0
ENDBLK
  5
5E
330
42
100
AcDbEntity
  8
0
100
AcDbBlockEnd
  0
BLOCK
  5
85
330
5F
100
AcDbEntity
  8
0
100
AcDbBlockBegin
  2
sh_spot
 70
     2
 10
0.0
 20
0.0
 30
0.0
  3
sh_spot
  1

  0
LINE
  5
60
330
5F
100
AcDbEntity
  8
ASHADE
  6
Continuous
 62
     7
100
AcDbLine
 10
0.25
 20
0.26
 30
0.0
 11
-0.25
 21
0.26
 31
0.0
  0
LINE
  5
61
330
5F
100
AcDbEntity
  8
ASHADE
  6
Continuous
 62
     7
100
AcDbLine
 10
-0.25
 20
-0.3399999999999999
 30
0.0
 11
0.25
 21
-0.3399999999999999
 31
0.0
  0
ATTDEF
  5
62
330
5F
100
AcDbEntity
  8
ASHADE
  6
Continuous
 62
     1
100
AcDbText
 10
0.0
 20
-0.1
 30
0.0
 40
0.2
  1

  7
ASHADE
 72
     1
 11
0.0
 21
-0.1
 31
0.0
100
AcDbAttributeDefinition
280
     0
  3
Light Name
  2
SNAME
 70
     0
280
     0
  0
LINE
  5
63
330
5F
100
AcDbEntity
  8
ASHADE
  6
Continuous
 62
     7
100
AcDbLine
 10
-0.25
 20
-0.13
 30
0.0
 11
-0.25
 21
-0.3399999999999999
 31
0.0
  0
LINE
  5
64
330
5F
100
AcDbEntity
  8
ASHADE
  6
Continuous
 62
     7
100
AcDbLine
 10
-0.25
 20
-0.18
 30
0.0
 11
-0.29
 21
-0.18
 31
0.0
  0
LINE
  5
65
330
5F
100
AcDbEntity
  8
ASHADE
  6
Continuous
 62
     7
100
AcDbLine
 10
-0.29
 20
-0.22
 30
0.0
 11
-0.25
 21
-0.22
 31
0.0
  0
LINE
  5
66
330
5F
100
AcDbEntity
  8
ASHADE
  6
Continuous
 62
     7
100
AcDbLine
 10
-0.29
 20
-0.18
 30
0.0
 11
-0.29
 21
-0.22
 31
0.0
  0
LINE
  5
67
330
5F
100
AcDbEntity
  8
ASHADE
  6
Continuous
 62
     7
100
AcDbLine
 10
-0.1045454545454545
 20
0.26
 30
0.0
 11
-0.15
 21
0.46
 31
0.0
  0
LINE
  5
68
330
5F
100
AcDbEntity
  8
ASHADE
  6
Continuous
 62
     7
100
AcDbLine
 10
-0.21
 20
0.26
 30
0.0
 11
-0.301304347826087
 21
0.46
 31
0.0
  0
LINE
  5
69
330
5F
100
AcDbEntity
  8
ASHADE
  6
Continuous
 62
     7
100
AcDbLine
 10
-0.25
 20
0.26
 30
0.0
 11
-0.25
 21
0.13
 31
0.0
  0
LINE
  5
6A
330
5F
100
AcDbEntity
  8
ASHADE
  6
Continuous
 62
     7
100
AcDbLine
 10
-0.25
 20
0.22
 30
0.0
 11
-0.29
 21
0.22
 31
0.0
  0
LINE
  5
6B
330
5F
100
AcDbEntity
  8
ASHADE
  6
Continuous
 62
     7
100
AcDbLine
 10
-0.29
 20
0.1799999999999999
 30
0.0
 11
-0.25
 21
0.1799999999999999
 31
0.0
  0
LINE
  5
6C
330
5F
100
AcDbEntity
  8
ASHADE
  6
Continuous
 62
     7
100
AcDbLine
 10
-0.29
 20
0.22
 30
0.0
 11
-0.29
 21
0.1799999999999999
 31
0.0
  0
ATTDEF
  5
6D
330
5F
100
AcDbEntity
  8
ASHADE
  6
Continuous
 62
     7
100
AcDbText
 10
0.0
 20
-0.24
 30
0.0
 40
0.01
  1
0
100
AcDbAttributeDefinition
280
     0
  3
Depth Map Size
  2
ZSIZE
 70
     1
280
     0
  0
ATTDEF
  5
6E
330
5F
100
AcDbEntity
  8
ASHADE
  6
Continuous
 62
     7
100
AcDbText
 10
0.0
 20
-0.3300000000000001
 30
0.0
 40
0.01
  1
0,0,0
100
AcDbAttributeDefinition
280
     0
  3
Look-from XYZ
  2
LFXYZ
 70
     1
280
     0
  0
ATTDEF
  5
6F
330
5F
100
AcDbEntity
  8
ASHADE
  6
Continuous
 62
     7
100
AcDbText
 10
0.0
 20
-0.315
 30
0.0
 40
0.01
  1
0.0
100
AcDbAttributeDefinition
280
     0
  3
Beam Distribution
  2
BEAMDI
 70
     1
280
     0
  0
ATTDEF
  5
70
330
5F
100
AcDbEntity
  8
ASHADE
  6
Continuous
 62
     7
100
AcDbText
 10
0.0
 20
-0.3
 30
0.0
 40
0.01
  1
0.0
100
AcDbAttributeDefinition
280
     0
  3
Cone Delta
  2
CONEDE
 70
     1
280
     0
  0
ATTDEF
  5
71
330
5F
100
AcDbEntity
  8
ASHADE
  6
Continuous
 62
     7
100
AcDbText
 10
0.0
 20
-0.2850000000000001
 30
0.0
 40
0.01
  1
10.0
100
AcDbAttributeDefinition
280
     0
  3
Cone Angle
  2
CONEAN
 70
     1
280
     0
  0
ATTDEF
  5
72
330
5F
100
AcDbEntity
  8
ASHADE
  6
Continuous
 62
     7
100
AcDbText
 10
0.0
 20
-0.27
 30
0.0
 40
0.01
  1
-1
100
AcDbAttributeDefinition
280
     0
  3
*not used*
  2
BIASMAX
 70
     1
280
     0
  0
ATTDEF
  5
73
330
5F
100
AcDbEntity
  8
ASHADE
  6
Continuous
 62
     7
100
AcDbText
 10
0.0
 20
-0.255
 30
0.0
 40
0.01
  1
-1
100
AcDbAttributeDefinition
280
     0
  3
*not used*
  2
BIASMIN
 70
     1
280
     0
  0
ATTDEF
  5
74
330
5F
100
AcDbEntity
  8
ASHADE
  6
Continuous
 62
     7
100
AcDbText
 10
0.0
 20
-0.225
 30
0.0
 40
0.01
  1
1,1,1
100
AcDbAttributeDefinition
280
     0
  3
Light Color (RGB)
  2
COLOR
 70
     1
280
     0
  0
ATTDEF
  5
75
330
5F
100
AcDbEntity
  8
ASHADE
  6
Continuous
 62
     7
100
AcDbText
 10
0.0
 20
-0.21
 30
0.0
 40
0.01
  1
1
100
AcDbAttributeDefinition
280
     0
  3
Light Intensity
  2
INTENSITY
 70
     1
280
     0
  0
ATTDEF
  5
76
330
5F
100
AcDbEntity
  8
ASHADE
  6
Continuous
 62
     7
100
AcDbText
 10
0.0
 20
-0.15
 30
0.0
 40
0.01
  1

100
AcDbAttributeDefinition
280
     0
  3

  2
GNAME
 70
     1
280
     0
  0
ATTDEF
  5
77
330
5F
100
AcDbEntity
  8
ASHADE
  6
Continuous
 62
     7
100
AcDbText
 10
0.0
 20
-0.195
 30
0.0
 40
0.01
  1

100
AcDbAttributeDefinition
280
     0
  3
Look-at Z
  2
LAZ
 70
     1
280
     0
  0
ATTDEF
  5
78
330
5F
100
AcDbEntity
  8
ASHADE
  6
Continuous
 62
     7
100
AcDbText
 10
0.0
 20
-0.18
 30
0.0
 40
0.01
  1

100
AcDbAttributeDefinition
280
     0
  3
Look-at Y
  2
LAY
 70
     1
280
     0
  0
ATTDEF
  5
79
330
5F
100
AcDbEntity
  8
ASHADE
  6
Continuous
 62
     7
100
AcDbText
 10
0.0
 20
-0.165
 30
0.0
 40
0.01
  1

100
AcDbAttributeDefinition
280
     0
  3
Look-at X
  2
LAX
 70
     1
280
     0
  0
LINE
  5
7A
330
5F
100
AcDbEntity
  8
ASHADE
  6
Continuous
 62
     7
100
AcDbLine
 10
0.25
 20
-0.3399999999999999
 30
0.0
 11
0.25
 21
-0.13
 31
0.0
  0
LINE
  5
7B
330
5F
100
AcDbEntity
  8
ASHADE
  6
Continuous
 62
     7
100
AcDbLine
 10
0.25
 20
-0.18
 30
0.0
 11
0.29
 21
-0.18
 31
0.0
  0
LINE
  5
7C
330
5F
100
AcDbEntity
  8
ASHADE
  6
Continuous
 62
     7
100
AcDbLine
 10
0.29
 20
-0.22
 30
0.0
 11
0.25
 21
-0.22
 31
0.0
  0
LINE
  5
7D
330
5F
100
AcDbEntity
  8
ASHADE
  6
Continuous
 62
     7
100
AcDbLine
 10
0.29
 20
-0.18
 30
0.0
 11
0.29
 21
-0.22
 31
0.0
  0
LINE
  5
7E
330
5F
100
AcDbEntity
  8
ASHADE
  6
Continuous
 62
     7
100
AcDbLine
 10
0.21
 20
0.26
 30
0.0
 11
0.301304347826087
 21
0.46
 31
0.0
  0
LINE
  5
7F
330
5F
100
AcDbEntity
  8
ASHADE
  6
Continuous
 62
     7
100
AcDbLine
 10
0.1045454545454545
 20
0.26
 30
0.0
 11
0.15
 21
0.46
 31
0.0
  0
LINE
  5
80
330
5F
100
AcDbEntity
  8
ASHADE
  6
Continuous
 62
     7
100
AcDbLine
 10
0.0
 20
0.26
 30
0.0
 11
0.0
 21
0.46
 31
0.0
  0
LINE
  5
81
330
5F
100
AcDbEntity
  8
ASHADE
  6
Continuous
 62
     7
100
AcDbLine
 10
0.25
 20
0.13
 30
0.0
 11
0.25
 21
0.26
 31
0.0
  0
LINE
  5
82
330
5F
100
AcDbEntity
  8
ASHADE
  6
Continuous
 62
     7
100
AcDbLine
 10
0.25
 20
0.22
 30
0.0
 11
0.29
 21
0.22
 31
0.0
  0
LINE
  5
83
330
5F
100
AcDbEntity
  8
ASHADE
  6
Continuous
 62
     7
100
AcDbLine
 10
0.29
 20
0.1799999999999999
 30
0.0
 11
0.25
 21
0.1799999999999999
 31
0.0
  0
LINE
  5
84
330
5F
100
AcDbEntity
  8
ASHADE
  6
Continuous
 62
     7
100
AcDbLine
 10
0.29
 20
0.22
 30
0.0
 11
0.29
 21
0.1799999999999999
 31
0.0
  0
ENDBLK
  5
86
330
5F
100
AcDbEntity
  8
0
100
AcDbBlockEnd
  0
BLOCK
  5
92
330
91
100
AcDbEntity
  8
ASHADE
100
AcDbBlockBegin
  2
AVE_RENDER
 70
     0
 10
0.0
 20
0.0
 30
0.0
  3
AVE_RENDER
  1
AVE_RENDER
  0
ENDBLK
  5
93
330
91
100
AcDbEntity
  8
0
100
AcDbBlockEnd
  0
BLOCK
  5
A0
330
9F
100
AcDbEntity
  8
ASHADE
100
AcDbBlockBegin
  2
AVE_GLOBAL
 70
     0
 10
0.0
 20
0.0
 30
0.0
  3
AVE_GLOBAL
  1
AVE_GLOBAL
  0
ENDBLK
  5
A1
330
9F
100
AcDbEntity
  8
0
100
AcDbBlockEnd
  0
ENDSEC
  0
SECTION
  2
ENTITIES
  0
INSERT
  5
94
330
1F
100
AcDbEntity
  8
ASHADE
 62
     1
100
AcDbBlockReference
  2
AVE_RENDER
 10
0.0
 20
0.0
 30
0.0
1001
AVE_RENDER
1002
{
1070
     7
1000
Pref
1070
    30
1070
    20
1070
     1
1070
     0
1000

1070
    10
1070
     1
1070
    10
1040
1.0
1070
     1
1040
0.3
1040
0.7
1040
0.0
1040
10.0
1010
-1.0
1020
-1.0
1030
-1.0
1040
0.3
1070
    49
1070
     0
1070
     0
1010
1.0
1020
1.0
1030
1.0
1040
45.0
1070
     1
1070
     0
1000
WCS
1040
0.0
1070
     0
1040
10.0
1002
}
  0
INSERT
  5
95
330
1F
100
AcDbEntity
  8
ASHADE
 62
     3
100
AcDbBlockReference
  2
AVE_RENDER
 10
0.0
 20
0.0
 30
0.0
1001
AVE_RENDER
1002
{
1070
     0
1000
Full Opt
1070
     0
1070
     1
1070
     1
1070
     1
1070
     0
1070
     0
1070
     0
1070
     1
1070
     1
1040
0.0001
1040
0.0001
1002
}
  0
INSERT
  5
96
330
1F
100
AcDbEntity
  8
ASHADE
 62
     4
100
AcDbBlockReference
  2
AVE_RENDER
 10
0.0
 20
0.0
 30
0.0
1001
AVE_RENDER
1002
{
1070
     0
1000
Quick Opt
1070
     0
1070
     1
1070
     1
1070
     1
1070
     0
1070
     0
1070
     1
1002
}
  0
INSERT
  5
97
330
1F
100
AcDbEntity
  8
ASHADE
 62
     5
100
AcDbBlockReference
  2
AVE_RENDER
 10
0.0
 20
0.0
 30
0.0
1001
AVE_RENDER
1002
{
1070
     1
1000
Scanl Opt
1070
     2
1070
     0
1070
     2
1040
2.0
1040
4.0
1070
     0
1070
     1
1070
     0
1040
0.03
1002
}
  0
INSERT
  5
98
330
1F
100
AcDbEntity
  8
ASHADE
 62
     6
100
AcDbBlockReference
  2
AVE_RENDER
 10
0.0
 20
0.0
 30
0.0
1001
AVE_RENDER
1002
{
1070
     2
1000
Raytr Opt
1070
     2
1070
     0
1070
     2
1040
2.0
1040
4.0
1070
     0
1070
     1
1070
     1
1040
0.03
1070
     3
1040
0.03
1002
}
  0
INSERT
  5
99
330
1F
100
AcDbEntity
  8
ASHADE
 62
     7
100
AcDbBlockReference
  2
AVE_RENDER
 10
0.0
 20
0.0
 30
0.0
1001
AVE_RENDER
1002
{
1070
     0
1000
RFile Opt
1070
     1
1070
   640
1070
   480
1070
 10000
1070
     1
1070
     8
1070
     8
1070
     0
1070
     0
1070
     0
1070
     0
1070
     0
1070
     0
1070
     0
1002
}
  0
INSERT
  5
9A
330
1F
100
AcDbEntity
  8
ASHADE
 62
     8
100
AcDbBlockReference
  2
AVE_RENDER
 10
0.0
 20
0.0
 30
0.0
1001
AVE_RENDER
1002
{
1070
     0
1000
Fog Opt
1070
     0
1070
     0
1040
0.0
1040
1.0
1040
0.0
1040
1.0
1010
0.5
1020
0.5
1030
0.5
1002
}
  0
INSERT
  5
9B
330
1F
100
AcDbEntity
  8
ASHADE
 62
     9
100
AcDbBlockReference
  2
AVE_RENDER
 10
0.0
 20
0.0
 30
0.0
1001
AVE_RENDER
1002
{
1070
     0
1000
BG Opt
1070
     0
1070
     1
1010
0.0
1020
0.0
1030
0.0
1010
1.0
1020
0.0
1030
0.0
1010
0.0
1020
1.0
1030
0.0
1010
0.0
1020
0.0
1030
1.0
1040
0.5
1040
0.33
1040
0.0
1000

1070
     1
1000

1070
     1
1070
     1
1040
1.0
1040
1.0
1040
0.0
1040
0.0
1070
     0
1002
}
  0
INSERT
  5
A2
330
1F
100
AcDbEntity
  8
ASHADE
 62
     1
100
AcDbBlockReference
  2
AVE_GLOBAL
 10
0.0
 20
0.0
 30
0.0
1001
AVE_MATERIAL
1002
{
1000
*GLOBAL*
1000
2
1000
Global finish.
1002
{
1002
}
1002
{
1070
    63
1002
{
1002
{
1010
-1.0
1020
-1.0
1030
-1.0
1002
}
1040
0.1000000014901161
1000

1040
0.0
1002
{
1002
}
1040
0.0
1002
{
1002
}
1040
0.0
1002
}
1002
{
1002
{
1010
-1.0
1020
-1.0
1030
-1.0
1002
}
1040
0.6999999880790711
1000

1040
0.0
1002
{
1002
}
1040
0.0
1002
{
1002
}
1040
0.0
1002
}
1002
{
1002
{
1010
-1.0
1020
-1.0
1030
-1.0
1002
}
1040
0.2000000029802322
1000

1040
0.0
1002
{
1002
}
1040
0.0
1002
{
1002
}
1040
0.0
1002
}
1002
{
1070
     0
1002
{
1070
     1
1002
{
1040
1.0
1040
1.0
1000

1040
0.0
1002
{
1002
}
1040
0.0
1002
{
1002
}
1040
0.0
1002
}
1002
}
1040
1.0
1040
0.0
1040
0.0
1002
}
1002
{
1040
1.0
1040
1.0
1000

1040
0.0
1002
{
1002
}
1040
0.0
1002
{
1002
}
1040
0.0
1002
}
1002
{
1040
0.5
1040
1.0
1000

1040
0.0
1002
{
1002
}
1040
0.0
1002
{
1002
}
1040
0.0
1002
}
1002
{
1070
     0
1040
0.0
1002
{
1002
}
1040
1.0
1002
{
1002
}
1040
0.0
1002
}
1002
{
1040
0.0
1002
{
1002
{
1010
0.0
1020
0.0
1030
0.0
1002
}
1040
1.0
1000

1040
0.0
1002
{
1002
}
1040
0.0
1002
{
1002
}
1040
0.0
1002
}
1002
}
1002
{
1002
{
1070
     1
1002
{
1040
0.0
1040
1.0
1000

1040
0.0
1002
{
1002
}
1040
0.0
1002
{
1002
}
1040
0.0
1002
}
1002
}
1040
0.0
1002
{
1002
}
1010
1.0
1020
0.0
1030
0.0
1010
0.0
1020
1.0
1030
0.0
1010
0.0
1020
0.0
1030
1.0
1070
     0
1002
}
1002
{
1002
{
1040
1.0
1040
1.0
1002
{
1070
     1
1002
{
1040
1.0
1040
1.0
1000

1040
0.0
1002
{
1002
}
1040
0.0
1002
{
1002
}
1040
0.0
1002
}
1002
}
1002
}
1070
     0
1040
0.0
1002
{
1002
}
1002
}
1002
{
1002
}
1002
}
1002
{
1071
        3
1070
     3
1070
     0
1002
{
1070
     2
1070
     0
1070
     0
1040
0.0
1002
}
1070
     0
1070
     2
1002
{
1002
}
1002
}
1002
{
1040
8030.0
1040
190.3000030517578
1040
0.3050000071525574
1040
228.0
1040
545.0
1040
14.0
1040
17.39999961853027
1040
0.4560000002384186
1002
}
1002
}
  0
MESH
  5
F9
330
1F
100
AcDbEntity
  8
OracDecor_cornice_mouldings
 62
   133
420
  5818337
160
             33056
310
20810000960300000C00000013000000020000003C0000000600000002000000000000C0FF3F8FC0000000A08585183F00000000008051C00000000000408F40000000C0BAFAC53E00000000008051C00C000000130000000A0000003C0000000600000002000000000000C0FF3F8FC0000000A08585183F00000000008051
310
C0000000C0FF3F8FC0000000A0C567173F00000060773B50C00C00000013000000120000003C0000000600000002000000000000C0FF3F8FC0000000A0C567173F00000060773B50C00000000000408F4000000080877ABBBE00000060773B50C00C000000130000001A0000003C0000000600000002000000000000000040
310
8F40000000C0BAFAC53E00000000008051C00000000000408F4000000080877ABBBE00000060773B50C00C00000013000000220000003C0000000600000002000000000000C0FF3F8FC0000000A0C567173F00000060773B50C0000000C0FF3F8FC0000000A05994DFBF000000C0232C50C00C000000130000002A0000003C
310
0000000600000002000000000000C0FF3F8FC0000000A05994DFBF000000C0232C50C00000000000408F40000000E0D695DFBF000000C0232C50C00C00000013000000320000003C00000006000000020000000000000000408F4000000080877ABBBE00000060773B50C00000000000408F40000000E0D695DFBF000000C0
310
232C50C00C000000130000003A0000003C0000000600000002000000000000C0FF3F8FC0000000A05994DFBF000000C0232C50C0000000C0FF3F8FC000000080E20FF0BF00000040FE0A50C00C00000013000000420000003C0000000600000002000000000000C0FF3F8FC000000080E20FF0BF00000040FE0A50C0000000
310
0000408F40000000C04110F0BF00000040FE0A50C00C000000130000004A0000003C00000006000000020000000000000000408F40000000E0D695DFBF000000C0232C50C00000000000408F40000000C04110F0BF00000040FE0A50C00C00000013000000520000003C0000000600000002000000000000C0FF3F8FC00000
310
0080E20FF0BF00000040FE0A50C0000000C0FF3F8FC000000080AE42F4BF000000002DBF4FC00C000000130000005A0000003C0000000600000002000000000000C0FF3F8FC000000080AE42F4BF000000002DBF4FC00000000000408F40000000C00D43F4BF000000002DBF4FC00C00000013000000620000003C00000006
310
000000020000000000000000408F40000000C00D43F4BF000000002DBF4FC00000000000408F40000000C04110F0BF00000040FE0A50C00C000000130000006A0000003C0000000600000002000000000000C0FF3F8FC000000080AE42F4BF000000002DBF4FC0000000C0FF3F8FC0000000A032CCF3BF000000802B624FC0
310
0C00000013000000720000003C0000000600000002000000000000C0FF3F8FC0000000A032CCF3BF000000802B624FC00000000000408F40000000E091CCF3BF000000802B624FC00C000000130000007A0000003C00000006000000020000000000000000408F40000000E091CCF3BF000000802B624FC00000000000408F
310
40000000C00D43F4BF000000002DBF4FC00C00000013000000820000003C0000000600000002000000000000C0FF3F8FC0000000A032CCF3BF000000802B624FC0000000C0FF3F8FC000000040FD7FEDBF000000404E0E4FC00C000000130000008A0000003C0000000600000002000000000000C0FF3F8FC000000040FD7F
310
EDBF000000404E0E4FC00000000000408F4000000000BC80EDBF000000404E0E4FC00C00000013000000920000003C00000006000000020000000000000000408F4000000000BC80EDBF000000404E0E4FC00000000000408F40000000E091CCF3BF000000802B624FC00C000000130000009A0000003C0000000600000002
310
000000000000C0FF3F8FC000000040FD08E1BF00000000DEDC4EC0000000C0FF3F8FC000000040FD7FEDBF000000404E0E4FC00C00000013000000A20000003C0000000600000002000000000000C0FF3F8FC000000040FD08E1BF00000000DEDC4EC00000000000408F4000000000BC09E1BF00000000DEDC4EC00C000000
310
13000000AA0000003C00000006000000020000000000000000408F4000000000BC09E1BF00000000DEDC4EC00000000000408F4000000000BC80EDBF000000404E0E4FC00C00000013000000B20000003C0000000600000002000000000000C0FF3F8FC000000040FD08E1BF00000000DEDC4EC0000000C0FF3F8FC0000000
310
20CA52173F000000A025AD4EC00C00000013000000BA0000003C0000000600000002000000000000C0FF3F8FC000000020CA52173F000000A025AD4EC00000000000408F4000000000B45CC0BE000000A025AD4EC00C00000013000000C20000003C00000006000000020000000000000000408F4000000000BC09E1BF0000
310
0000DEDC4EC00000000000408F4000000000B45CC0BE000000A025AD4EC00C00000013000000CA0000003C0000000600000002000000000000C0FF3F8FC0000000A01E3F173F0000000000004DC0000000C0FF3F8FC000000020CA52173F000000A025AD4EC00C00000013000000D20000003C000000060000000200000000
310
0000C0FF3F8FC0000000A01E3F173F0000000000004DC00000000000408F400000004023D2C2BE0000000000004DC00C00000013000000DA0000003C00000006000000020000000000000000408F4000000000B45CC0BE000000A025AD4EC00000000000408F400000004023D2C2BE0000000000004DC00C00000013000000
310
E20000003C0000000600000002000000000000C0FF3F8FC0000000A01E3F173F0000000000004DC0000000C0FF3F8FC00000008028D800C0000000C09DEF4CC00C00000013000000EA0000003C0000000600000002000000000000C0FF3F8FC00000008028D800C0000000C09DEF4CC00000000000408F400000004057D800
310
C0000000C09DEF4CC00C00000013000000F20000003C00000006000000020000000000000000408F400000004057D800C0000000C09DEF4CC00000000000408F400000004023D2C2BE0000000000004DC00C00000013000000FA0000003C0000000600000002000000000000C0FF3F8FC00000008028D800C0000000C09DEF
310
4CC0000000C0FF3F8FC000000060631B11C0000000C0CB714CC00C00000013000000020100003C0000000600000002000000000000C0FF3F8FC000000060631B11C0000000C0CB714CC00000000000408F40000000A07A1B11C0000000C0CB714CC00C000000130000000A0100003C00000006000000020000000000000000
310
408F40000000A07A1B11C0000000C0CB714CC00000000000408F400000004057D800C0000000C09DEF4CC00C00000013000000120100003C0000000600000002000000000000C0FF3F8FC0000000E06D6517C00000004020754BC0000000C0FF3F8FC000000060631B11C0000000C0CB714CC00C000000130000001A010000
310
3C0000000600000002000000000000C0FF3F8FC0000000E06D6517C00000004020754BC00000000000408F40000000A0856517C00000004020754BC00C00000013000000220100003C00000006000000020000000000000000408F40000000A0856517C00000004020754BC00000000000408F40000000A07A1B11C0000000
310
C0CB714CC00C000000130000002A0100003C0000000600000002000000000000C0FF3F8FC0000000E06D6517C00000004020754BC0000000C0FF3F8FC000000060CDBB1DC000000040E6224AC00C00000013000000320100003C0000000600000002000000000000C0FF3F8FC000000060CDBB1DC000000040E6224AC00000
310
000000408F40000000A0E4BB1DC000000040E6224AC00C000000130000003A0100003C00000006000000020000000000000000408F40000000A0E4BB1DC000000040E6224AC00000000000408F40000000A0856517C00000004020754BC00C00000013000000420100003C0000000600000002000000000000C0FF3F8FC000
310
000060CDBB1DC000000040E6224AC0000000C0FF3F8FC000000020129A22C000000000D1D948C00C000000130000004A0100003C0000000600000002000000000000C0FF3F8FC000000020129A22C000000000D1D948C00000000000408F40000000E01D9A22C000000000D1D948C00C00000013000000520100003C000000
310
06000000020000000000000000408F40000000E01D9A22C000000000D1D948C00000000000408F40000000A0E4BB1DC000000040E6224AC00C000000130000005A0100003C0000000600000002000000000000C0FF3F8FC000000020129A22C000000000D1D948C0000000C0FF3F8FC0000000C03CD126C0000000409FA647
310
C00C00000013000000620100003C0000000600000002000000000000C0FF3F8FC0000000C03CD126C0000000409FA647C00000000000408F400000000049D126C0000000409FA647C00C000000130000006A0100003C00000006000000020000000000000000408F400000000049D126C0000000409FA647C0000000000040
310
8F40000000E01D9A22C000000000D1D948C00C00000013000000720100003C0000000600000002000000000000C0FF3F8FC0000000C03CD126C0000000409FA647C0000000C0FF3F8FC0000000C0C6682BC000000000769046C00C000000130000007A0100003C0000000600000002000000000000C0FF3F8FC0000000C0C6
310
682BC000000000769046C00000000000408F40000000C0D2682BC000000000769046C00C00000013000000820100003C00000006000000020000000000000000408F40000000C0D2682BC000000000769046C00000000000408F400000000049D126C0000000409FA647C00C000000130000008A0100003C00000006000000
310
02000000000000C0FF3F8FC0000000C0C6682BC000000000769046C0000000C0FF3F8FC000000040322630C0000000001C9A45C00C00000013000000920100003C0000000600000002000000000000C0FF3F8FC000000040322630C0000000001C9A45C00000000000408F4000000040382630C0000000001C9A45C00C0000
310
00130000009A0100003C00000006000000020000000000000000408F4000000040382630C0000000001C9A45C00000000000408F40000000C0D2682BC000000000769046C00C00000013000000A20100003C0000000600000002000000000000C0FF3F8FC000000040322630C0000000001C9A45C0000000C0FF3F8FC00000
310
000000B932C0000000A0EAC344C00C00000013000000AA0100003C0000000600000002000000000000C0FF3F8FC00000000000B932C0000000A0EAC344C00000000000408F400000000006B932C000000080EAC344C00C00000013000000B20100003C00000006000000020000000000000000408F400000000006B932C000
310
000080EAC344C00000000000408F4000000040382630C0000000001C9A45C00C00000013000000BA0100003C0000000600000002000000000000C0FF3F8FC00000000000B932C0000000A0EAC344C0000000C0FF3F8FC000000040EEB635C000000020A7FB43C00C00000013000000C20100003C0000000600000002000000
310
000000C0FF3F8FC000000040EEB635C000000020A7FB43C00000000000408F4000000040F4B635C000000000A7FB43C00C00000013000000CA0100003C00000006000000020000000000000000408F4000000040F4B635C000000000A7FB43C00000000000408F400000000006B932C000000080EAC344C00C000000130000
310
00D20100003C0000000600000002000000000000C0FF3F8FC000000040EEB635C000000020A7FB43C0000000C0FF3F8FC0000000C0240F38C000000060CE7B43C00C00000013000000DA0100003C0000000600000002000000000000C0FF3F8FC0000000C0240F38C000000060CE7B43C00000000000408F40000000C02A0F
310
38C000000060CE7B43C00C00000013000000E20100003C00000006000000020000000000000000408F40000000C02A0F38C000000060CE7B43C00000000000408F4000000040F4B635C000000000A7FB43C00C00000013000000EA0100003C0000000600000002000000000000C0FF3F8FC0000000C0240F38C000000060CE
310
7B43C0000000C0FF3F8FC000000000110B39C0000000A02D3143C00C00000013000000F20100003C0000000600000002000000000000C0FF3F8FC000000000110B39C0000000A02D3143C00000000000408F4000000000170B39C0000000A02D3143C00C00000013000000FA0100003C000000060000000200000000000000
310
00408F4000000000170B39C0000000A02D3143C00000000000408F40000000C02A0F38C000000060CE7B43C00C00000013000000020200003C0000000600000002000000000000C0FF3F8FC000000000110B39C0000000A02D3143C0000000C0FF3F8FC0000000406BDE39C0000000A0D3CB42C00C000000130000000A0200
310
003C0000000600000002000000000000C0FF3F8FC0000000406BDE39C0000000A0D3CB42C00000000000408F400000002071DE39C0000000A0D3CB42C00C00000013000000120200003C00000006000000020000000000000000408F400000002071DE39C0000000A0D3CB42C00000000000408F4000000000170B39C00000
310
00A02D3143C00C000000130000001A0200003C0000000600000002000000000000C0FF3F8FC0000000406BDE39C0000000A0D3CB42C0000000C0FF3F8FC0000000C0DDAF3AC0000000003B0C42C00C00000013000000220200003C0000000600000002000000000000C0FF3F8FC0000000C0DDAF3AC0000000003B0C42C000
310
00000000408F40000000C0E3AF3AC0000000003B0C42C00C000000130000002A0200003C00000006000000020000000000000000408F40000000C0E3AF3AC0000000003B0C42C00000000000408F400000002071DE39C0000000A0D3CB42C00C00000013000000320200003C0000000600000002000000000000C0FF3F8FC0
310
00000040BD343BC0000000C0A5CA40C0000000C0FF3F8FC0000000C0DDAF3AC0000000003B0C42C00C000000130000003A0200003C0000000600000002000000000000C0FF3F8FC000000040BD343BC0000000C0A5CA40C00000000000408F4000000040C3343BC0000000C0A5CA40C00C00000013000000420200003C0000
310
0006000000020000000000000000408F4000000040C3343BC0000000C0A5CA40C00000000000408F40000000C0E3AF3AC0000000003B0C42C00C000000130000004A0200003C0000000600000002000000000000C0FF3F8FC000000040BD343BC0000000C0A5CA40C0000000C0FF3F8FC00000004073573CC0000000403CC9
310
3EC00C00000013000000520200003C0000000600000002000000000000C0FF3F8FC00000004073573CC0000000403CC93EC00000000000408F400000002079573CC0000000203CC93EC00C000000130000005A0200003C00000006000000020000000000000000408F4000000040C3343BC0000000C0A5CA40C00000000000
310
408F400000002079573CC0000000203CC93EC00C00000013000000620200003C0000000600000002000000000000C0FF3F8FC00000004073573CC0000000403CC93EC0000000C0FF3F8FC000000060DCCC3DC0000000A0460A3DC00C000000130000006A0200003C0000000600000002000000000000C0FF3F8FC000000060
310
DCCC3DC0000000A0460A3DC00000000000408F4000000060E2CC3DC000000080460A3DC00C00000013000000720200003C00000006000000020000000000000000408F400000002079573CC0000000203CC93EC00000000000408F4000000060E2CC3DC000000080460A3DC00C000000130000007A0200003C000000060000
310
0002000000000000C0FF3F8FC000000060DCCC3DC0000000A0460A3DC0000000C0FF3F8FC0000000A091083FC000000000AF253CC00C00000013000000820200003C0000000600000002000000000000C0FF3F8FC0000000A091083FC000000000AF253CC00000000000408F40000000A097083FC0000000E0AE253CC00C00
310
0000130000008A0200003C00000006000000020000000000000000408F40000000A097083FC0000000E0AE253CC00000000000408F4000000060E2CC3DC000000080460A3DC00C00000013000000920200003C0000000600000002000000000000C0FF3F8FC0000000A091083FC000000000AF253CC0000000C0FF3F8FC000
310
000060903440C000000040787F3BC00C000000130000009A0200003C0000000600000002000000000000C0FF3F8FC000000060903440C000000040787F3BC00000000000408F4000000020933440C000000020787F3BC00C00000013000000A20200003C00000006000000020000000000000000408F4000000020933440C0
310
00000020787F3BC00000000000408F40000000A097083FC0000000E0AE253CC00C00000013000000AA0200003C0000000600000002000000000000C0FF3F8FC000000060903440C000000040787F3BC0000000C0FF3F8FC000000040DD5341C0000000E06A0B3BC00C00000013000000B20200003C00000006000000020000
310
00000000C0FF3F8FC000000040DD5341C0000000E06A0B3BC00000000000408F4000000020E05341C0000000E06A0B3BC00C00000013000000BA0200003C00000006000000020000000000000000408F4000000020E05341C0000000E06A0B3BC00000000000408F4000000020933440C000000020787F3BC00C0000001300
310
0000C20200003C0000000600000002000000000000C0FF3F8FC000000040DD5341C0000000E06A0B3BC0000000C0FF3F8FC0000000C0088342C000000000CBB83AC00C00000013000000CA0200003C0000000600000002000000000000C0FF3F8FC0000000C0088342C000000000CBB83AC00000000000408F40000000C00B
310
8342C000000000CBB83AC00C00000013000000D20200003C00000006000000020000000000000000408F40000000C00B8342C000000000CBB83AC00000000000408F4000000020E05341C0000000E06A0B3BC00C00000013000000DA0200003C0000000600000002000000000000C0FF3F8FC0000000C0088342C000000000
310
CBB83AC0000000C0FF3F8FC0000000406B4643C000000000E72F3AC00C00000013000000E20200003C0000000600000002000000000000C0FF3F8FC0000000406B4643C000000000E72F3AC00000000000408F40000000206E4643C000000000E72F3AC00C00000013000000EA0200003C0000000600000002000000000000
310
0000408F40000000206E4643C000000000E72F3AC00000000000408F40000000C00B8342C000000000CBB83AC00C00000013000000F20200003C0000000600000002000000000000C0FF3F8FC0000000406B4643C000000000E72F3AC0000000C0FF3F8FC00000004061FA43C000000000376339C00C00000013000000FA02
310
00003C0000000600000002000000000000C0FF3F8FC00000004061FA43C000000000376339C00000000000408F400000002064FA43C000000000376339C00C00000013000000020300003C00000006000000020000000000000000408F400000002064FA43C000000000376339C00000000000408F40000000206E4643C000
310
000000E72F3AC00C000000130000000A0300003C0000000600000002000000000000C0FF3F8FC00000004061FA43C000000000376339C0000000C0FF3F8FC0000000C0179944C0000000005B5938C00C00000013000000120300003C0000000600000002000000000000C0FF3F8FC0000000C0179944C0000000005B5938C0
310
0000000000408F40000000801A9944C0000000005B5938C00C000000130000001A0300003C00000006000000020000000000000000408F40000000801A9944C0000000005B5938C00000000000408F400000002064FA43C000000000376339C00C00000013000000220300003C0000000600000002000000000000C0FF3F8F
310
C0000000C0179944C0000000005B5938C0000000C0FF3F8FC0000000C06B1D45C000000000ED1A37C00C000000130000002A0300003C0000000600000002000000000000C0FF3F8FC0000000C06B1D45C000000000ED1A37C00000000000408F40000000A06E1D45C000000000ED1A37C00C00000013000000320300003C00
310
000006000000020000000000000000408F40000000A06E1D45C000000000ED1A37C00000000000408F40000000801A9944C0000000005B5938C00C000000130000003A0300003C0000000600000002000000000000C0FF3F8FC0000000A0EFA445C00000000097EE34C0000000C0FF3F8FC0000000C06B1D45C000000000ED
310
1A37C00C00000013000000420300003C0000000600000002000000000000C0FF3F8FC0000000A0EFA445C00000000097EE34C00000000000408F40000000A0F2A445C00000000097EE34C00C000000130000004A0300003C00000006000000020000000000000000408F40000000A0F2A445C00000000097EE34C000000000
310
00408F40000000A06E1D45C000000000ED1A37C00C00000013000000520300003C0000000600000002000000000000C0FF3F8FC0000000A0EFA445C00000000097EE34C0000000C0FF3F8FC000000040E51146C0000000E0D77331C00C000000130000005A0300003C0000000600000002000000000000C0FF3F8FC0000000
310
40E51146C0000000E0D77331C00000000000408F4000000040E81146C0000000E0D77331C00C00000013000000620300003C00000006000000020000000000000000408F4000000040E81146C0000000E0D77331C00000000000408F40000000A0F2A445C00000000097EE34C00C000000130000006A0300003C0000000600
310
000002000000000000C0FF3F8FC000000040E51146C0000000E0D77331C0000000C0FF3F8FC0000000005C7946C00000004099A52CC00C00000013000000720300003C0000000600000002000000000000C0FF3F8FC0000000005C7946C00000004099A52CC00000000000408F40000000E05E7946C00000000099A52CC00C
310
000000130000007A0300003C00000006000000020000000000000000408F40000000E05E7946C00000000099A52CC00000000000408F4000000040E81146C0000000E0D77331C00C00000013000000820300003C0000000600000002000000000000C0FF3F8FC0000000005C7946C00000004099A52CC0000000C0FF3F8FC0
310
000000001E0047C0000000C012F626C00C000000130000008A0300003C0000000600000002000000000000C0FF3F8FC0000000001E0047C0000000C012F626C00000000000408F40000000E0200047C00000008012F626C00C00000013000000920300003C00000006000000020000000000000000408F40000000E0200047
310
C00000008012F626C00000000000408F40000000E05E7946C00000000099A52CC00C000000130000009A0300003C0000000600000002000000000000C0FF3F8FC0000000001E0047C0000000C012F626C0000000C0FF3F8FC0000000A03BD747C000000000F4AE20C00C00000013000000A20300003C000000060000000200
310
0000000000C0FF3F8FC0000000A03BD747C000000000F4AE20C00000000000408F40000000A03ED747C0000000C0F3AE20C00C00000013000000AA0300003C00000006000000020000000000000000408F40000000A03ED747C0000000C0F3AE20C00000000000408F40000000E0200047C00000008012F626C00C00000013
310
000000B20300003C0000000600000002000000000000C0FF3F8FC0000000A03BD747C000000000F4AE20C0000000C0FF3F8FC000000040C01049C0000000A0BB6215C00C00000013000000BA0300003C0000000600000002000000000000C0FF3F8FC000000040C01049C0000000A0BB6215C00000000000408F4000000020
310
C31049C000000020BB6215C00C00000013000000C20300003C00000006000000020000000000000000408F4000000020C31049C000000020BB6215C00000000000408F40000000A03ED747C0000000C0F3AE20C00C00000013000000CA0300003C0000000600000002000000000000C0FF3F8FC000000040C01049C0000000
310
A0BB6215C0000000C0FF3F8FC000000000AC0A4AC00000006038850AC00C00000013000000D20300003C0000000600000002000000000000C0FF3F8FC000000000AC0A4AC00000006038850AC00000000000408F40000000E0AE0A4AC00000006037850AC00C00000013000000DA0300003C00000006000000020000000000
310
000000408F40000000E0AE0A4AC00000006037850AC00000000000408F4000000020C31049C000000020BB6215C00C00000013000000E20300003C0000000600000002000000000000C0FF3F8FC000000000AC0A4AC00000006038850AC0000000C0FF3F8FC00000002011674AC0000000E0CC97FDBF0C00000013000000EA
310
0300003C0000000600000002000000000000C0FF3F8FC00000002011674AC0000000E0CC97FDBF0000000000408F400000002014674AC0000000E0CC97FDBF0C00000013000000F20300003C00000006000000020000000000000000408F400000002014674AC0000000E0CC97FDBF0000000000408F40000000E0AE0A4AC0
310
0000006037850AC00C00000013000000FA0300003C0000000600000002000000000000C0FF3F8FC0000000200F7E4AC0000000C019A0E8BF000000C0FF3F8FC00000002011674AC0000000E0CC97FDBF0C00000013000000020400003C0000000600000002000000000000C0FF3F8FC0000000200F7E4AC0000000C019A0E8
310
BF0000000000408F4000000020127E4AC0000000C019A0E8BF0C000000130000000A0400003C00000006000000020000000000000000408F4000000020127E4AC0000000C019A0E8BF0000000000408F400000002014674AC0000000E0CC97FDBF0C00000013000000120400003C0000000600000002000000000000C0FF3F
310
8FC0000000200F7E4AC0000000C019A0E8BF000000C0FF3F8FC000000020FD7F4AC0000000E0146FD3BE0C000000130000001A0400003C0000000600000002000000000000C0FF3F8FC000000020FD7F4AC0000000E0146FD3BE0000000000408F400000002000804AC0000000E0136FD3BE0C00000013000000220400003C
310
00000006000000020000000000000000408F4000000020127E4AC0000000C019A0E8BF0000000000408F400000002000804AC0000000E0136FD3BE0C000000130000002A0400003C0000000600000002000000000000C0FF3F8FC000000020FD7F4AC0000000E0146FD3BE000000C0FF3F8FC0000000E015774CC000000080
310
F03FC63E0C00000013000000320400003C0000000600000002000000000000C0FF3F8FC0000000E015774CC000000080F03FC63E0000000000408F40000000E018774CC000000040F91FDB3E0C000000130000003A0400003C00000006000000020000000000000000408F400000002000804AC0000000E0136FD3BE000000
310
0000408F40000000E018774CC000000040F91FDB3E0C00000013000000420400003C0000000600000002000000000000C0FF3F8FC0000000A03E3F4DC0000000C04211EBBF000000C0FF3F8FC0000000E015774CC000000080F03FC63E0C000000130000004A0400003C0000000600000002000000000000C0FF3F8FC00000
310
00A03E3F4DC0000000C04211EBBF0000000000408F40000000A0413F4DC0000000C03A11EBBF0C00000013000000520400003C00000006000000020000000000000000408F40000000E018774CC000000040F91FDB3E0000000000408F40000000A0413F4DC0000000C03A11EBBF0C000000130000005A0400003C00000006
310
00000002000000000000C0FF3F8FC0000000A03E3F4DC0000000C04211EBBF000000C0FF3F8FC0000000A05A994DC0000000E0C2B4EFBF0C00000013000000620400003C0000000600000002000000000000C0FF3F8FC0000000A05A994DC0000000E0C2B4EFBF0000000000408F40000000A05D994DC0000000E0BAB4EFBF
310
0C000000130000006A0400003C00000006000000020000000000000000408F40000000A0413F4DC0000000C03A11EBBF0000000000408F40000000A05D994DC0000000E0BAB4EFBF0C00000013000000720400003C0000000600000002000000000000C0FF3F8FC0000000A05A994DC0000000E0C2B4EFBF000000C0FF3F8F
310
C00000006080F34DC000000000131DEBBF0C000000130000007A0400003C0000000600000002000000000000C0FF3F8FC00000006080F34DC000000000131DEBBF0000000000408F400000006083F34DC0000000000B1DEBBF0C00000013000000820400003C00000006000000020000000000000000408F400000006083F3
310
4DC0000000000B1DEBBF0000000000408F40000000A05D994DC0000000E0BAB4EFBF0C000000130000008A0400003C0000000600000002000000000000C0FF3F8FC00000006080F34DC000000000131DEBBF000000C0FF3F8FC0000000202A3F4EC000000020460FDCBF0C00000013000000920400003C0000000600000002
310
000000000000C0FF3F8FC0000000202A3F4EC000000020460FDCBF0000000000408F40000000202D3F4EC000000020360FDCBF0C000000130000009A0400003C00000006000000020000000000000000408F40000000202D3F4EC000000020360FDCBF0000000000408F400000006083F34DC0000000000B1DEBBF0C000000
310
13000000A20400003C0000000600000002000000000000C0FF3F8FC0000000202A3F4EC000000020460FDCBF000000C0FF3F8FC000000060FB674EC0000000C02267C33E0C00000013000000AA0400003C0000000600000002000000000000C0FF3F8FC000000060FB674EC0000000C02267C33E0000000000408F40000000
310
60FE674EC00000006092B3D93E0C00000013000000B20400003C00000006000000020000000000000000408F40000000202D3F4EC000000020360FDCBF0000000000408F4000000060FE674EC00000006092B3D93E0C00000013000000BA0400003C0000000600000002000000000000C0FF3F8FC0000000A0FE3F50C00000
310
0000F854C03E000000C0FF3F8FC000000060FB674EC0000000C02267C33E0C00000013000000C20400003C0000000600000002000000000000C0FF3F8FC0000000A0FE3F50C000000000F854C03E0000000000408F4000000000004050C0000000007D2AD83E0C00000013000000CA0400003C000000060000000200000000
310
00000000408F4000000060FE674EC00000006092B3D93E0000000000408F4000000000004050C0000000007D2AD83E0C00000013000000D20400003C0000000600000002000000000000C0FF3F8FC0000000A0FE3F50C000000000F854C03E000000C0FF3F8FC0000000A0FE3F50C00000000012131CC00C00000013000000
310
DA0400003C0000000600000002000000000000C0FF3F8FC0000000A0FE3F50C00000000012131CC00000000000408F4000000020004050C00000000012131CC00C00000013000000E20400003C00000006000000020000000000000000408F4000000000004050C0000000007D2AD83E0000000000408F4000000020004050
310
C00000000012131CC00C00000013000000EA0400003C0000000600000002000000000000C0FF3F8FC0000000A0FE3F50C00000000012131CC0000000C0FF3F8FC0000000A0EA3D50C000000080DB151DC00C00000013000000F20400003C0000000600000002000000000000C0FF3F8FC0000000A0EA3D50C000000080DB15
310
1DC00000000000408F4000000020EC3D50C000000080DB151DC00C00000013000000FA0400003C00000006000000020000000000000000408F4000000020004050C00000000012131CC00000000000408F4000000020EC3D50C000000080DB151DC00C00000013000000020500003C0000000600000002000000000000C0FF
310
3F8FC0000000A0EA3D50C000000080DB151DC0000000C0FF3F8FC0000000A0D23750C000000000B9071EC00C000000130000000A0500003C0000000600000002000000000000C0FF3F8FC0000000A0D23750C000000000B9071EC00000000000408F4000000020D43750C000000000B9071EC00C0000001300000012050000
310
3C00000006000000020000000000000000408F4000000020EC3D50C000000080DB151DC00000000000408F4000000020D43750C000000000B9071EC00C000000130000001A0500003C0000000600000002000000000000C0FF3F8FC0000000A0D23750C000000000B9071EC0000000C0FF3F8FC0000000601A2E50C0000000
310
003AD91EC00C00000013000000220500003C0000000600000002000000000000C0FF3F8FC0000000601A2E50C0000000003AD91EC00000000000408F40000000E01B2E50C0000000003AD91EC00C000000130000002A0500003C00000006000000020000000000000000408F4000000020D43750C000000000B9071EC00000
310
000000408F40000000E01B2E50C0000000003AD91EC00C00000013000000320500003C0000000600000002000000000000C0FF3F8FC0000000601A2E50C0000000003AD91EC0000000C0FF3F8FC0000000A0632150C0000000009C7C1FC00C000000130000003A0500003C0000000600000002000000000000C0FF3F8FC000
310
0000A0632150C0000000009C7C1FC00000000000408F4000000000652150C0000000009C7C1FC00C00000013000000420500003C00000006000000020000000000000000408F40000000E01B2E50C0000000003AD91EC00000000000408F4000000000652150C0000000009C7C1FC00C000000130000004A0500003C000000
310
0600000002000000000000C0FF3F8FC0000000A0632150C0000000009C7C1FC0000000C0FF3F8FC0000000E0831250C0000000803EE71FC00C00000013000000520500003C0000000600000002000000000000C0FF3F8FC0000000E0831250C0000000803EE71FC00000000000408F4000000060851250C0000000803EE71F
310
C00C000000130000005A0500003C00000006000000020000000000000000408F4000000000652150C0000000009C7C1FC00000000000408F4000000060851250C0000000803EE71FC00C00000013000000620500003C0000000600000002000000000000C0FF3F8FC0000000A06E0250C0000000C0290920C0000000C0FF3F
310
8FC0000000E0831250C0000000803EE71FC00C000000130000006A0500003C0000000600000002000000000000C0FF3F8FC0000000A06E0250C0000000C0290920C00000000000408F4000000020700250C0000000C0290920C00C00000013000000720500003C00000006000000020000000000000000408F400000006085
310
1250C0000000803EE71FC00000000000408F4000000020700250C0000000C0290920C00C000000130000007A0500003C0000000600000002000000000000C0FF3F8FC0000000A06E0250C0000000C0290920C0000000C0FF3F8FC0000000C033864FC0000000809D2920C00C00000013000000820500003C00000006000000
310
02000000000000C0FF3F8FC0000000C033864FC0000000809D2920C00000000000408F40000000C036864FC0000000809D2920C00C000000130000008A0500003C00000006000000020000000000000000408F4000000020700250C0000000C0290920C00000000000408F40000000C036864FC0000000809D2920C00C0000
310
0013000000920500003C0000000600000002000000000000C0FF3F8FC0000000C033864FC0000000809D2920C0000000C0FF3F8FC0000000806DEF4EC000000040316E20C00C000000130000009A0500003C0000000600000002000000000000C0FF3F8FC0000000806DEF4EC000000040316E20C00000000000408F400000
310
006070EF4EC000000040316E20C00C00000013000000A20500003C00000006000000020000000000000000408F40000000C036864FC0000000809D2920C00000000000408F400000006070EF4EC000000040316E20C00C00000013000000AA0500003C0000000600000002000000000000C0FF3F8FC0000000806DEF4EC000
310
000040316E20C0000000C0FF3F8FC00000008055334EC0000000C0EE0621C00C00000013000000B20500003C0000000600000002000000000000C0FF3F8FC00000008055334EC0000000C0EE0621C00000000000408F400000006058334EC0000000C0EE0621C00C00000013000000BA0500003C0000000600000002000000
310
0000000000408F400000006070EF4EC000000040316E20C00000000000408F400000006058334EC0000000C0EE0621C00C00000013000000C20500003C0000000600000002000000000000C0FF3F8FC00000008055334EC0000000C0EE0621C0000000C0FF3F8FC0000000A0B4534DC0000000606B2E22C00C000000130000
310
00CA0500003C0000000600000002000000000000C0FF3F8FC0000000A0B4534DC0000000606B2E22C00000000000408F40000000A0B7534DC0000000606B2E22C00C00000013000000D20500003C00000006000000020000000000000000408F400000006058334EC0000000C0EE0621C00000000000408F40000000A0B753
310
4DC0000000606B2E22C00C00000013000000DA0500003C0000000600000002000000000000C0FF3F8FC0000000A0B4534DC0000000606B2E22C0000000C0FF3F8FC00000004026524CC0000000E0B68B24C00C00000013000000E20500003C0000000600000002000000000000C0FF3F8FC00000004026524CC0000000E0B6
310
8B24C00000000000408F400000002029524CC0000000E0B68B24C00C00000013000000EA0500003C00000006000000020000000000000000408F40000000A0B7534DC0000000606B2E22C00000000000408F400000002029524CC0000000E0B68B24C00C00000013000000F20500003C0000000600000002000000000000C0
310
FF3F8FC00000004026524CC0000000E0B68B24C0000000C0FF3F8FC00000008086624BC0000000607D4828C00C00000013000000FA0500003C0000000600000002000000000000C0FF3F8FC00000008086624BC0000000607D4828C00000000000408F400000006089624BC0000000607D4828C00C00000013000000020600
310
003C00000006000000020000000000000000408F400000002029524CC0000000E0B68B24C00000000000408F400000006089624BC0000000607D4828C00C000000130000000A0600003C0000000600000002000000000000C0FF3F8FC00000008086624BC0000000607D4828C0000000C0FF3F8FC0000000E0C4C94AC00000
310
006061432CC00C00000013000000120600003C0000000600000002000000000000C0FF3F8FC0000000E0C4C94AC00000006061432CC00000000000408F40000000E0C7C94AC00000006061432CC00C000000130000001A0600003C00000006000000020000000000000000408F400000006089624BC0000000607D4828C000
310
00000000408F40000000E0C7C94AC00000006061432CC00C00000013000000220600003C0000000600000002000000000000C0FF3F8FC0000000E0C4C94AC00000006061432CC0000000C0FF3F8FC0000000002E624AC0000000205B2030C00C000000130000002A0600003C0000000600000002000000000000C0FF3F8FC0
310
000000002E624AC0000000205B2030C00000000000408F40000000E030624AC0000000005B2030C00C00000013000000320600003C00000006000000020000000000000000408F40000000E0C7C94AC00000006061432CC00000000000408F40000000E030624AC0000000005B2030C00C000000130000003A0600003C0000
310
000600000002000000000000C0FF3F8FC0000000002E624AC0000000205B2030C0000000C0FF3F8FC0000000C0B00C4AC0000000C0B58632C00C00000013000000420600003C0000000600000002000000000000C0FF3F8FC0000000C0B00C4AC0000000C0B58632C00000000000408F40000000A0B30C4AC0000000A0B586
310
32C00C000000130000004A0600003C00000006000000020000000000000000408F40000000E030624AC0000000005B2030C00000000000408F40000000A0B30C4AC0000000A0B58632C00C00000013000000520600003C0000000600000002000000000000C0FF3F8FC0000000C0B00C4AC0000000C0B58632C0000000C0FF
310
3F8FC0000000A0B0BF49C000000060355635C00C000000130000005A0600003C0000000600000002000000000000C0FF3F8FC0000000A0B0BF49C000000060355635C00000000000408F40000000A0B3BF49C000000040355635C00C00000013000000620600003C00000006000000020000000000000000408F40000000A0
310
B30C4AC0000000A0B58632C00000000000408F40000000A0B3BF49C000000040355635C00C000000130000006A0600003C0000000600000002000000000000C0FF3F8FC0000000A0B0BF49C000000060355635C0000000C0FF3F8FC0000000408C7049C000000020AD3138C00C00000013000000720600003C000000060000
310
0002000000000000C0FF3F8FC0000000408C7049C000000020AD3138C00000000000408F40000000408F7049C000000000AD3138C00C000000130000007A0600003C00000006000000020000000000000000408F40000000A0B3BF49C000000040355635C00000000000408F40000000408F7049C000000000AD3138C00C00
310
000013000000820600003C0000000600000002000000000000C0FF3F8FC0000000408C7049C000000020AD3138C0000000C0FF3F8FC0000000C0C71249C00000008095B93AC00C000000130000008A0600003C0000000600000002000000000000C0FF3F8FC0000000C0C71249C00000008095B93AC00000000000408F4000
310
0000C0CA1249C00000006095B93AC00C00000013000000920600003C00000006000000020000000000000000408F40000000408F7049C000000000AD3138C00000000000408F40000000C0CA1249C00000006095B93AC00C000000130000009A0600003C0000000600000002000000000000C0FF3F8FC0000000C0C71249C0
310
0000008095B93AC0000000C0FF3F8FC0000000C0E1A648C0000000200AB33CC00C00000013000000A20600003C0000000600000002000000000000C0FF3F8FC0000000C0E1A648C0000000200AB33CC00000000000408F40000000A0E4A648C0000000000AB33CC00C00000013000000AA0600003C00000006000000020000
310
000000000000408F40000000C0CA1249C00000006095B93AC00000000000408F40000000A0E4A648C0000000000AB33CC00C00000013000000B20600003C0000000600000002000000000000C0FF3F8FC0000000C0E1A648C0000000200AB33CC0000000C0FF3F8FC0000000202E3148C0000000E04A303EC00C0000001300
310
0000BA0600003C0000000600000002000000000000C0FF3F8FC0000000202E3148C0000000E04A303EC00000000000408F4000000000313148C0000000C04A303EC00C00000013000000C20600003C00000006000000020000000000000000408F40000000A0E4A648C0000000000AB33CC00000000000408F400000000031
310
3148C0000000C04A303EC00C00000013000000CA0600003C0000000600000002000000000000C0FF3F8FC0000000202E3148C0000000E04A303EC0000000C0FF3F8FC00000004096AB47C00000006089603FC00C00000013000000D20600003C0000000600000002000000000000C0FF3F8FC00000004096AB47C000000060
310
89603FC00000000000408F400000002099AB47C00000004089603FC00C00000013000000DA0600003C00000006000000020000000000000000408F4000000000313148C0000000C04A303EC00000000000408F400000002099AB47C00000004089603FC00C00000013000000E20600003C0000000600000002000000000000
310
C0FF3F8FC00000004096AB47C00000006089603FC0000000C0FF3F8FC000000060C30347C0000000602A3840C00C00000013000000EA0600003C0000000600000002000000000000C0FF3F8FC000000060C30347C0000000602A3840C00000000000408F4000000040C60347C0000000602A3840C00C00000013000000F206
310
00003C00000006000000020000000000000000408F400000002099AB47C00000004089603FC00000000000408F4000000040C60347C0000000602A3840C00C00000013000000FA0600003C0000000600000002000000000000C0FF3F8FC000000060C30347C0000000602A3840C0000000C0FF3F8FC0000000C0E20C46C000
310
0000C0A5BE40C00C00000013000000020700003C0000000600000002000000000000C0FF3F8FC0000000C0E20C46C0000000C0A5BE40C00000000000408F40000000A0E50C46C0000000C0A5BE40C00C000000130000000A0700003C00000006000000020000000000000000408F4000000040C60347C0000000602A3840C0
310
0000000000408F40000000A0E50C46C0000000C0A5BE40C00C00000013000000120700003C0000000600000002000000000000C0FF3F8FC0000000C0E20C46C0000000C0A5BE40C0000000C0FF3F8FC000000060321345C000000060141641C00C000000130000001A0700003C0000000600000002000000000000C0FF3F8F
310
C000000060321345C000000060141641C00000000000408F4000000040351345C000000060141641C00C00000013000000220700003C00000006000000020000000000000000408F40000000A0E50C46C0000000C0A5BE40C00000000000408F4000000040351345C000000060141641C00C000000130000002A0700003C00
310
00000600000002000000000000C0FF3F8FC000000060321345C000000060141641C0000000C0FF3F8FC0000000C0BCF543C000000060995241C00C00000013000000320700003C0000000600000002000000000000C0FF3F8FC0000000C0BCF543C000000060995241C00000000000408F40000000A0BFF543C00000006099
310
5241C00C000000130000003A0700003C00000006000000020000000000000000408F4000000040351345C000000060141641C00000000000408F40000000A0BFF543C000000060995241C00C00000013000000420700003C0000000600000002000000000000C0FF3F8FC0000000C0BCF543C000000060995241C0000000C0
310
FF3F8FC000000060E4A142C000000040147641C00C000000130000004A0700003C0000000600000002000000000000C0FF3F8FC000000060E4A142C000000040147641C00000000000408F4000000040E7A142C000000040147641C00C00000013000000520700003C00000006000000020000000000000000408F40000000
310
A0BFF543C000000060995241C00000000000408F4000000040E7A142C000000040147641C00C000000130000005A0700003C0000000600000002000000000000C0FF3F8FC000000060E4A142C000000040147641C0000000C0FF3F8FC000000060779941C0000000A0F07F41C00C00000013000000620700003C0000000600
310
000002000000000000C0FF3F8FC000000060779941C0000000A0F07F41C00000000000408F40000000407A9941C0000000A0F07F41C00C000000130000006A0700003C00000006000000020000000000000000408F4000000040E7A142C000000040147641C00000000000408F40000000407A9941C0000000A0F07F41C00C
310
00000013000000720700003C0000000600000002000000000000C0FF3F8FC000000060779941C0000000A0F07F41C0000000C0FF3F8FC0000000C0B88C41C0000000C0688341C00C000000130000007A0700003C0000000600000002000000000000C0FF3F8FC0000000C0B88C41C0000000C0688341C00000000000408F40
310
000000A0BB8C41C0000000C0688341C00C00000013000000820700003C00000006000000020000000000000000408F40000000407A9941C0000000A0F07F41C00000000000408F40000000A0BB8C41C0000000C0688341C00C000000130000008A0700003C0000000600000002000000000000C0FF3F8FC0000000C0B88C41
310
C0000000C0688341C0000000C0FF3F8FC0000000A0658341C000000060C78C41C00C00000013000000920700003C0000000600000002000000000000C0FF3F8FC0000000A0658341C000000060C78C41C00000000000408F4000000080688341C000000060C78C41C00C000000130000009A0700003C000000060000000200
310
00000000000000408F4000000080688341C000000060C78C41C00000000000408F40000000A0BB8C41C0000000C0688341C00C00000013000000A20700003C0000000600000002000000000000C0FF3F8FC000000000FD7F41C0000000208A9941C0000000C0FF3F8FC0000000A0658341C000000060C78C41C00C00000013
310
000000AA0700003C0000000600000002000000000000C0FF3F8FC000000000FD7F41C0000000208A9941C00000000000408F40000000E0FF7F41C0000000208A9941C00C00000013000000B20700003C00000006000000020000000000000000408F4000000080688341C000000060C78C41C00000000000408F40000000E0
310
FF7F41C0000000208A9941C00C00000013000000BA0700003C0000000600000002000000000000C0FF3F8FC000000000FD7F41C0000000208A9941C0000000C0FF3F8FC000000020FD7F41C0000000C0BE0246C00C00000013000000C20700003C0000000600000002000000000000C0FF3F8FC000000020FD7F41C0000000
310
C0BE0246C00000000000408F4000000000008041C0000000C0BE0246C00C00000013000000CA0700003C00000006000000020000000000000000408F40000000E0FF7F41C0000000208A9941C00000000000408F4000000000008041C0000000C0BE0246C00C00000013000000D20700003C00000006000000020000000000
310
00C0FF3F8FC000000020FD7F41C0000000C0BE0246C0000000C0FF3F8FC0000000A0DB7B41C000000020FF2246C00C00000013000000DA0700003C0000000600000002000000000000C0FF3F8FC0000000A0DB7B41C000000020FF2246C00000000000408F4000000080DE7B41C000000020FF2246C00C00000013000000E2
310
0700003C00000006000000020000000000000000408F4000000000008041C0000000C0BE0246C00000000000408F4000000080DE7B41C000000020FF2246C00C00000013000000EA0700003C0000000600000002000000000000C0FF3F8FC0000000A0DB7B41C000000020FF2246C0000000C0FF3F8FC000000040BE6F41C0
310
00000000274146C00C00000013000000F20700003C0000000600000002000000000000C0FF3F8FC000000040BE6F41C000000000274146C00000000000408F4000000040C16F41C000000000274146C00C00000013000000FA0700003C00000006000000020000000000000000408F4000000080DE7B41C000000020FF2246
310
C00000000000408F4000000040C16F41C000000000274146C00C00000013000000020800003C0000000600000002000000000000C0FF3F8FC000000040BE6F41C000000000274146C0000000C0FF3F8FC0000000E0695C41C0000000604C5B46C00C000000130000000A0800003C0000000600000002000000000000C0FF3F
310
8FC0000000E0695C41C0000000604C5B46C00000000000408F40000000C06C5C41C0000000604C5B46C00C00000013000000120800003C00000006000000020000000000000000408F4000000040C16F41C000000000274146C00000000000408F40000000C06C5C41C0000000604C5B46C00C000000130000001A0800003C
310
0000000600000002000000000000C0FF3F8FC0000000E0695C41C0000000604C5B46C0000000C0FF3F8FC0000000401E4341C000000060BA6F46C00C00000013000000220800003C0000000600000002000000000000C0FF3F8FC0000000401E4341C000000060BA6F46C00000000000408F4000000040214341C000000060
310
BA6F46C00C000000130000002A0800003C00000006000000020000000000000000408F4000000040214341C000000060BA6F46C00000000000408F40000000C06C5C41C0000000604C5B46C00C00000013000000320800003C0000000600000002000000000000C0FF3F8FC0000000401E4341C000000060BA6F46C0000000
310
C0FF3F8FC000000020822541C0000000201F7D46C00C000000130000003A0800003C0000000600000002000000000000C0FF3F8FC000000020822541C0000000201F7D46C00000000000408F4000000000852541C0000000201F7D46C00C00000013000000420800003C00000006000000020000000000000000408F400000
310
0040214341C000000060BA6F46C00000000000408F4000000000852541C0000000201F7D46C00C000000130000004A0800003C0000000600000002000000000000C0FF3F8FC000000080760541C0000000C0A08246C0000000C0FF3F8FC000000020822541C0000000201F7D46C00C00000013000000520800003C00000006
310
00000002000000000000C0FF3F8FC000000080760541C0000000C0A08246C00000000000408F4000000080790541C0000000C0A08246C00C000000130000005A0800003C00000006000000020000000000000000408F4000000000852541C0000000201F7D46C00000000000408F4000000080790541C0000000C0A08246C0
310
0C00000013000000620800003C0000000600000002000000000000C0FF3F8FC000000080760541C0000000C0A08246C0000000C0FF3F8FC0000000A0736D40C0000000801F8D46C00C000000130000006A0800003C0000000600000002000000000000C0FF3F8FC0000000A0736D40C0000000801F8D46C00000000000408F
310
4000000080766D40C0000000801F8D46C00C00000013000000720800003C00000006000000020000000000000000408F4000000080790541C0000000C0A08246C00000000000408F4000000080766D40C0000000801F8D46C00C000000130000007A0800003C0000000600000002000000000000C0FF3F8FC0000000A0736D
310
40C0000000801F8D46C0000000C0FF3F8FC0000000C0A4D23EC0000000E001B446C00C00000013000000820800003C0000000600000002000000000000C0FF3F8FC0000000C0A4D23EC0000000E001B446C00000000000408F40000000A0AAD23EC0000000E001B446C00C000000130000008A0800003C0000000600000002
310
0000000000000000408F4000000080766D40C0000000801F8D46C00000000000408F40000000A0AAD23EC0000000E001B446C00C00000013000000920800003C0000000600000002000000000000C0FF3F8FC0000000C0A4D23EC0000000E001B446C0000000C0FF3F8FC000000040419B3BC0000000607C1D47C00C000000
310
130000009A0800003C0000000600000002000000000000C0FF3F8FC000000040419B3BC0000000607C1D47C00000000000408F4000000040479B3BC0000000607C1D47C00C00000013000000A20800003C00000006000000020000000000000000408F40000000A0AAD23EC0000000E001B446C00000000000408F40000000
310
40479B3BC0000000607C1D47C00C00000013000000AA0800003C0000000600000002000000000000C0FF3F8FC000000040419B3BC0000000607C1D47C0000000C0FF3F8FC0000000C01E1639C000000060D19C47C00C00000013000000B20800003C0000000600000002000000000000C0FF3F8FC0000000C01E1639C00000
310
0060D19C47C00000000000408F40000000C0241639C000000060D19C47C00C00000013000000BA0800003C00000006000000020000000000000000408F4000000040479B3BC0000000607C1D47C00000000000408F40000000C0241639C000000060D19C47C00C00000013000000C20800003C000000060000000200000000
310
0000C0FF3F8FC0000000C01E1639C000000060D19C47C0000000C0FF3F8FC000000040A7A736C0000000E0034048C00C00000013000000CA0800003C0000000600000002000000000000C0FF3F8FC000000040A7A736C0000000E0034048C00000000000408F4000000040ADA736C0000000E0034048C00C00000013000000
310
D20800003C00000006000000020000000000000000408F40000000C0241639C000000060D19C47C00000000000408F4000000040ADA736C0000000E0034048C00C00000013000000DA0800003C0000000600000002000000000000C0FF3F8FC000000040A7A736C0000000E0034048C0000000C0FF3F8FC000000040AB6B34
310
C0000000C0C1FE48C00C00000013000000E20800003C0000000600000002000000000000C0FF3F8FC000000040AB6B34C0000000C0C1FE48C00000000000408F4000000040B16B34C0000000A0C1FE48C00C00000013000000EA0800003C00000006000000020000000000000000408F4000000040ADA736C0000000E00340
310
48C00000000000408F4000000040B16B34C0000000A0C1FE48C00C00000013000000F20800003C0000000600000002000000000000C0FF3F8FC000000040AB6B34C0000000C0C1FE48C0000000C0FF3F8FC000000000E45332C00000004075DC49C00C00000013000000FA0800003C0000000600000002000000000000C0FF
310
3F8FC000000000E45332C00000004075DC49C00000000000408F4000000000EA5332C00000004075DC49C00C00000013000000020900003C00000006000000020000000000000000408F4000000040B16B34C0000000A0C1FE48C00000000000408F4000000000EA5332C00000004075DC49C00C000000130000000A090000
310
3C0000000600000002000000000000C0FF3F8FC000000000E45332C00000004075DC49C0000000C0FF3F8FC000000000186D30C0000000C0E1D34AC00C00000013000000120900003C0000000600000002000000000000C0FF3F8FC000000000186D30C0000000C0E1D34AC00000000000408F40000000201E6D30C0000000
310
C0E1D34AC00C000000130000001A0900003C00000006000000020000000000000000408F4000000000EA5332C00000004075DC49C00000000000408F40000000201E6D30C0000000C0E1D34AC00C00000013000000220900003C0000000600000002000000000000C0FF3F8FC000000000186D30C0000000C0E1D34AC00000
310
00C0FF3F8FC0000000A01B8B2DC000000080D7DB4BC00C000000130000002A0900003C0000000600000002000000000000C0FF3F8FC0000000A01B8B2DC000000080D7DB4BC00000000000408F4000000060278B2DC000000080D7DB4BC00C00000013000000320900003C00000006000000020000000000000000408F4000
310
0000201E6D30C0000000C0E1D34AC00000000000408F4000000060278B2DC000000080D7DB4BC00C000000130000003A0900003C0000000600000002000000000000C0FF3F8FC0000000A01B8B2DC000000080D7DB4BC0000000C0FF3F8FC0000000603AC02AC000000040A5EE4CC00C00000013000000420900003C000000
310
0600000002000000000000C0FF3F8FC0000000603AC02AC000000040A5EE4CC00000000000408F400000006046C02AC000000040A5EE4CC00C000000130000004A0900003C00000006000000020000000000000000408F4000000060278B2DC000000080D7DB4BC00000000000408F400000006046C02AC000000040A5EE4C
310
C00C00000013000000520900003C0000000600000002000000000000C0FF3F8FC0000000603AC02AC000000040A5EE4CC0000000C0FF3F8FC000000040AD6628C00000008055114EC00C000000130000005A0900003C0000000600000002000000000000C0FF3F8FC000000040AD6628C00000008055114EC0000000000040
310
8F4000000040B96628C00000008055114EC00C00000013000000620900003C00000006000000020000000000000000408F400000006046C02AC000000040A5EE4CC00000000000408F4000000040B96628C00000008055114EC00C000000130000006A0900003C0000000600000002000000000000C0FF3F8FC000000040AD
310
6628C00000008055114EC0000000C0FF3F8FC000000040E29026C0000000C099384FC00C00000013000000720900003C0000000600000002000000000000C0FF3F8FC000000040E29026C0000000C099384FC00000000000408F4000000000EE9026C0000000C099384FC00C000000130000007A0900003C00000006000000
310
020000000000000000408F4000000040B96628C00000008055114EC00000000000408F4000000000EE9026C0000000C099384FC00C00000013000000820900003C0000000600000002000000000000C0FF3F8FC000000040E29026C0000000C099384FC0000000C0FF3F8FC0000000C02E1B25C000000040AF4250C00C0000
310
00130000008A0900003C0000000600000002000000000000C0FF3F8FC0000000C02E1B25C000000040AF4250C00000000000408F40000000C03A1B25C000000040AF4250C00C00000013000000920900003C00000006000000020000000000000000408F4000000000EE9026C0000000C099384FC00000000000408F400000
310
00C03A1B25C000000040AF4250C00C000000130000009A0900003C0000000600000002000000000000C0FF3F8FC0000000C02E1B25C000000040AF4250C0000000C0FF3F8FC000000040305724C000000040DBD250C00C00000013000000A20900003C0000000600000002000000000000C0FF3F8FC000000040305724C000
310
000040DBD250C00000000000408F40000000403C5724C000000040DBD250C00C00000013000000AA0900003C00000006000000020000000000000000408F40000000C03A1B25C000000040AF4250C00000000000408F40000000403C5724C000000040DBD250C00C00000013000000B20900003C0000000600000002000000
310
000000C0FF3F8FC000000040305724C000000040DBD250C0000000C0FF3F8FC000000000770A24C0000000C0BC4251C00C00000013000000BA0900003C0000000600000002000000000000C0FF3F8FC000000000770A24C0000000C0BC4251C00000000000408F4000000000830A24C0000000C0BC4251C00C000000130000
310
00C20900003C00000006000000020000000000000000408F40000000403C5724C000000040DBD250C00000000000408F4000000000830A24C0000000C0BC4251C00C00000013000000CA0900003C0000000600000002000000000000C0FF3F8FC000000000770A24C0000000C0BC4251C0000000C0FF3F8FC00000000070F4
310
23C000000080C25251C00C00000013000000D20900003C0000000600000002000000000000C0FF3F8FC00000000070F423C000000080C25251C00000000000408F40000000007CF423C000000080C25251C00C00000013000000DA0900003C00000006000000020000000000000000408F4000000000830A24C0000000C0BC
310
4251C00000000000408F40000000007CF423C000000080C25251C00C00000013000000E20900003C0000000600000002000000000000C0FF3F8FC00000000070F423C000000080C25251C0000000C0FF3F8FC000000080DDBE23C0000000A0906151C00C00000013000000EA0900003C0000000600000002000000000000C0
310
FF3F8FC000000080DDBE23C0000000A0906151C00000000000408F4000000080E9BE23C0000000A0906151C00C00000013000000F20900003C00000006000000020000000000000000408F40000000007CF423C000000080C25251C00000000000408F4000000080E9BE23C0000000A0906151C00C00000013000000FA0900
310
003C0000000600000002000000000000C0FF3F8FC000000080DDBE23C0000000A0906151C0000000C0FF3F8FC000000000256D23C000000060366E51C00C00000013000000020A00003C0000000600000002000000000000C0FF3F8FC000000000256D23C000000060366E51C00000000000408F4000000000316D23C00000
310
0060366E51C00C000000130000000A0A00003C00000006000000020000000000000000408F4000000080E9BE23C0000000A0906151C00000000000408F4000000000316D23C000000060366E51C00C00000013000000120A00003C0000000600000002000000000000C0FF3F8FC000000000256D23C000000060366E51C000
310
0000C0FF3F8FC0000000808F0423C000000080E07751C00C000000130000001A0A00003C0000000600000002000000000000C0FF3F8FC0000000808F0423C000000080E07751C00000000000408F40000000809B0423C000000080E07751C00C00000013000000220A00003C00000006000000020000000000000000408F40
310
000000809B0423C000000080E07751C00000000000408F4000000000316D23C000000060366E51C00C000000130000002A0A00003C0000000600000002000000000000C0FF3F8FC0000000808F0423C000000080E07751C0000000C0FF3F8FC000000080F08B22C000000040EF7D51C00C00000013000000320A00003C0000
310
000600000002000000000000C0FF3F8FC000000080F08B22C000000040EF7D51C00000000000408F4000000080FC8B22C000000040EF7D51C00C000000130000003A0A00003C00000006000000020000000000000000408F4000000080FC8B22C000000040EF7D51C00000000000408F40000000809B0423C000000080E077
310
51C00C00000013000000420A00003C0000000600000002000000000000C0FF3F8FC000000000EF0A22C000000000008051C0000000C0FF3F8FC000000080F08B22C000000040EF7D51C00C000000130000004A0A00003C0000000600000002000000000000C0FF3F8FC000000000EF0A22C000000000008051C00000000000
310
408F4000000000FB0A22C000000000008051C00C00000013000000520A00003C00000006000000020000000000000000408F4000000000FB0A22C000000000008051C00000000000408F4000000080FC8B22C000000040EF7D51C00C000000130000005A0A00003C0000000600000002000000000000C0FF3F8FC000000000
310
EF0A22C000000000008051C0000000C0FF3F8FC0000000A08585183F00000000008051C00C00000013000000620A00003C00000006000000020000000000000000408F40000000C0BAFAC53E00000000008051C00000000000408F4000000000FB0A22C000000000008051C00C000000130000006A0A00003C000000060000
310
0002000000000000C0FF3F8FC000000000EF0A22C000000000008051C0000000C0FF3F8FC0000000A05994DFBF000000C0232C50C00C00000013000000720A00003C0000000600000002000000000000C0FF3F8FC0000000200F7E4AC0000000C019A0E8BF000000C0FF3F8FC0000000A03E3F4DC0000000C04211EBBF0C00
310
0000130000007A0A00003C0000000600000002000000000000C0FF3F8FC0000000A0FE3F50C00000000012131CC0000000C0FF3F8FC0000000202A3F4EC000000020460FDCBF0C00000013000000820A00003C0000000600000002000000000000C0FF3F8FC0000000A0EA3D50C000000080DB151DC0000000C0FF3F8FC000
310
0000202A3F4EC000000020460FDCBF0C000000130000008A0A00003C0000000600000002000000000000C0FF3F8FC0000000A0D23750C000000000B9071EC0000000C0FF3F8FC0000000202A3F4EC000000020460FDCBF0C00000013000000920A00003C0000000600000002000000000000C0FF3F8FC0000000601A2E50C0
310
000000003AD91EC0000000C0FF3F8FC0000000202A3F4EC000000020460FDCBF0C000000130000009A0A00003C0000000600000002000000000000C0FF3F8FC0000000A0632150C0000000009C7C1FC0000000C0FF3F8FC0000000202A3F4EC000000020460FDCBF0C00000013000000A20A00003C00000006000000020000
310
00000000C0FF3F8FC0000000E0831250C0000000803EE71FC0000000C0FF3F8FC00000006080F34DC000000000131DEBBF0C00000013000000AA0A00003C0000000600000002000000000000C0FF3F8FC0000000A06E0250C0000000C0290920C0000000C0FF3F8FC0000000A05A994DC0000000E0C2B4EFBF0C0000001300
310
0000B20A00003C0000000600000002000000000000C0FF3F8FC0000000C033864FC0000000809D2920C0000000C0FF3F8FC0000000A05A994DC0000000E0C2B4EFBF0C00000013000000BA0A00003C0000000600000002000000000000C0FF3F8FC0000000806DEF4EC000000040316E20C0000000C0FF3F8FC0000000A05A
310
994DC0000000E0C2B4EFBF0C00000013000000C20A00003C0000000600000002000000000000C0FF3F8FC0000000806DEF4EC000000040316E20C0000000C0FF3F8FC0000000200F7E4AC0000000C019A0E8BF0C00000013000000CA0A00003C0000000600000002000000000000C0FF3F8FC00000008055334EC0000000C0
310
EE0621C0000000C0FF3F8FC00000002011674AC0000000E0CC97FDBF0C00000013000000D20A00003C0000000600000002000000000000C0FF3F8FC0000000A0B4534DC0000000606B2E22C0000000C0FF3F8FC000000000AC0A4AC00000006038850AC00C00000013000000DA0A00003C0000000600000002000000000000
310
C0FF3F8FC00000004026524CC0000000E0B68B24C0000000C0FF3F8FC000000040C01049C0000000A0BB6215C00C00000013000000E20A00003C0000000600000002000000000000C0FF3F8FC00000008086624BC0000000607D4828C0000000C0FF3F8FC0000000A03BD747C000000000F4AE20C00C00000013000000EA0A
310
00003C0000000600000002000000000000C0FF3F8FC0000000E0C4C94AC00000006061432CC0000000C0FF3F8FC0000000001E0047C0000000C012F626C00C00000013000000F20A00003C0000000600000002000000000000C0FF3F8FC0000000002E624AC0000000205B2030C0000000C0FF3F8FC0000000005C7946C000
310
00004099A52CC00C00000013000000FA0A00003C0000000600000002000000000000C0FF3F8FC0000000C0B00C4AC0000000C0B58632C0000000C0FF3F8FC000000040E51146C0000000E0D77331C00C00000013000000020B00003C0000000600000002000000000000C0FF3F8FC0000000A0B0BF49C000000060355635C0
310
000000C0FF3F8FC0000000A0EFA445C00000000097EE34C00C000000130000000A0B00003C0000000600000002000000000000C0FF3F8FC0000000408C7049C000000020AD3138C0000000C0FF3F8FC0000000C06B1D45C000000000ED1A37C00C00000013000000120B00003C0000000600000002000000000000C0FF3F8F
310
C0000000C0C71249C00000008095B93AC0000000C0FF3F8FC0000000C0179944C0000000005B5938C00C000000130000001A0B00003C0000000600000002000000000000C0FF3F8FC0000000C0E1A648C0000000200AB33CC0000000C0FF3F8FC00000004061FA43C000000000376339C00C00000013000000220B00003C00
310
00000600000002000000000000C0FF3F8FC0000000202E3148C0000000E04A303EC0000000C0FF3F8FC0000000406B4643C000000000E72F3AC00C000000130000002A0B00003C0000000600000002000000000000C0FF3F8FC00000004096AB47C00000006089603FC0000000C0FF3F8FC0000000C0088342C000000000CB
310
B83AC00C00000013000000320B00003C0000000600000002000000000000C0FF3F8FC000000060C30347C0000000602A3840C0000000C0FF3F8FC0000000C0088342C000000000CBB83AC00C000000130000003A0B00003C0000000600000002000000000000C0FF3F8FC0000000C0E20C46C0000000C0A5BE40C0000000C0
310
FF3F8FC0000000C0088342C000000000CBB83AC00C00000013000000420B00003C0000000600000002000000000000C0FF3F8FC000000060321345C000000060141641C0000000C0FF3F8FC0000000C0088342C000000000CBB83AC00C000000130000004A0B00003C0000000600000002000000000000C0FF3F8FC0000000
310
C0BCF543C000000060995241C0000000C0FF3F8FC000000040DD5341C0000000E06A0B3BC00C00000013000000520B00003C0000000600000002000000000000C0FF3F8FC000000060E4A142C000000040147641C0000000C0FF3F8FC000000060903440C000000040787F3BC00C000000130000005A0B00003C0000000600
310
000002000000000000C0FF3F8FC000000060779941C0000000A0F07F41C0000000C0FF3F8FC0000000A091083FC000000000AF253CC00C00000013000000620B00003C0000000600000002000000000000C0FF3F8FC000000000FD7F41C0000000208A9941C0000000C0FF3F8FC000000040BD343BC0000000C0A5CA40C00C
310
000000130000006A0B00003C0000000600000002000000000000C0FF3F8FC0000000A0658341C000000060C78C41C0000000C0FF3F8FC00000004073573CC0000000403CC93EC00C00000013000000720B00003C0000000600000002000000000000C0FF3F8FC0000000C0B88C41C0000000C0688341C0000000C0FF3F8FC0
310
00000060DCCC3DC0000000A0460A3DC00C000000130000007A0B00003C0000000600000002000000000000C0FF3F8FC000000020FD7F41C0000000C0BE0246C0000000C0FF3F8FC0000000C0DDAF3AC0000000003B0C42C00C00000013000000820B00003C0000000600000002000000000000C0FF3F8FC000000020822541
310
C0000000201F7D46C0000000C0FF3F8FC0000000406BDE39C0000000A0D3CB42C00C000000130000008A0B00003C0000000600000002000000000000C0FF3F8FC0000000401E4341C000000060BA6F46C0000000C0FF3F8FC0000000406BDE39C0000000A0D3CB42C00C00000013000000920B00003C000000060000000200
310
0000000000C0FF3F8FC000000080760541C0000000C0A08246C0000000C0FF3F8FC0000000406BDE39C0000000A0D3CB42C00C000000130000009A0B00003C0000000600000002000000000000C0FF3F8FC0000000A0DB7B41C000000020FF2246C0000000C0FF3F8FC0000000C0DDAF3AC0000000003B0C42C00C00000013
310
000000A20B00003C0000000600000002000000000000C0FF3F8FC000000040BE6F41C000000000274146C0000000C0FF3F8FC0000000C0DDAF3AC0000000003B0C42C00C00000013000000AA0B00003C0000000600000002000000000000C0FF3F8FC0000000E0695C41C0000000604C5B46C0000000C0FF3F8FC000000040
310
6BDE39C0000000A0D3CB42C00C00000013000000B20B00003C0000000600000002000000000000C0FF3F8FC0000000A0736D40C0000000801F8D46C0000000C0FF3F8FC000000000110B39C0000000A02D3143C00C00000013000000BA0B00003C0000000600000002000000000000C0FF3F8FC0000000C0A4D23EC0000000
310
E001B446C0000000C0FF3F8FC0000000C0240F38C000000060CE7B43C00C00000013000000C20B00003C0000000600000002000000000000C0FF3F8FC000000040419B3BC0000000607C1D47C0000000C0FF3F8FC000000040EEB635C000000020A7FB43C00C00000013000000CA0B00003C00000006000000020000000000
310
00C0FF3F8FC0000000C01E1639C000000060D19C47C0000000C0FF3F8FC00000000000B932C0000000A0EAC344C00C00000013000000D20B00003C0000000600000002000000000000C0FF3F8FC000000040A7A736C0000000E0034048C0000000C0FF3F8FC000000040322630C0000000001C9A45C00C00000013000000DA
310
0B00003C0000000600000002000000000000C0FF3F8FC000000040AB6B34C0000000C0C1FE48C0000000C0FF3F8FC0000000C0C6682BC000000000769046C00C00000013000000E20B00003C0000000600000002000000000000C0FF3F8FC000000000E45332C00000004075DC49C0000000C0FF3F8FC0000000C03CD126C0
310
000000409FA647C00C00000013000000EA0B00003C0000000600000002000000000000C0FF3F8FC000000000186D30C0000000C0E1D34AC0000000C0FF3F8FC000000020129A22C000000000D1D948C00C00000013000000F20B00003C0000000600000002000000000000C0FF3F8FC0000000A01B8B2DC000000080D7DB4B
310
C0000000C0FF3F8FC000000060CDBB1DC000000040E6224AC00C00000013000000FA0B00003C0000000600000002000000000000C0FF3F8FC0000000603AC02AC000000040A5EE4CC0000000C0FF3F8FC0000000E06D6517C00000004020754BC00C00000013000000020C00003C0000000600000002000000000000C0FF3F
310
8FC000000040AD6628C00000008055114EC0000000C0FF3F8FC000000060631B11C0000000C0CB714CC00C000000130000000A0C00003C0000000600000002000000000000C0FF3F8FC000000040E29026C0000000C099384FC0000000C0FF3F8FC00000008028D800C0000000C09DEF4CC00C00000013000000120C00003C
310
0000000600000002000000000000C0FF3F8FC00000008028D800C0000000C09DEF4CC0000000C0FF3F8FC000000040FD08E1BF00000000DEDC4EC00C000000130000001A0C00003C0000000600000002000000000000C0FF3F8FC000000040E29026C0000000C099384FC0000000C0FF3F8FC000000040FD7FEDBF00000040
310
4E0E4FC00C00000013000000220C00003C0000000600000002000000000000C0FF3F8FC0000000C02E1B25C000000040AF4250C0000000C0FF3F8FC0000000A032CCF3BF000000802B624FC00C000000130000002A0C00003C0000000600000002000000000000C0FF3F8FC000000040305724C000000040DBD250C0000000
310
C0FF3F8FC0000000A032CCF3BF000000802B624FC00C00000013000000320C00003C0000000600000002000000000000C0FF3F8FC000000000770A24C0000000C0BC4251C0000000C0FF3F8FC000000080AE42F4BF000000002DBF4FC00C000000130000003A0C00003C0000000600000002000000000000C0FF3F8FC00000
310
0080F08B22C000000040EF7D51C0000000C0FF3F8FC0000000A05994DFBF000000C0232C50C00C00000013000000420C00003C0000000600000002000000000000C0FF3F8FC00000000070F423C000000080C25251C0000000C0FF3F8FC000000080AE42F4BF000000002DBF4FC00C000000130000004A0C00003C00000006
310
00000002000000000000C0FF3F8FC0000000808F0423C000000080E07751C0000000C0FF3F8FC000000080E20FF0BF00000040FE0A50C00C00000013000000520C00003C0000000600000002000000000000C0FF3F8FC000000000256D23C000000060366E51C0000000C0FF3F8FC000000080E20FF0BF00000040FE0A50C0
310
0C000000130000005A0C00003C0000000600000002000000000000C0FF3F8FC000000080DDBE23C0000000A0906151C0000000C0FF3F8FC000000080E20FF0BF00000040FE0A50C00C00000013000000620C00003C00000006000000020000000000000000408F40000000E0D695DFBF000000C0232C50C00000000000408F
310
4000000000FB0A22C000000000008051C00C000000130000006A0C00003C00000006000000020000000000000000408F4000000020127E4AC0000000C019A0E8BF0000000000408F40000000A0413F4DC0000000C03A11EBBF0C00000013000000720C00003C00000006000000020000000000000000408F40000000202D3F
310
4EC000000020360FDCBF0000000000408F4000000020004050C00000000012131CC00C000000130000007A0C00003C00000006000000020000000000000000408F40000000202D3F4EC000000020360FDCBF0000000000408F4000000020EC3D50C000000080DB151DC00C00000013000000820C00003C0000000600000002
310
0000000000000000408F40000000202D3F4EC000000020360FDCBF0000000000408F4000000020D43750C000000000B9071EC00C000000130000008A0C00003C00000006000000020000000000000000408F40000000202D3F4EC000000020360FDCBF0000000000408F40000000E01B2E50C0000000003AD91EC00C000000
310
13000000920C00003C00000006000000020000000000000000408F40000000202D3F4EC000000020360FDCBF0000000000408F4000000000652150C0000000009C7C1FC00C000000130000009A0C00003C00000006000000020000000000000000408F400000006083F34DC0000000000B1DEBBF0000000000408F40000000
310
60851250C0000000803EE71FC00C00000013000000A20C00003C00000006000000020000000000000000408F40000000A05D994DC0000000E0BAB4EFBF0000000000408F4000000020700250C0000000C0290920C00C00000013000000AA0C00003C00000006000000020000000000000000408F40000000A05D994DC00000
310
00E0BAB4EFBF0000000000408F40000000C036864FC0000000809D2920C00C00000013000000B20C00003C00000006000000020000000000000000408F40000000A05D994DC0000000E0BAB4EFBF0000000000408F400000006070EF4EC000000040316E20C00C00000013000000BA0C00003C000000060000000200000000
310
00000000408F4000000020127E4AC0000000C019A0E8BF0000000000408F400000006070EF4EC000000040316E20C00C00000013000000C20C00003C00000006000000020000000000000000408F400000002014674AC0000000E0CC97FDBF0000000000408F400000006058334EC0000000C0EE0621C00C00000013000000
310
CA0C00003C00000006000000020000000000000000408F40000000E0AE0A4AC00000006037850AC00000000000408F40000000A0B7534DC0000000606B2E22C00C00000013000000D20C00003C00000006000000020000000000000000408F4000000020C31049C000000020BB6215C00000000000408F400000002029524C
310
C0000000E0B68B24C00C00000013000000DA0C00003C00000006000000020000000000000000408F40000000A03ED747C0000000C0F3AE20C00000000000408F400000006089624BC0000000607D4828C00C00000013000000E20C00003C00000006000000020000000000000000408F40000000E0200047C00000008012F6
310
26C00000000000408F40000000E0C7C94AC00000006061432CC00C00000013000000EA0C00003C00000006000000020000000000000000408F40000000E05E7946C00000000099A52CC00000000000408F40000000E030624AC0000000005B2030C00C00000013000000F20C00003C00000006000000020000000000000000
310
408F4000000040E81146C0000000E0D77331C00000000000408F40000000A0B30C4AC0000000A0B58632C00C00000013000000FA0C00003C00000006000000020000000000000000408F40000000A0F2A445C00000000097EE34C00000000000408F40000000A0B3BF49C000000040355635C00C00000013000000020D0000
310
3C00000006000000020000000000000000408F40000000A06E1D45C000000000ED1A37C00000000000408F40000000408F7049C000000000AD3138C00C000000130000000A0D00003C00000006000000020000000000000000408F40000000801A9944C0000000005B5938C00000000000408F40000000C0CA1249C0000000
310
6095B93AC00C00000013000000120D00003C00000006000000020000000000000000408F400000002064FA43C000000000376339C00000000000408F40000000A0E4A648C0000000000AB33CC00C000000130000001A0D00003C00000006000000020000000000000000408F40000000206E4643C000000000E72F3AC00000
310
000000408F4000000000313148C0000000C04A303EC00C00000013000000220D00003C00000006000000020000000000000000408F40000000C00B8342C000000000CBB83AC00000000000408F400000002099AB47C00000004089603FC00C000000130000002A0D00003C00000006000000020000000000000000408F4000
310
0000C00B8342C000000000CBB83AC00000000000408F4000000040C60347C0000000602A3840C00C00000013000000320D00003C00000006000000020000000000000000408F40000000C00B8342C000000000CBB83AC00000000000408F40000000A0E50C46C0000000C0A5BE40C00C000000130000003A0D00003C000000
310
06000000020000000000000000408F40000000C00B8342C000000000CBB83AC00000000000408F4000000040351345C000000060141641C00C00000013000000420D00003C00000006000000020000000000000000408F4000000020E05341C0000000E06A0B3BC00000000000408F40000000A0BFF543C000000060995241
310
C00C000000130000004A0D00003C00000006000000020000000000000000408F4000000020933440C000000020787F3BC00000000000408F4000000040E7A142C000000040147641C00C00000013000000520D00003C00000006000000020000000000000000408F40000000A097083FC0000000E0AE253CC0000000000040
310
8F40000000407A9941C0000000A0F07F41C00C000000130000005A0D00003C00000006000000020000000000000000408F400000002079573CC0000000203CC93EC00000000000408F4000000080688341C000000060C78C41C00C00000013000000620D00003C00000006000000020000000000000000408F4000000040C3
310
343BC0000000C0A5CA40C00000000000408F40000000E0FF7F41C0000000208A9941C00C000000130000006A0D00003C00000006000000020000000000000000408F4000000060E2CC3DC000000080460A3DC00000000000408F40000000A0BB8C41C0000000C0688341C00C00000013000000720D00003C00000006000000
310
020000000000000000408F40000000C0E3AF3AC0000000003B0C42C00000000000408F4000000000008041C0000000C0BE0246C00C000000130000007A0D00003C00000006000000020000000000000000408F400000002071DE39C0000000A0D3CB42C00000000000408F4000000040214341C000000060BA6F46C00C0000
310
0013000000820D00003C00000006000000020000000000000000408F400000002071DE39C0000000A0D3CB42C00000000000408F4000000000852541C0000000201F7D46C00C000000130000008A0D00003C00000006000000020000000000000000408F400000002071DE39C0000000A0D3CB42C00000000000408F400000
310
0080790541C0000000C0A08246C00C00000013000000920D00003C00000006000000020000000000000000408F40000000C0E3AF3AC0000000003B0C42C00000000000408F4000000080DE7B41C000000020FF2246C00C000000130000009A0D00003C00000006000000020000000000000000408F40000000C0E3AF3AC000
310
0000003B0C42C00000000000408F4000000040C16F41C000000000274146C00C00000013000000A20D00003C00000006000000020000000000000000408F400000002071DE39C0000000A0D3CB42C00000000000408F40000000C06C5C41C0000000604C5B46C00C00000013000000AA0D00003C0000000600000002000000
310
0000000000408F4000000000170B39C0000000A02D3143C00000000000408F4000000080766D40C0000000801F8D46C00C00000013000000B20D00003C00000006000000020000000000000000408F40000000C02A0F38C000000060CE7B43C00000000000408F40000000A0AAD23EC0000000E001B446C00C000000130000
310
00BA0D00003C00000006000000020000000000000000408F4000000040F4B635C000000000A7FB43C00000000000408F4000000040479B3BC0000000607C1D47C00C00000013000000C20D00003C00000006000000020000000000000000408F400000000006B932C000000080EAC344C00000000000408F40000000C02416
310
39C000000060D19C47C00C00000013000000CA0D00003C00000006000000020000000000000000408F4000000040382630C0000000001C9A45C00000000000408F4000000040ADA736C0000000E0034048C00C00000013000000D20D00003C00000006000000020000000000000000408F40000000C0D2682BC00000000076
310
9046C00000000000408F4000000040B16B34C0000000A0C1FE48C00C00000013000000DA0D00003C00000006000000020000000000000000408F400000000049D126C0000000409FA647C00000000000408F4000000000EA5332C00000004075DC49C00C00000013000000E20D00003C000000060000000200000000000000
310
00408F40000000E01D9A22C000000000D1D948C00000000000408F40000000201E6D30C0000000C0E1D34AC00C00000013000000EA0D00003C00000006000000020000000000000000408F40000000A0E4BB1DC000000040E6224AC00000000000408F4000000060278B2DC000000080D7DB4BC00C00000013000000F20D00
310
003C00000006000000020000000000000000408F40000000A0856517C00000004020754BC00000000000408F400000006046C02AC000000040A5EE4CC00C00000013000000FA0D00003C00000006000000020000000000000000408F40000000A07A1B11C0000000C0CB714CC00000000000408F4000000040B96628C00000
310
008055114EC00C00000013000000020E00003C00000006000000020000000000000000408F400000004057D800C0000000C09DEF4CC00000000000408F4000000000EE9026C0000000C099384FC00C000000130000000A0E00003C00000006000000020000000000000000408F400000004057D800C0000000C09DEF4CC000
310
00000000408F4000000000BC09E1BF00000000DEDC4EC00C00000013000000120E00003C00000006000000020000000000000000408F4000000000EE9026C0000000C099384FC00000000000408F4000000000BC80EDBF000000404E0E4FC00C000000130000001A0E00003C00000006000000020000000000000000408F40
310
000000E091CCF3BF000000802B624FC00000000000408F40000000C03A1B25C000000040AF4250C00C00000013000000220E00003C00000006000000020000000000000000408F40000000E091CCF3BF000000802B624FC00000000000408F40000000403C5724C000000040DBD250C00C000000130000002A0E00003C0000
310
0006000000020000000000000000408F40000000C00D43F4BF000000002DBF4FC00000000000408F4000000000830A24C0000000C0BC4251C00C00000013000000320E00003C00000006000000020000000000000000408F40000000E0D695DFBF000000C0232C50C00000000000408F4000000080FC8B22C000000040EF7D
310
51C00C000000130000003A0E00003C00000006000000020000000000000000408F40000000C00D43F4BF000000002DBF4FC00000000000408F40000000007CF423C000000080C25251C00C00000013000000420E00003C00000006000000020000000000000000408F40000000C04110F0BF00000040FE0A50C00000000000
310
408F40000000809B0423C000000080E07751C00C000000130000004A0E00003C00000006000000020000000000000000408F40000000C04110F0BF00000040FE0A50C00000000000408F4000000080E9BE23C0000000A0906151C00C00000013000000520E00003C00000006000000020000000000000000408F40000000C0
310
4110F0BF00000040FE0A50C00000000000408F4000000000316D23C000000060366E51C0
100
AcDbSubDMesh
 71
     2
 72
     0
 91
        0
 92
      222
 10
-999.9998779296875
 20
-9.021354675292968
 30
-70.0
 10
-999.9998779296875
 20
0.0000935423668125
 30
-70.0
 10
-999.9998779296875
 20
-34.04267883300781
 30
-45.02053070068359
 10
-999.9998779296875
 20
-32.8550910949707
 30
-45.10252380371094
 10
-999.9998779296875
 20
-30.82282638549805
 30
-45.40630722045898
 10
-999.9998779296875
 20
-27.60646438598633
 30
-46.2303581237793
 10
-999.9998779296875
 20
-25.08640670776367
 30
-47.22513961791992
 10
-999.9998779296875
 20
-22.6548957824707
 30
-48.50011825561523
 10
-999.9998779296875
 20
-20.42058181762695
 30
-49.99028778076172
 10
-999.9998779296875
 20
-18.32769775390625
 30
-51.72232818603515
 10
-999.9998779296875
 20
-16.4261474609375
 30
-53.65532684326172
 10
-999.9998779296875
 20
-14.77169513702392
 30
-55.71751403808594
 10
-999.9998779296875
 20
-13.37544536590576
 30
-57.86441802978515
 10
-999.9998779296875
 20
-12.20054054260254
 30
-60.13542175292968
 10
-999.9998779296875
 20
-11.28297615051269
 30
-62.44219207763672
 10
-999.9998779296875
 20
-10.55309104919433
 30
-65.04194641113281
 10
-999.9998779296875
 20
-10.17028999328613
 30
-67.29463195800781
 10
-999.9998779296875
 20
-10.02043914794922
 30
-69.04277038574218
 10
-999.9998779296875
 20
-34.99990844726563
 30
-35.19952774047852
 10
-999.9998779296875
 20
-34.99991226196289
 30
-44.02144622802734
 10
-999.9998779296875
 20
-64.03800201416015
 30
-8.017896652221679
 10
-999.9998779296875
 20
-63.04845428466797
 30
-8.081279754638671
 10
-999.9998779296875
 20
-61.87052917480468
 30
-8.215219497680664
 10
-999.9998779296875
 20
-60.40104675292969
 30
-8.513540267944335
 10
-999.9998779296875
 20
-58.65394973754883
 30
-9.090662956237792
 10
-999.9998779296875
 20
-56.64179229736328
 30
-10.2728796005249
 10
-999.9998779296875
 20
-54.76972961425781
 30
-12.14158153533935
 10
-999.9998779296875
 20
-53.57632064819336
 30
-14.13160228729248
 10
-999.9998779296875
 20
-52.76702880859375
 30
-16.12639045715332
 10
-999.9998779296875
 20
-52.09914398193359
 30
-18.52621078491211
 10
-999.9998779296875
 20
-51.49757766723633
 30
-21.33675193786621
 10
-999.9998779296875
 20
-50.87928009033203
 30
-24.19404792785645
 10
-999.9998779296875
 20
-50.14672088623047
 30
-26.72493743896485
 10
-999.9998779296875
 20
-49.30376434326172
 30
-28.69937324523926
 10
-999.9998779296875
 20
-48.38422012329101
 30
-30.18864250183106
 10
-999.9998779296875
 20
-47.34052276611328
 30
-31.37709617614746
 10
-999.9998779296875
 20
-46.02939987182617
 30
-32.43879318237305
 10
-999.9998779296875
 20
-44.10066986083984
 30
-33.48943328857422
 10
-999.9998779296875
 20
-42.14997482299804
 30
-34.1724967956543
 10
-999.9998779296875
 20
-39.9198226928711
 30
-34.64530563354492
 10
-999.9998779296875
 20
-37.2647819519043
 30
-34.92249298095703
 10
-999.9998779296875
 20
-35.19895553588867
 30
-34.99953079223633
 10
-999.9998779296875
 20
-64.99991607666015
 30
0.0000019469152903
 10
-999.9998779296875
 20
-64.99991607666015
 30
-7.018623352050781
 10
-999.9998779296875
 20
-35.09938812255859
 30
-35.0266342163086
 10
-999.9998779296875
 20
-35.02653884887696
 30
-35.09983444213867
 10
-999.9998779296875
 20
-64.96744537353515
 30
-7.271345138549804
 10
-999.9998779296875
 20
-64.87223052978515
 30
-7.50754165649414
 10
-999.9998779296875
 20
-64.72035980224609
 30
-7.712135314941406
 10
-999.9998779296875
 20
-64.5217056274414
 30
-7.871688842773437
 10
-999.9998779296875
 20
-64.28929901123047
 30
-7.975824356079101
 10
-999.9998779296875
 20
-34.96763992309571
 30
-44.27341079711914
 10
-999.9998779296875
 20
-34.87299346923828
 30
-44.50900268554687
 10
-999.9998779296875
 20
-34.72198104858398
 30
-44.71326828002929
 10
-999.9998779296875
 20
-34.52436065673828
 30
-44.87287521362304
 10
-999.9998779296875
 20
-34.29303359985352
 30
-44.97751235961914
 10
-999.9998779296875
 20
-9.9774169921875
 30
-69.29312133789062
 10
-999.9998779296875
 20
-9.872783660888671
 30
-69.52445220947265
 10
-999.9998779296875
 20
-9.713172912597656
 30
-69.7220687866211
 10
-999.9998779296875
 20
-9.508907318115234
 30
-69.87307739257812
 10
-999.9998779296875
 20
-9.273319244384765
 30
-69.96772766113281
 10
-999.9998779296875
 20
0.0000886785928742
 30
-58.0
 10
-999.9998779296875
 20
-5.84905195236206
 30
-54.91504669189453
 10
-999.9998779296875
 20
-7.433400630950927
 30
-52.27265167236328
 10
-999.9998779296875
 20
-9.300919532775878
 30
-49.70169067382812
 10
-999.9998779296875
 20
-11.40866661071777
 30
-47.3017349243164
 10
-999.9998779296875
 20
-13.70464134216308
 30
-45.12860107421874
 10
-999.9998779296875
 20
-16.14920425415039
 30
-43.2039794921875
 10
-999.9998779296875
 20
-18.72265625
 30
-41.53059768676757
 10
-999.9998779296875
 20
-21.71457290649414
 30
-39.96603775024414
 10
-999.9998779296875
 20
-27.20601272583008
 30
-33.58318328857422
 10
-999.9998779296875
 20
-28.34160232543946
 30
-30.78607559204102
 10
-999.9998779296875
 20
-29.80023765563965
 30
-29.04014015197754
 10
-999.9998779296875
 20
-31.03347206115723
 30
-28.14720153808594
 10
-999.9998779296875
 20
-32.4106559753418
 30
-27.49792861938477
 10
-999.9998779296875
 20
-43.2885627746582
 30
-20.93199157714844
 10
-999.9998779296875
 20
-44.13980865478515
 30
-17.45251274108887
 10
-999.9998779296875
 20
-44.9481201171875
 30
-14.32343482971191
 10
-999.9998779296875
 20
-46.00091552734375
 30
-11.48061180114746
 10
-999.9998779296875
 20
-47.6815071105957
 30
-8.341705322265625
 10
-999.9998779296875
 20
-50.13086700439453
 30
-5.346418857574462
 10
-999.9998779296875
 20
-52.98483657836914
 30
-0.7695435285568238
 10
-999.9998779296875
 20
-52.99991226196289
 30
-0.0000046334057515
 10
-999.9998779296875
 20
-2.105545997619628
 30
-57.87200164794922
 10
-999.9998779296875
 20
-4.276746273040771
 30
-56.88903045654297
 10
-999.9998779296875
 20
-24.05915451049805
 30
-38.96723556518555
 10
-999.9998779296875
 20
-25.04322814941406
 30
-38.38420486450195
 10
-999.9998779296875
 20
-25.86882400512696
 30
-37.59239578247071
 10
-999.9998779296875
 20
-26.68697738647461
 30
-36.09555053710938
 10
-999.9998779296875
 20
-52.0833740234375
 30
-3.315048933029174
 10
-999.9998779296875
 20
-52.80521011352539
 30
-1.849560618400573
 10
-999.9998779296875
 20
-34.65518951416016
 30
-27.04459953308106
 10
-999.9998779296875
 20
-37.0237045288086
 30
-26.72184753417969
 10
-999.9998779296875
 20
-38.5501480102539
 30
-26.18711853027344
 10
-999.9998779296875
 20
-39.95609283447265
 30
-25.38755798339844
 10
-999.9998779296875
 20
-41.19603729248047
 30
-24.34904479980469
 10
-999.9998779296875
 20
-42.22985076904296
 30
-23.10517883300781
 10
-999.9998779296875
 20
-0.532347321510315
 30
-61.72552490234375
 10
-999.9998779296875
 20
0.0000889716975507
 30
-61.35271072387695
 10
-999.9998779296875
 20
0.0000892843600013
 30
-64.92916107177734
 10
-999.9998779296875
 20
-0.493429571390152
 30
-64.68968200683594
 10
-999.9998779296875
 20
-1.003878116607666
 30
-64.17176818847656
 10
-999.9998779296875
 20
-1.266279697418212
 30
-63.49356079101562
 10
-999.9998779296875
 20
-1.237352967262268
 30
-62.76695251464843
 10
-999.9998779296875
 20
-0.9218736886978149
 30
-62.11176300048828
 10
-999.9998779296875
 20
-58.49409866333008
 30
-0.84585702419281
 10
-999.9998779296875
 20
-59.19807815551758
 30
-0.9908155798912048
 10
-999.9998779296875
 20
-59.90235519409179
 30
-0.8472990989685058
 10
-999.9998779296875
 20
-60.49347305297851
 30
-0.4384322464466095
 10
-999.9998779296875
 20
-60.81235885620117
 30
0.0000023130028239
 10
-999.9998779296875
 20
-56.93035507202148
 30
0.0000026523784982
 10
1000.0
 20
0.0000026201500987
 30
-70.0
 10
1000.0
 20
-0.000001637853984
 30
-64.92916107177734
 10
1000.0
 20
-0.4935204684734345
 30
-64.68968200683594
 10
1000.0
 20
-9.021446228027343
 30
-70.0
 10
1000.0
 20
-52.98492813110351
 30
-0.7695435285568238
 10
1000.0
 20
-53.00000381469726
 30
-0.0000046334021135
 10
1000.0
 20
-56.93044662475585
 30
0.0000064670794018
 10
1000.0
 20
-58.49419021606445
 30
-0.8458532094955444
 10
1000.0
 20
-60.49356460571289
 30
-0.4384284317493439
 10
1000.0
 20
-60.81245040893555
 30
0.0000061277037275
 10
1000.0
 20
-65.0
 30
0.0000057616161939
 10
1000.0
 20
-65.00000762939453
 30
-7.018623352050781
 10
1000.0
 20
-64.96753692626953
 30
-7.271345138549804
 10
1000.0
 20
-64.87232208251953
 30
-7.50754165649414
 10
1000.0
 20
-64.72045135498047
 30
-7.712135314941406
 10
1000.0
 20
-64.52178955078125
 30
-7.871688842773437
 10
1000.0
 20
-59.90244674682617
 30
-0.8472952842712402
 10
1000.0
 20
-64.28939056396484
 30
-7.975824356079101
 10
1000.0
 20
-59.19816970825195
 30
-0.9908117651939392
 10
1000.0
 20
-64.03809356689453
 30
-8.017896652221679
 10
1000.0
 20
-63.04854583740234
 30
-8.081279754638671
 10
1000.0
 20
-61.8706169128418
 30
-8.215219497680664
 10
1000.0
 20
-52.80530166625976
 30
-1.849560618400573
 10
1000.0
 20
-60.40113449096679
 30
-8.513540267944335
 10
1000.0
 20
-52.08346176147461
 30
-3.315047025680541
 10
1000.0
 20
-58.6540412902832
 30
-9.090662956237792
 10
1000.0
 20
-50.13095474243164
 30
-5.34641695022583
 10
1000.0
 20
-56.64188003540039
 30
-10.2728796005249
 10
1000.0
 20
-47.68159866333007
 30
-8.341703414916992
 10
1000.0
 20
-54.76981735229492
 30
-12.14158153533935
 10
1000.0
 20
-46.00100326538085
 30
-11.48060989379882
 10
1000.0
 20
-53.57641220092773
 30
-14.13160228729248
 10
1000.0
 20
-44.94820785522461
 30
-14.32343292236328
 10
1000.0
 20
-52.76711654663086
 30
-16.12638854980469
 10
1000.0
 20
-44.13990020751953
 30
-17.45251274108887
 10
1000.0
 20
-52.0992317199707
 30
-18.52620887756348
 10
1000.0
 20
-43.28865432739258
 30
-20.93199157714844
 10
1000.0
 20
-51.4976692199707
 30
-21.33675003051758
 10
1000.0
 20
-42.22993850708007
 30
-23.10517883300781
 10
1000.0
 20
-50.87937164306641
 30
-24.19404602050781
 10
1000.0
 20
-41.19612121582031
 30
-24.34904479980469
 10
1000.0
 20
-50.14681243896484
 30
-26.72493553161621
 10
1000.0
 20
-39.95618057250977
 30
-25.38755798339844
 10
1000.0
 20
-49.30385208129883
 30
-28.69937133789063
 10
1000.0
 20
-38.55023574829102
 30
-26.18711853027344
 10
1000.0
 20
-48.38430786132812
 30
-30.18864059448242
 10
1000.0
 20
-37.02379608154297
 30
-26.72184753417969
 10
1000.0
 20
-47.34061050415038
 30
-31.37709426879883
 10
1000.0
 20
-46.02948760986328
 30
-32.43879318237305
 10
1000.0
 20
-44.10075759887695
 30
-33.48943328857422
 10
1000.0
 20
-42.15006256103515
 30
-34.1724967956543
 10
1000.0
 20
-34.65527725219727
 30
-27.04459953308106
 10
1000.0
 20
-39.9199104309082
 30
-34.64530563354492
 10
1000.0
 20
-32.41073989868164
 30
-27.49792671203613
 10
1000.0
 20
-37.26486968994141
 30
-34.92249298095703
 10
1000.0
 20
-31.0335636138916
 30
-28.14719963073731
 10
1000.0
 20
-35.19904327392578
 30
-34.99953079223633
 10
1000.0
 20
-27.20610427856446
 30
-33.58318328857422
 10
1000.0
 20
-28.3416919708252
 30
-30.78607368469238
 10
1000.0
 20
-35.02662658691406
 30
-35.09983444213867
 10
1000.0
 20
-34.99999618530273
 30
-35.19952774047852
 10
1000.0
 20
-29.80032920837402
 30
-29.04013824462891
 10
1000.0
 20
-35.09947586059571
 30
-35.0266342163086
 10
1000.0
 20
-26.68706893920898
 30
-36.09555053710938
 10
1000.0
 20
-35.0
 30
-44.02144622802734
 10
1000.0
 20
-25.8689136505127
 30
-37.59239578247071
 10
1000.0
 20
-34.52445220947266
 30
-44.87287521362304
 10
1000.0
 20
-34.29312133789063
 30
-44.97751235961914
 10
1000.0
 20
-34.04277038574219
 30
-45.02053070068359
 10
1000.0
 20
-34.96772766113281
 30
-44.27341079711914
 10
1000.0
 20
-34.87308502197266
 30
-44.50900268554687
 10
1000.0
 20
-34.7220687866211
 30
-44.71326828002929
 10
1000.0
 20
-25.04331970214844
 30
-38.38420486450195
 10
1000.0
 20
-32.85517883300781
 30
-45.10252380371094
 10
1000.0
 20
-24.05924606323242
 30
-38.96723556518555
 10
1000.0
 20
-30.82291603088379
 30
-45.40630722045898
 10
1000.0
 20
-21.71466445922852
 30
-39.96603393554688
 10
1000.0
 20
-27.6065559387207
 30
-46.2303581237793
 10
1000.0
 20
-18.72274780273437
 30
-41.53059387207031
 10
1000.0
 20
-25.08649826049805
 30
-47.22513961791992
 10
1000.0
 20
-16.14929580688476
 30
-43.2039794921875
 10
1000.0
 20
-22.65498733520508
 30
-48.50011825561523
 10
1000.0
 20
-13.70473289489746
 30
-45.12860107421874
 10
1000.0
 20
-20.42067337036133
 30
-49.99028396606445
 10
1000.0
 20
-11.40876007080078
 30
-47.3017349243164
 10
1000.0
 20
-18.32778930664062
 30
-51.72232818603515
 10
1000.0
 20
-9.301009178161621
 30
-49.70169067382812
 10
1000.0
 20
-16.42624092102051
 30
-53.65532684326172
 10
1000.0
 20
-7.433489322662353
 30
-52.27265167236328
 10
1000.0
 20
-14.77178478240967
 30
-55.71751403808594
 10
1000.0
 20
-5.849142551422119
 30
-54.91504669189453
 10
1000.0
 20
-13.37553691864014
 30
-57.86441802978515
 10
1000.0
 20
-4.276834964752197
 30
-56.88903045654297
 10
1000.0
 20
-12.20063209533691
 30
-60.13542175292968
 10
1000.0
 20
-2.105635166168212
 30
-57.87200164794922
 10
1000.0
 20
-11.28306579589843
 30
-62.44219207763672
 10
1000.0
 20
-0.5324382781982422
 30
-61.72552490234375
 10
1000.0
 20
-0.0000019505168893
 30
-61.35271072387695
 10
1000.0
 20
-0.0000022436202016
 30
-58.0
 10
1000.0
 20
-0.9219646453857421
 30
-62.11176300048828
 10
1000.0
 20
-1.237443804740905
 30
-62.76695251464843
 10
1000.0
 20
-10.55318260192871
 30
-65.04194641113281
 10
1000.0
 20
-10.17038154602051
 30
-67.29463195800781
 10
1000.0
 20
-1.26637053489685
 30
-63.49356079101562
 10
1000.0
 20
-10.02053070068359
 30
-69.04277038574218
 10
1000.0
 20
-9.27341079711914
 30
-69.96772766113281
 10
1000.0
 20
-9.977508544921875
 30
-69.29312133789062
 10
1000.0
 20
-1.003968954086303
 30
-64.17176818847656
 10
1000.0
 20
-9.508998870849609
 30
-69.87307739257812
 10
1000.0
 20
-9.872875213623046
 30
-69.52445220947265
 10
1000.0
 20
-9.713264465332031
 30
-69.7220687866211
 93
     1157
 90
        4
 90
      111
 90
        1
 90
       99
 90
      112
 90
        4
 90
      112
 90
       99
 90
      100
 90
      113
 90
        4
 90
      113
 90
      100
 90
      101
 90
      218
 90
        4
 90
      218
 90
      101
 90
      102
 90
      214
 90
        4
 90
      214
 90
      102
 90
      103
 90
      211
 90
        4
 90
      211
 90
      103
 90
      104
 90
      210
 90
        4
 90
      210
 90
      104
 90
       97
 90
      207
 90
        4
 90
      207
 90
       97
 90
       98
 90
      208
 90
        4
 90
      208
 90
       98
 90
       61
 90
      209
 90
        4
 90
      209
 90
       61
 90
       83
 90
      205
 90
        4
 90
      205
 90
       83
 90
       84
 90
      203
 90
        4
 90
      203
 90
       84
 90
       62
 90
      201
 90
        4
 90
      201
 90
       62
 90
       63
 90
      199
 90
        4
 90
      199
 90
       63
 90
       64
 90
      197
 90
        4
 90
      197
 90
       64
 90
       65
 90
      195
 90
        4
 90
      195
 90
       65
 90
       66
 90
      193
 90
        4
 90
      193
 90
       66
 90
       67
 90
      191
 90
        4
 90
      191
 90
       67
 90
       68
 90
      189
 90
        4
 90
      189
 90
       68
 90
       69
 90
      187
 90
        4
 90
      187
 90
       69
 90
       85
 90
      185
 90
        4
 90
      185
 90
       85
 90
       86
 90
      183
 90
        4
 90
      183
 90
       86
 90
       87
 90
      176
 90
        4
 90
      176
 90
       87
 90
       88
 90
      174
 90
        4
 90
      174
 90
       88
 90
       70
 90
      168
 90
        4
 90
      168
 90
       70
 90
       71
 90
      169
 90
        4
 90
      169
 90
       71
 90
       72
 90
      172
 90
        4
 90
      172
 90
       72
 90
       73
 90
      166
 90
        4
 90
      166
 90
       73
 90
       74
 90
      164
 90
        4
 90
      164
 90
       74
 90
       91
 90
      162
 90
        4
 90
      162
 90
       91
 90
       92
 90
      157
 90
        4
 90
      157
 90
       92
 90
       93
 90
      155
 90
        4
 90
      155
 90
       93
 90
       94
 90
      153
 90
        4
 90
      153
 90
       94
 90
       95
 90
      151
 90
        4
 90
      151
 90
       95
 90
       96
 90
      149
 90
        4
 90
      149
 90
       96
 90
       75
 90
      147
 90
        4
 90
      147
 90
       75
 90
       76
 90
      145
 90
        4
 90
      145
 90
       76
 90
       77
 90
      143
 90
        4
 90
      143
 90
       77
 90
       78
 90
      141
 90
        4
 90
      141
 90
       78
 90
       79
 90
      139
 90
        4
 90
      139
 90
       79
 90
       80
 90
      137
 90
        4
 90
      137
 90
       80
 90
       89
 90
      135
 90
        4
 90
      135
 90
       89
 90
       90
 90
      133
 90
        4
 90
      133
 90
       90
 90
       81
 90
      115
 90
        4
 90
      115
 90
       81
 90
       82
 90
      116
 90
        4
 90
      116
 90
       82
 90
      110
 90
      117
 90
        4
 90
      117
 90
      110
 90
      105
 90
      118
 90
        4
 90
      118
 90
      105
 90
      106
 90
      129
 90
        4
 90
      129
 90
      106
 90
      107
 90
      127
 90
        4
 90
      127
 90
      107
 90
      108
 90
      119
 90
        4
 90
      119
 90
      108
 90
      109
 90
      120
 90
        4
 90
      120
 90
      109
 90
       42
 90
      121
 90
        4
 90
      121
 90
       42
 90
       43
 90
      122
 90
        4
 90
      122
 90
       43
 90
       46
 90
      123
 90
        4
 90
      123
 90
       46
 90
       47
 90
      124
 90
        4
 90
      124
 90
       47
 90
       48
 90
      125
 90
        4
 90
      125
 90
       48
 90
       49
 90
      126
 90
        4
 90
      126
 90
       49
 90
       50
 90
      128
 90
        4
 90
      128
 90
       50
 90
       20
 90
      130
 90
        4
 90
      130
 90
       20
 90
       21
 90
      131
 90
        4
 90
      131
 90
       21
 90
       22
 90
      132
 90
        4
 90
      132
 90
       22
 90
       23
 90
      134
 90
        4
 90
      134
 90
       23
 90
       24
 90
      136
 90
        4
 90
      136
 90
       24
 90
       25
 90
      138
 90
        4
 90
      138
 90
       25
 90
       26
 90
      140
 90
        4
 90
      140
 90
       26
 90
       27
 90
      142
 90
        4
 90
      142
 90
       27
 90
       28
 90
      144
 90
        4
 90
      144
 90
       28
 90
       29
 90
      146
 90
        4
 90
      146
 90
       29
 90
       30
 90
      148
 90
        4
 90
      148
 90
       30
 90
       31
 90
      150
 90
        4
 90
      150
 90
       31
 90
       32
 90
      152
 90
        4
 90
      152
 90
       32
 90
       33
 90
      154
 90
        4
 90
      154
 90
       33
 90
       34
 90
      156
 90
        4
 90
      156
 90
       34
 90
       35
 90
      158
 90
        4
 90
      158
 90
       35
 90
       36
 90
      159
 90
        4
 90
      159
 90
       36
 90
       37
 90
      160
 90
        4
 90
      160
 90
       37
 90
       38
 90
      161
 90
        4
 90
      161
 90
       38
 90
       39
 90
      163
 90
        4
 90
      163
 90
       39
 90
       40
 90
      165
 90
        4
 90
      165
 90
       40
 90
       41
 90
      167
 90
        4
 90
      167
 90
       41
 90
       44
 90
      173
 90
        4
 90
      173
 90
       44
 90
       45
 90
      170
 90
        4
 90
      170
 90
       45
 90
       18
 90
      171
 90
        4
 90
      171
 90
       18
 90
       19
 90
      175
 90
        4
 90
      175
 90
       19
 90
       51
 90
      180
 90
        4
 90
      180
 90
       51
 90
       52
 90
      181
 90
        4
 90
      181
 90
       52
 90
       53
 90
      182
 90
        4
 90
      182
 90
       53
 90
       54
 90
      177
 90
        4
 90
      177
 90
       54
 90
       55
 90
      178
 90
        4
 90
      178
 90
       55
 90
        2
 90
      179
 90
        4
 90
      179
 90
        2
 90
        3
 90
      184
 90
        4
 90
      184
 90
        3
 90
        4
 90
      186
 90
        4
 90
      186
 90
        4
 90
        5
 90
      188
 90
        4
 90
      188
 90
        5
 90
        6
 90
      190
 90
        4
 90
      190
 90
        6
 90
        7
 90
      192
 90
        4
 90
      192
 90
        7
 90
        8
 90
      194
 90
        4
 90
      194
 90
        8
 90
        9
 90
      196
 90
        4
 90
      196
 90
        9
 90
       10
 90
      198
 90
        4
 90
      198
 90
       10
 90
       11
 90
      200
 90
        4
 90
      200
 90
       11
 90
       12
 90
      202
 90
        4
 90
      202
 90
       12
 90
       13
 90
      204
 90
        4
 90
      204
 90
       13
 90
       14
 90
      206
 90
        4
 90
      206
 90
       14
 90
       15
 90
      212
 90
        4
 90
      212
 90
       15
 90
       16
 90
      213
 90
        4
 90
      213
 90
       16
 90
       17
 90
      215
 90
        4
 90
      215
 90
       17
 90
       56
 90
      217
 90
        4
 90
      217
 90
       56
 90
       57
 90
      220
 90
        4
 90
      220
 90
       57
 90
       58
 90
      221
 90
        4
 90
      221
 90
       58
 90
       59
 90
      219
 90
        4
 90
      219
 90
       59
 90
       60
 90
      216
 90
        4
 90
      216
 90
       60
 90
        0
 90
      114
 90
        4
 90
      114
 90
        0
 90
        1
 90
      111
 90
        4
 90
        1
 90
        0
 90
      100
 90
       99
 90
        4
 90
       81
 90
      105
 90
      110
 90
       82
 90
        4
 90
      108
 90
       43
 90
       42
 90
      109
 90
        3
 90
      108
 90
       46
 90
       43
 90
        3
 90
      108
 90
       47
 90
       46
 90
        3
 90
      108
 90
       48
 90
       47
 90
        3
 90
      108
 90
       49
 90
       48
 90
        4
 90
      107
 90
       50
 90
       49
 90
      108
 90
        4
 90
      106
 90
       20
 90
       50
 90
      107
 90
        3
 90
      106
 90
       21
 90
       20
 90
        3
 90
      106
 90
       22
 90
       21
 90
        4
 90
       81
 90
       22
 90
      106
 90
      105
 90
        4
 90
       90
 90
       23
 90
       22
 90
       81
 90
        4
 90
       89
 90
       24
 90
       23
 90
       90
 90
        4
 90
       80
 90
       25
 90
       24
 90
       89
 90
        4
 90
       79
 90
       26
 90
       25
 90
       80
 90
        4
 90
       78
 90
       27
 90
       26
 90
       79
 90
        4
 90
       77
 90
       28
 90
       27
 90
       78
 90
        4
 90
       76
 90
       29
 90
       28
 90
       77
 90
        4
 90
       75
 90
       30
 90
       29
 90
       76
 90
        4
 90
       96
 90
       31
 90
       30
 90
       75
 90
        4
 90
       95
 90
       32
 90
       31
 90
       96
 90
        4
 90
       94
 90
       33
 90
       32
 90
       95
 90
        4
 90
       93
 90
       34
 90
       33
 90
       94
 90
        4
 90
       92
 90
       35
 90
       34
 90
       93
 90
        3
 90
       92
 90
       36
 90
       35
 90
        3
 90
       92
 90
       37
 90
       36
 90
        3
 90
       92
 90
       38
 90
       37
 90
        4
 90
       91
 90
       39
 90
       38
 90
       92
 90
        4
 90
       74
 90
       40
 90
       39
 90
       91
 90
        4
 90
       73
 90
       41
 90
       40
 90
       74
 90
        4
 90
       70
 90
       18
 90
       45
 90
       71
 90
        4
 90
       71
 90
       45
 90
       44
 90
       72
 90
        4
 90
       72
 90
       44
 90
       41
 90
       73
 90
        4
 90
       88
 90
       19
 90
       18
 90
       70
 90
        3
 90
       87
 90
       55
 90
       54
 90
        3
 90
       87
 90
        2
 90
       55
 90
        3
 90
       88
 90
       51
 90
       19
 90
        3
 90
       88
 90
       52
 90
       51
 90
        4
 90
       87
 90
       53
 90
       52
 90
       88
 90
        3
 90
       87
 90
       54
 90
       53
 90
        4
 90
       86
 90
        3
 90
        2
 90
       87
 90
        4
 90
       85
 90
        4
 90
        3
 90
       86
 90
        4
 90
       69
 90
        5
 90
        4
 90
       85
 90
        4
 90
       68
 90
        6
 90
        5
 90
       69
 90
        4
 90
       67
 90
        7
 90
        6
 90
       68
 90
        4
 90
       66
 90
        8
 90
        7
 90
       67
 90
        4
 90
       65
 90
        9
 90
        8
 90
       66
 90
        4
 90
       64
 90
       10
 90
        9
 90
       65
 90
        4
 90
       63
 90
       11
 90
       10
 90
       64
 90
        4
 90
       62
 90
       12
 90
       11
 90
       63
 90
        4
 90
       84
 90
       13
 90
       12
 90
       62
 90
        4
 90
       83
 90
       14
 90
       13
 90
       84
 90
        4
 90
       97
 90
       83
 90
       61
 90
       98
 90
        4
 90
      104
 90
       14
 90
       83
 90
       97
 90
        4
 90
      103
 90
       15
 90
       14
 90
      104
 90
        3
 90
      103
 90
       16
 90
       15
 90
        4
 90
      102
 90
       17
 90
       16
 90
      103
 90
        3
 90
      100
 90
        0
 90
       60
 90
        3
 90
      102
 90
       56
 90
       17
 90
        4
 90
      100
 90
       60
 90
       59
 90
      101
 90
        3
 90
      101
 90
       58
 90
       57
 90
        3
 90
      101
 90
       59
 90
       58
 90
        4
 90
      101
 90
       57
 90
       56
 90
      102
 90
        4
 90
      111
 90
      112
 90
      113
 90
      114
 90
        4
 90
      115
 90
      116
 90
      117
 90
      118
 90
        4
 90
      119
 90
      120
 90
      121
 90
      122
 90
        3
 90
      119
 90
      122
 90
      123
 90
        3
 90
      119
 90
      123
 90
      124
 90
        3
 90
      119
 90
      124
 90
      125
 90
        3
 90
      119
 90
      125
 90
      126
 90
        4
 90
      127
 90
      119
 90
      126
 90
      128
 90
        4
 90
      129
 90
      127
 90
      128
 90
      130
 90
        3
 90
      129
 90
      130
 90
      131
 90
        3
 90
      129
 90
      131
 90
      132
 90
        4
 90
      115
 90
      118
 90
      129
 90
      132
 90
        4
 90
      133
 90
      115
 90
      132
 90
      134
 90
        4
 90
      135
 90
      133
 90
      134
 90
      136
 90
        4
 90
      137
 90
      135
 90
      136
 90
      138
 90
        4
 90
      139
 90
      137
 90
      138
 90
      140
 90
        4
 90
      141
 90
      139
 90
      140
 90
      142
 90
        4
 90
      143
 90
      141
 90
      142
 90
      144
 90
        4
 90
      145
 90
      143
 90
      144
 90
      146
 90
        4
 90
      147
 90
      145
 90
      146
 90
      148
 90
        4
 90
      149
 90
      147
 90
      148
 90
      150
 90
        4
 90
      151
 90
      149
 90
      150
 90
      152
 90
        4
 90
      153
 90
      151
 90
      152
 90
      154
 90
        4
 90
      155
 90
      153
 90
      154
 90
      156
 90
        4
 90
      157
 90
      155
 90
      156
 90
      158
 90
        3
 90
      157
 90
      158
 90
      159
 90
        3
 90
      157
 90
      159
 90
      160
 90
        3
 90
      157
 90
      160
 90
      161
 90
        4
 90
      162
 90
      157
 90
      161
 90
      163
 90
        4
 90
      164
 90
      162
 90
      163
 90
      165
 90
        4
 90
      166
 90
      164
 90
      165
 90
      167
 90
        4
 90
      168
 90
      169
 90
      170
 90
      171
 90
        4
 90
      169
 90
      172
 90
      173
 90
      170
 90
        4
 90
      172
 90
      166
 90
      167
 90
      173
 90
        4
 90
      174
 90
      168
 90
      171
 90
      175
 90
        3
 90
      176
 90
      177
 90
      178
 90
        3
 90
      176
 90
      178
 90
      179
 90
        3
 90
      174
 90
      175
 90
      180
 90
        3
 90
      174
 90
      180
 90
      181
 90
        4
 90
      176
 90
      174
 90
      181
 90
      182
 90
        3
 90
      176
 90
      182
 90
      177
 90
        4
 90
      183
 90
      176
 90
      179
 90
      184
 90
        4
 90
      185
 90
      183
 90
      184
 90
      186
 90
        4
 90
      187
 90
      185
 90
      186
 90
      188
 90
        4
 90
      189
 90
      187
 90
      188
 90
      190
 90
        4
 90
      191
 90
      189
 90
      190
 90
      192
 90
        4
 90
      193
 90
      191
 90
      192
 90
      194
 90
        4
 90
      195
 90
      193
 90
      194
 90
      196
 90
        4
 90
      197
 90
      195
 90
      196
 90
      198
 90
        4
 90
      199
 90
      197
 90
      198
 90
      200
 90
        4
 90
      201
 90
      199
 90
      200
 90
      202
 90
        4
 90
      203
 90
      201
 90
      202
 90
      204
 90
        4
 90
      205
 90
      203
 90
      204
 90
      206
 90
        4
 90
      207
 90
      208
 90
      209
 90
      205
 90
        4
 90
      210
 90
      207
 90
      205
 90
      206
 90
        4
 90
      211
 90
      210
 90
      206
 90
      212
 90
        3
 90
      211
 90
      212
 90
      213
 90
        4
 90
      214
 90
      211
 90
      213
 90
      215
 90
        3
 90
      113
 90
      216
 90
      114
 90
        3
 90
      214
 90
      215
 90
      217
 90
        4
 90
      113
 90
      218
 90
      219
 90
      216
 90
        3
 90
      218
 90
      220
 90
      221
 90
        3
 90
      218
 90
      221
 90
      219
 90
        4
 90
      218
 90
      214
 90
      217
 90
      220
 94
      459
 90
        1
 90
      111
 90
        1
 90
       99
 90
       99
 90
      112
 90
      111
 90
      112
 90
       99
 90
      100
 90
      100
 90
      113
 90
      112
 90
      113
 90
      100
 90
      101
 90
      101
 90
      218
 90
      113
 90
      218
 90
      101
 90
      102
 90
      102
 90
      214
 90
      214
 90
      218
 90
      102
 90
      103
 90
      103
 90
      211
 90
      211
 90
      214
 90
      103
 90
      104
 90
      104
 90
      210
 90
      210
 90
      211
 90
       97
 90
      104
 90
       97
 90
      207
 90
      207
 90
      210
 90
       97
 90
       98
 90
       98
 90
      208
 90
      207
 90
      208
 90
       61
 90
       98
 90
       61
 90
      209
 90
      208
 90
      209
 90
       61
 90
       83
 90
       83
 90
      205
 90
      205
 90
      209
 90
       83
 90
       84
 90
       84
 90
      203
 90
      203
 90
      205
 90
       62
 90
       84
 90
       62
 90
      201
 90
      201
 90
      203
 90
       62
 90
       63
 90
       63
 90
      199
 90
      199
 90
      201
 90
       63
 90
       64
 90
       64
 90
      197
 90
      197
 90
      199
 90
       64
 90
       65
 90
       65
 90
      195
 90
      195
 90
      197
 90
       65
 90
       66
 90
       66
 90
      193
 90
      193
 90
      195
 90
       66
 90
       67
 90
       67
 90
      191
 90
      191
 90
      193
 90
       67
 90
       68
 90
       68
 90
      189
 90
      189
 90
      191
 90
       68
 90
       69
 90
       69
 90
      187
 90
      187
 90
      189
 90
       69
 90
       85
 90
       85
 90
      185
 90
      185
 90
      187
 90
       85
 90
       86
 90
       86
 90
      183
 90
      183
 90
      185
 90
       86
 90
       87
 90
       87
 90
      176
 90
      176
 90
      183
 90
       87
 90
       88
 90
       88
 90
      174
 90
      174
 90
      176
 90
       70
 90
       88
 90
       70
 90
      168
 90
      168
 90
      174
 90
       70
 90
       71
 90
       71
 90
      169
 90
      168
 90
      169
 90
       71
 90
       72
 90
       72
 90
      172
 90
      169
 90
      172
 90
       72
 90
       73
 90
       73
 90
      166
 90
      166
 90
      172
 90
       73
 90
       74
 90
       74
 90
      164
 90
      164
 90
      166
 90
       74
 90
       91
 90
       91
 90
      162
 90
      162
 90
      164
 90
       91
 90
       92
 90
       92
 90
      157
 90
      157
 90
      162
 90
       92
 90
       93
 90
       93
 90
      155
 90
      155
 90
      157
 90
       93
 90
       94
 90
       94
 90
      153
 90
      153
 90
      155
 90
       94
 90
       95
 90
       95
 90
      151
 90
      151
 90
      153
 90
       95
 90
       96
 90
       96
 90
      149
 90
      149
 90
      151
 90
       75
 90
       96
 90
       75
 90
      147
 90
      147
 90
      149
 90
       75
 90
       76
 90
       76
 90
      145
 90
      145
 90
      147
 90
       76
 90
       77
 90
       77
 90
      143
 90
      143
 90
      145
 90
       77
 90
       78
 90
       78
 90
      141
 90
      141
 90
      143
 90
       78
 90
       79
 90
       79
 90
      139
 90
      139
 90
      141
 90
       79
 90
       80
 90
       80
 90
      137
 90
      137
 90
      139
 90
       80
 90
       89
 90
       89
 90
      135
 90
      135
 90
      137
 90
       89
 90
       90
 90
       90
 90
      133
 90
      133
 90
      135
 90
       81
 90
       90
 90
       81
 90
      115
 90
      115
 90
      133
 90
       81
 90
       82
 90
       82
 90
      116
 90
      115
 90
      116
 90
       82
 90
      110
 90
      110
 90
      117
 90
      116
 90
      117
 90
      105
 90
      110
 90
      105
 90
      118
 90
      117
 90
      118
 90
      105
 90
      106
 90
      106
 90
      129
 90
      118
 90
      129
 90
      106
 90
      107
 90
      107
 90
      127
 90
      127
 90
      129
 90
      107
 90
      108
 90
      108
 90
      119
 90
      119
 90
      127
 90
      108
 90
      109
 90
      109
 90
      120
 90
      119
 90
      120
 90
       42
 90
      109
 90
       42
 90
      121
 90
      120
 90
      121
 90
       42
 90
       43
 90
       43
 90
      122
 90
      121
 90
      122
 90
       43
 90
       46
 90
       46
 90
      123
 90
      122
 90
      123
 90
       46
 90
       47
 90
       47
 90
      124
 90
      123
 90
      124
 90
       47
 90
       48
 90
       48
 90
      125
 90
      124
 90
      125
 90
       48
 90
       49
 90
       49
 90
      126
 90
      125
 90
      126
 90
       49
 90
       50
 90
       50
 90
      128
 90
      126
 90
      128
 90
       20
 90
       50
 90
       20
 90
      130
 90
      128
 90
      130
 90
       20
 90
       21
 90
       21
 90
      131
 90
      130
 90
      131
 90
       21
 90
       22
 90
       22
 90
      132
 90
      131
 90
      132
 90
       22
 90
       23
 90
       23
 90
      134
 90
      132
 90
      134
 90
       23
 90
       24
 90
       24
 90
      136
 90
      134
 90
      136
 90
       24
 90
       25
 90
       25
 90
      138
 90
      136
 90
      138
 90
       25
 90
       26
 90
       26
 90
      140
 90
      138
 90
      140
 90
       26
 90
       27
 90
       27
 90
      142
 90
      140
 90
      142
 90
       27
 90
       28
 90
       28
 90
      144
 90
      142
 90
      144
 90
       28
 90
       29
 90
       29
 90
      146
 90
      144
 90
      146
 90
       29
 90
       30
 90
       30
 90
      148
 90
      146
 90
      148
 90
       30
 90
       31
 90
       31
 90
      150
 90
      148
 90
      150
 90
       31
 90
       32
 90
       32
 90
      152
 90
      150
 90
      152
 90
       32
 90
       33
 90
       33
 90
      154
 90
      152
 90
      154
 90
       33
 90
       34
 90
       34
 90
      156
 90
      154
 90
      156
 90
       34
 90
       35
 90
       35
 90
      158
 90
      156
 90
      158
 90
       35
 90
       36
 90
       36
 90
      159
 90
      158
 90
      159
 90
       36
 90
       37
 90
       37
 90
      160
 90
      159
 90
      160
 90
       37
 90
       38
 90
       38
 90
      161
 90
      160
 90
      161
 90
       38
 90
       39
 90
       39
 90
      163
 90
      161
 90
      163
 90
       39
 90
       40
 90
       40
 90
      165
 90
      163
 90
      165
 90
       40
 90
       41
 90
       41
 90
      167
 90
      165
 90
      167
 90
       41
 90
       44
 90
       44
 90
      173
 90
      167
 90
      173
 90
       44
 90
       45
 90
       45
 90
      170
 90
      170
 90
      173
 90
       18
 90
       45
 90
       18
 90
      171
 90
      170
 90
      171
 90
       18
 90
       19
 90
       19
 90
      175
 90
      171
 90
      175
 90
       19
 90
       51
 90
       51
 90
      180
 90
      175
 90
      180
 90
       51
 90
       52
 90
       52
 90
      181
 90
      180
 90
      181
 90
       52
 90
       53
 90
       53
 90
      182
 90
      181
 90
      182
 90
       53
 90
       54
 90
       54
 90
      177
 90
      177
 90
      182
 90
       54
 90
       55
 90
       55
 90
      178
 90
      177
 90
      178
 90
        2
 90
       55
 90
        2
 90
      179
 90
      178
 90
      179
 90
        2
 90
        3
 90
        3
 90
      184
 90
      179
 90
      184
 90
        3
 90
        4
 90
        4
 90
      186
 90
      184
 90
      186
 90
        4
 90
        5
 90
        5
 90
      188
 90
      186
 90
      188
 90
        5
 90
        6
 90
        6
 90
      190
 90
      188
 90
      190
 90
        6
 90
        7
 90
        7
 90
      192
 90
      190
 90
      192
 90
        7
 90
        8
 90
        8
 90
      194
 90
      192
 90
      194
 90
        8
 90
        9
 90
        9
 90
      196
 90
      194
 90
      196
 90
        9
 90
       10
 90
       10
 90
      198
 90
      196
 90
      198
 90
       10
 90
       11
 90
       11
 90
      200
 90
      198
 90
      200
 90
       11
 90
       12
 90
       12
 90
      202
 90
      200
 90
      202
 90
       12
 90
       13
 90
       13
 90
      204
 90
      202
 90
      204
 90
       13
 90
       14
 90
       14
 90
      206
 90
      204
 90
      206
 90
       14
 90
       15
 90
       15
 90
      212
 90
      206
 90
      212
 90
       15
 90
       16
 90
       16
 90
      213
 90
      212
 90
      213
 90
       16
 90
       17
 90
       17
 90
      215
 90
      213
 90
      215
 90
       17
 90
       56
 90
       56
 90
      217
 90
      215
 90
      217
 90
       56
 90
       57
 90
       57
 90
      220
 90
      217
 90
      220
 90
       57
 90
       58
 90
       58
 90
      221
 90
      220
 90
      221
 90
       58
 90
       59
 90
       59
 90
      219
 90
      219
 90
      221
 90
       59
 90
       60
 90
       60
 90
      216
 90
      216
 90
      219
 90
        0
 90
       60
 90
        0
 90
      114
 90
      114
 90
      216
 90
        0
 90
        1
 90
      111
 90
      114
 90
        0
 90
      100
 90
       81
 90
      105
 90
       43
 90
      108
 90
       46
 90
      108
 90
       47
 90
      108
 90
       48
 90
      108
 90
       49
 90
      108
 90
       50
 90
      107
 90
       20
 90
      106
 90
       21
 90
      106
 90
       22
 90
      106
 90
       22
 90
       81
 90
       23
 90
       90
 90
       24
 90
       89
 90
       25
 90
       80
 90
       26
 90
       79
 90
       27
 90
       78
 90
       28
 90
       77
 90
       29
 90
       76
 90
       30
 90
       75
 90
       31
 90
       96
 90
       32
 90
       95
 90
       33
 90
       94
 90
       34
 90
       93
 90
       35
 90
       92
 90
       36
 90
       92
 90
       37
 90
       92
 90
       38
 90
       92
 90
       39
 90
       91
 90
       40
 90
       74
 90
       41
 90
       73
 90
       18
 90
       70
 90
       45
 90
       71
 90
       44
 90
       72
 90
       19
 90
       88
 90
       55
 90
       87
 90
       54
 90
       87
 90
        2
 90
       87
 90
       51
 90
       88
 90
       52
 90
       88
 90
       53
 90
       87
 90
        3
 90
       86
 90
        4
 90
       85
 90
        5
 90
       69
 90
        6
 90
       68
 90
        7
 90
       67
 90
        8
 90
       66
 90
        9
 90
       65
 90
       10
 90
       64
 90
       11
 90
       63
 90
       12
 90
       62
 90
       13
 90
       84
 90
       14
 90
       83
 90
       83
 90
       97
 90
       14
 90
      104
 90
       15
 90
      103
 90
       16
 90
      103
 90
       17
 90
      102
 90
       60
 90
      100
 90
       56
 90
      102
 90
       59
 90
      101
 90
       58
 90
      101
 90
       57
 90
      101
 90
      113
 90
      114
 90
      115
 90
      118
 90
      119
 90
      122
 90
      119
 90
      123
 90
      119
 90
      124
 90
      119
 90
      125
 90
      119
 90
      126
 90
      127
 90
      128
 90
      129
 90
      130
 90
      129
 90
      131
 90
      129
 90
      132
 90
      115
 90
      132
 90
      133
 90
      134
 90
      135
 90
      136
 90
      137
 90
      138
 90
      139
 90
      140
 90
      141
 90
      142
 90
      143
 90
      144
 90
      145
 90
      146
 90
      147
 90
      148
 90
      149
 90
      150
 90
      151
 90
      152
 90
      153
 90
      154
 90
      155
 90
      156
 90
      157
 90
      158
 90
      157
 90
      159
 90
      157
 90
      160
 90
      157
 90
      161
 90
      162
 90
      163
 90
      164
 90
      165
 90
      166
 90
      167
 90
      169
 90
      170
 90
      168
 90
      171
 90
      172
 90
      173
 90
      174
 90
      175
 90
      176
 90
      177
 90
      176
 90
      178
 90
      176
 90
      179
 90
      174
 90
      180
 90
      174
 90
      181
 90
      176
 90
      182
 90
      183
 90
      184
 90
      185
 90
      186
 90
      187
 90
      188
 90
      189
 90
      190
 90
      191
 90
      192
 90
      193
 90
      194
 90
      195
 90
      196
 90
      197
 90
      198
 90
      199
 90
      200
 90
      201
 90
      202
 90
      203
 90
      204
 90
      205
 90
      206
 90
      205
 90
      207
 90
      206
 90
      210
 90
      211
 90
      212
 90
      211
 90
      213
 90
      214
 90
      215
 90
      113
 90
      216
 90
      214
 90
      217
 90
      218
 90
      219
 90
      218
 90
      220
 90
      218
 90
      221
 95
      459
140
0.0
140
0.0
140
0.0
140
0.0
140
0.0
140
0.0
140
0.0
140
0.0
140
0.0
140
0.0
140
0.0
140
0.0
140
0.0
140
0.0
140
0.0
140
0.0
140
0.0
140
0.0
140
0.0
140
0.0
140
0.0
140
0.0
140
0.0
140
0.0
140
0.0
140
0.0
140
0.0
140
0.0
140
0.0
140
0.0
140
0.0
140
0.0
140
0.0
140
0.0
140
0.0
140
0.0
140
0.0
140
0.0
140
0.0
140
0.0
140
0.0
140
0.0
140
0.0
140
0.0
140
0.0
140
0.0
140
0.0
140
0.0
140
0.0
140
0.0
140
0.0
140
0.0
140
0.0
140
0.0
140
0.0
140
0.0
140
0.0
140
0.0
140
0.0
140
0.0
140
0.0
140
0.0
140
0.0
140
0.0
140
0.0
140
0.0
140
0.0
140
0.0
140
0.0
140
0.0
140
0.0
140
0.0
140
0.0
140
0.0
140
0.0
140
0.0
140
0.0
140
0.0
140
0.0
140
0.0
140
0.0
140
0.0
140
0.0
140
0.0
140
0.0
140
0.0
140
0.0
140
0.0
140
0.0
140
0.0
140
0.0
140
0.0
140
0.0
140
0.0
140
0.0
140
0.0
140
0.0
140
0.0
140
0.0
140
0.0
140
0.0
140
0.0
140
0.0
140
0.0
140
0.0
140
0.0
140
0.0
140
0.0
140
0.0
140
0.0
140
0.0
140
0.0
140
0.0
140
0.0
140
0.0
140
0.0
140
0.0
140
0.0
140
0.0
140
0.0
140
0.0
140
0.0
140
0.0
140
0.0
140
0.0
140
0.0
140
0.0
140
0.0
140
0.0
140
0.0
140
0.0
140
0.0
140
0.0
140
0.0
140
0.0
140
0.0
140
0.0
140
0.0
140
0.0
140
0.0
140
0.0
140
0.0
140
0.0
140
0.0
140
0.0
140
0.0
140
0.0
140
0.0
140
0.0
140
0.0
140
0.0
140
0.0
140
0.0
140
0.0
140
0.0
140
0.0
140
0.0
140
0.0
140
0.0
140
0.0
140
0.0
140
0.0
140
0.0
140
0.0
140
0.0
140
0.0
140
0.0
140
0.0
140
0.0
140
0.0
140
0.0
140
0.0
140
0.0
140
0.0
140
0.0
140
0.0
140
0.0
140
0.0
140
0.0
140
0.0
140
0.0
140
0.0
140
0.0
140
0.0
140
0.0
140
0.0
140
0.0
140
0.0
140
0.0
140
0.0
140
0.0
140
0.0
140
0.0
140
0.0
140
0.0
140
0.0
140
0.0
140
0.0
140
0.0
140
0.0
140
0.0
140
0.0
140
0.0
140
0.0
140
0.0
140
0.0
140
0.0
140
0.0
140
0.0
140
0.0
140
0.0
140
0.0
140
0.0
140
0.0
140
0.0
140
0.0
140
0.0
140
0.0
140
0.0
140
0.0
140
0.0
140
0.0
140
0.0
140
0.0
140
0.0
140
0.0
140
0.0
140
0.0
140
0.0
140
0.0
140
0.0
140
0.0
140
0.0
140
0.0
140
0.0
140
0.0
140
0.0
140
0.0
140
0.0
140
0.0
140
0.0
140
0.0
140
0.0
140
0.0
140
0.0
140
0.0
140
0.0
140
0.0
140
0.0
140
0.0
140
0.0
140
0.0
140
0.0
140
0.0
140
0.0
140
0.0
140
0.0
140
0.0
140
0.0
140
0.0
140
0.0
140
0.0
140
0.0
140
0.0
140
0.0
140
0.0
140
0.0
140
0.0
140
0.0
140
0.0
140
0.0
140
0.0
140
0.0
140
0.0
140
0.0
140
0.0
140
0.0
140
0.0
140
0.0
140
0.0
140
0.0
140
0.0
140
0.0
140
0.0
140
0.0
140
0.0
140
0.0
140
0.0
140
0.0
140
0.0
140
0.0
140
0.0
140
0.0
140
0.0
140
0.0
140
0.0
140
0.0
140
0.0
140
0.0
140
0.0
140
0.0
140
0.0
140
0.0
140
0.0
140
0.0
140
0.0
140
0.0
140
0.0
140
0.0
140
0.0
140
0.0
140
0.0
140
0.0
140
0.0
140
0.0
140
0.0
140
0.0
140
0.0
140
0.0
140
0.0
140
0.0
140
0.0
140
0.0
140
0.0
140
0.0
140
0.0
140
0.0
140
0.0
140
0.0
140
0.0
140
0.0
140
0.0
140
0.0
140
0.0
140
0.0
140
0.0
140
0.0
140
0.0
140
0.0
140
0.0
140
0.0
140
0.0
140
0.0
140
0.0
140
0.0
140
0.0
140
0.0
140
0.0
140
0.0
140
0.0
140
0.0
140
0.0
140
0.0
140
0.0
140
0.0
140
0.0
140
0.0
140
0.0
140
0.0
140
0.0
140
0.0
140
0.0
140
0.0
140
0.0
140
0.0
140
0.0
140
0.0
140
0.0
140
0.0
140
0.0
140
0.0
140
0.0
140
0.0
140
0.0
140
0.0
140
0.0
140
0.0
140
0.0
140
0.0
140
0.0
140
0.0
140
0.0
140
0.0
140
0.0
140
0.0
140
0.0
140
0.0
140
0.0
140
0.0
140
0.0
140
0.0
140
0.0
140
0.0
140
0.0
140
0.0
140
0.0
140
0.0
140
0.0
140
0.0
140
0.0
140
0.0
140
0.0
140
0.0
140
0.0
140
0.0
140
0.0
140
0.0
140
0.0
140
0.0
140
0.0
140
0.0
140
0.0
140
0.0
140
0.0
140
0.0
140
0.0
140
0.0
140
0.0
140
0.0
140
0.0
140
0.0
140
0.0
140
0.0
140
0.0
140
0.0
140
0.0
140
0.0
140
0.0
140
0.0
140
0.0
140
0.0
140
0.0
140
0.0
140
0.0
140
0.0
140
0.0
140
0.0
140
0.0
140
0.0
140
0.0
140
0.0
140
0.0
140
0.0
140
0.0
140
0.0
140
0.0
140
0.0
140
0.0
140
0.0
140
0.0
140
0.0
140
0.0
140
0.0
140
0.0
140
0.0
140
0.0
140
0.0
140
0.0
140
0.0
 90
        0
  0
POLYLINE
  5
FA
330
1F
100
AcDbEntity
  8
OracDecor_cornice_mouldings
 62
   136
420
   427889
100
AcDb3dPolyline
 66
     1
 10
0.0
 20
0.0
 30
0.0
 70
     9
  0
VERTEX
  5
FB
330
FA
100
AcDbEntity
  8
OracDecor_cornice_mouldings
 62
   136
420
   427889
100
AcDbVertex
100
AcDb3dPolylineVertex
 10
0.0000030726089335
 20
-0.0000906952191144
 30
-70.0
 70
    32
  0
VERTEX
  5
FC
330
FA
100
AcDbEntity
  8
OracDecor_cornice_mouldings
 62
   136
420
   427889
100
AcDbVertex
100
AcDb3dPolylineVertex
 10
0.0000045423898882
 20
9.021356582641601
 30
-70.00000762939453
 70
    32
  0
VERTEX
  5
FD
330
FA
100
AcDbEntity
  8
OracDecor_cornice_mouldings
 62
   136
420
   427889
100
AcDbVertex
100
AcDb3dPolylineVertex
 10
0.0000045820293053
 20
9.273321151733398
 30
-69.96773529052735
 70
    32
  0
VERTEX
  5
FE
330
FA
100
AcDbEntity
  8
OracDecor_cornice_mouldings
 62
   136
420
   427889
100
AcDbVertex
100
AcDb3dPolylineVertex
 10
0.0000046162745093
 20
9.5089111328125
 30
-69.87308502197265
 70
    32
  0
VERTEX
  5
FF
330
FA
100
AcDbEntity
  8
OracDecor_cornice_mouldings
 62
   136
420
   427889
100
AcDbVertex
100
AcDb3dPolylineVertex
 10
0.0000046429522627
 20
9.713174819946289
 30
-69.72207641601563
 70
    32
  0
VERTEX
  5
100
330
FA
100
AcDbEntity
  8
OracDecor_cornice_mouldings
 62
   136
420
   427889
100
AcDbVertex
100
AcDb3dPolylineVertex
 10
0.0000046603181545
 20
9.872785568237304
 30
-69.52445983886718
 70
    32
  0
VERTEX
  5
101
330
FA
100
AcDbEntity
  8
OracDecor_cornice_mouldings
 62
   136
420
   427889
100
AcDbVertex
100
AcDb3dPolylineVertex
 10
0.0000046672535063
 20
9.977418899536132
 30
-69.29312896728515
 70
    32
  0
VERTEX
  5
102
330
FA
100
AcDbEntity
  8
OracDecor_cornice_mouldings
 62
   136
420
   427889
100
AcDbVertex
100
AcDb3dPolylineVertex
 10
0.000004663319487
 20
10.02044105529785
 30
-69.04277801513671
 70
    32
  0
VERTEX
  5
103
330
FA
100
AcDbEntity
  8
OracDecor_cornice_mouldings
 62
   136
420
   427889
100
AcDbVertex
100
AcDb3dPolylineVertex
 10
0.0000046113204917
 20
10.17029666900635
 30
-67.29463958740234
 70
    32
  0
VERTEX
  5
104
330
FA
100
AcDbEntity
  8
OracDecor_cornice_mouldings
 62
   136
420
   427889
100
AcDbVertex
100
AcDb3dPolylineVertex
 10
0.0000045752185542
 20
10.55309772491455
 30
-65.04195404052734
 70
    32
  0
VERTEX
  5
105
330
FA
100
AcDbEntity
  8
OracDecor_cornice_mouldings
 62
   136
420
   427889
100
AcDbVertex
100
AcDb3dPolylineVertex
 10
0.000004580492714
 20
11.28298091888428
 30
-62.44219207763672
 70
    32
  0
VERTEX
  5
106
330
FA
100
AcDbEntity
  8
OracDecor_cornice_mouldings
 62
   136
420
   427889
100
AcDbVertex
100
AcDb3dPolylineVertex
 10
0.0000046291506806
 20
12.20054721832275
 30
-60.13542175292968
 70
    32
  0
VERTEX
  5
107
330
FA
100
AcDbEntity
  8
OracDecor_cornice_mouldings
 62
   136
420
   427889
100
AcDbVertex
100
AcDb3dPolylineVertex
 10
0.0000047212979553
 20
13.37544822692871
 30
-57.86441802978515
 70
    32
  0
VERTEX
  5
108
330
FA
100
AcDbEntity
  8
OracDecor_cornice_mouldings
 62
   136
420
   427889
100
AcDbVertex
100
AcDb3dPolylineVertex
 10
0.0000048549318308
 20
14.77169895172119
 30
-55.7175178527832
 70
    32
  0
VERTEX
  5
109
330
FA
100
AcDbEntity
  8
OracDecor_cornice_mouldings
 62
   136
420
   427889
100
AcDbVertex
100
AcDb3dPolylineVertex
 10
0.0000050343351177
 20
16.42614936828613
 30
-53.65533065795898
 70
    32
  0
VERTEX
  5
10A
330
FA
100
AcDbEntity
  8
OracDecor_cornice_mouldings
 62
   136
420
   427889
100
AcDbVertex
100
AcDb3dPolylineVertex
 10
-0.0000023697521101
 20
18.32769775390625
 30
-51.72232818603515
 70
    32
  0
VERTEX
  5
10B
330
FA
100
AcDbEntity
  8
OracDecor_cornice_mouldings
 62
   136
420
   427889
100
AcDbVertex
100
AcDb3dPolylineVertex
 10
-0.0000021044870664
 20
20.42058372497558
 30
-49.99029159545898
 70
    32
  0
VERTEX
  5
10C
330
FA
100
AcDbEntity
  8
OracDecor_cornice_mouldings
 62
   136
420
   427889
100
AcDbVertex
100
AcDb3dPolylineVertex
 10
-0.0000018056088038
 20
22.65489768981934
 30
-48.50011444091797
 70
    32
  0
VERTEX
  5
10D
330
FA
100
AcDbEntity
  8
OracDecor_cornice_mouldings
 62
   136
420
   427889
100
AcDbVertex
100
AcDb3dPolylineVertex
 10
-0.0000014651967604
 20
25.08640861511231
 30
-47.22513580322265
 70
    32
  0
VERTEX
  5
10E
330
FA
100
AcDbEntity
  8
OracDecor_cornice_mouldings
 62
   136
420
   427889
100
AcDbVertex
100
AcDb3dPolylineVertex
 10
-0.0000010981101468
 20
27.60646629333496
 30
-46.23035430908203
 70
    32
  0
VERTEX
  5
10F
330
FA
100
AcDbEntity
  8
OracDecor_cornice_mouldings
 62
   136
420
   427889
100
AcDbVertex
100
AcDb3dPolylineVertex
 10
-0.0000006101190024
 20
30.82282829284668
 30
-45.40630340576171
 70
    32
  0
VERTEX
  5
110
330
FA
100
AcDbEntity
  8
OracDecor_cornice_mouldings
 62
   136
420
   427889
100
AcDbVertex
100
AcDb3dPolylineVertex
 10
-0.0000002923005979
 20
32.8550910949707
 30
-45.10251998901367
 70
    32
  0
VERTEX
  5
111
330
FA
100
AcDbEntity
  8
OracDecor_cornice_mouldings
 62
   136
420
   427889
100
AcDbVertex
100
AcDb3dPolylineVertex
 10
-0.0000001024017493
 20
34.04267883300781
 30
-45.02052688598633
 70
    32
  0
VERTEX
  5
112
330
FA
100
AcDbEntity
  8
OracDecor_cornice_mouldings
 62
   136
420
   427889
100
AcDbVertex
100
AcDb3dPolylineVertex
 10
-0.0000000634940207
 20
34.29303359985352
 30
-44.97750854492188
 70
    32
  0
VERTEX
  5
113
330
FA
100
AcDbEntity
  8
OracDecor_cornice_mouldings
 62
   136
420
   427889
100
AcDbVertex
100
AcDb3dPolylineVertex
 10
-0.0000000303797734
 20
34.52436065673828
 30
-44.87287139892578
 70
    32
  0
VERTEX
  5
114
330
FA
100
AcDbEntity
  8
OracDecor_cornice_mouldings
 62
   136
420
   427889
100
AcDbVertex
100
AcDb3dPolylineVertex
 10
-0.0000000051603957
 20
34.72198104858398
 30
-44.71326446533203
 70
    32
  0
VERTEX
  5
115
330
FA
100
AcDbEntity
  8
OracDecor_cornice_mouldings
 62
   136
420
   427889
100
AcDbVertex
100
AcDb3dPolylineVertex
 10
0.0000000105142908
 20
34.87299346923828
 30
-44.5089988708496
 70
    32
  0
VERTEX
  5
116
330
FA
100
AcDbEntity
  8
OracDecor_cornice_mouldings
 62
   136
420
   427889
100
AcDbVertex
100
AcDb3dPolylineVertex
 10
0.0000000156361111
 20
34.96763992309571
 30
-44.27340698242187
 70
    32
  0
VERTEX
  5
117
330
FA
100
AcDbEntity
  8
OracDecor_cornice_mouldings
 62
   136
420
   427889
100
AcDbVertex
100
AcDb3dPolylineVertex
 10
0.000000009880373
 20
34.99991226196289
 30
-44.02144241333007
 70
    32
  0
VERTEX
  5
118
330
FA
100
AcDbEntity
  8
OracDecor_cornice_mouldings
 62
   136
420
   427889
100
AcDbVertex
100
AcDb3dPolylineVertex
 10
-0.0000003757390061
 20
34.99990844726563
 30
-35.19952392578125
 70
    32
  0
VERTEX
  5
119
330
FA
100
AcDbEntity
  8
OracDecor_cornice_mouldings
 62
   136
420
   427889
100
AcDbVertex
100
AcDb3dPolylineVertex
 10
-0.0000003757576508
 20
35.02653884887696
 30
-35.09983062744141
 70
    32
  0
VERTEX
  5
11A
330
FA
100
AcDbEntity
  8
OracDecor_cornice_mouldings
 62
   136
420
   427889
100
AcDbVertex
100
AcDb3dPolylineVertex
 10
-0.000000367088802
 20
35.09938812255859
 30
-35.02663040161133
 70
    32
  0
VERTEX
  5
11B
330
FA
100
AcDbEntity
  8
OracDecor_cornice_mouldings
 62
   136
420
   427889
100
AcDbVertex
100
AcDb3dPolylineVertex
 10
-0.0000003520521261
 20
35.19895553588867
 30
-34.99952697753907
 70
    32
  0
VERTEX
  5
11C
330
FA
100
AcDbEntity
  8
OracDecor_cornice_mouldings
 62
   136
420
   427889
100
AcDbVertex
100
AcDb3dPolylineVertex
 10
-0.000000018853747
 20
37.2647819519043
 30
-34.92249298095703
 70
    32
  0
VERTEX
  5
11D
330
FA
100
AcDbEntity
  8
OracDecor_cornice_mouldings
 62
   136
420
   427889
100
AcDbVertex
100
AcDb3dPolylineVertex
 10
0.0000004015911088
 20
39.9198226928711
 30
-34.64530563354492
 70
    32
  0
VERTEX
  5
11E
330
FA
100
AcDbEntity
  8
OracDecor_cornice_mouldings
 62
   136
420
   427889
100
AcDbVertex
100
AcDb3dPolylineVertex
 10
0.0000007442623087
 20
42.14997482299804
 30
-34.1724967956543
 70
    32
  0
VERTEX
  5
11F
330
FA
100
AcDbEntity
  8
OracDecor_cornice_mouldings
 62
   136
420
   427889
100
AcDbVertex
100
AcDb3dPolylineVertex
 10
0.0000010322129356
 20
44.10066986083984
 30
-33.48943328857422
 70
    32
  0
VERTEX
  5
120
330
FA
100
AcDbEntity
  8
OracDecor_cornice_mouldings
 62
   136
420
   427889
100
AcDbVertex
100
AcDb3dPolylineVertex
 10
0.0000013005184201
 20
46.02939987182617
 30
-32.43879318237305
 70
    32
  0
VERTEX
  5
121
330
FA
100
AcDbEntity
  8
OracDecor_cornice_mouldings
 62
   136
420
   427889
100
AcDbVertex
100
AcDb3dPolylineVertex
 10
0.0000014677190165
 20
47.34052276611328
 30
-31.37709617614746
 70
    32
  0
VERTEX
  5
122
330
FA
100
AcDbEntity
  8
OracDecor_cornice_mouldings
 62
   136
420
   427889
100
AcDbVertex
100
AcDb3dPolylineVertex
 10
0.0000015858105371
 20
48.38422012329101
 30
-30.18864250183106
 70
    32
  0
VERTEX
  5
123
330
FA
100
AcDbEntity
  8
OracDecor_cornice_mouldings
 62
   136
420
   427889
100
AcDbVertex
100
AcDb3dPolylineVertex
 10
0.0000016705263306
 20
49.30377197265625
 30
-28.69937324523926
 70
    32
  0
VERTEX
  5
124
330
FA
100
AcDbEntity
  8
OracDecor_cornice_mouldings
 62
   136
420
   427889
100
AcDbVertex
100
AcDb3dPolylineVertex
 10
0.0000017215553498
 20
50.14672470092773
 30
-26.72493743896485
 70
    32
  0
VERTEX
  5
125
330
FA
100
AcDbEntity
  8
OracDecor_cornice_mouldings
 62
   136
420
   427889
100
AcDbVertex
100
AcDb3dPolylineVertex
 10
-0.0000058991181504
 20
50.87928771972656
 30
-24.19404792785645
 70
    32
  0
VERTEX
  5
126
330
FA
100
AcDbEntity
  8
OracDecor_cornice_mouldings
 62
   136
420
   427889
100
AcDbVertex
100
AcDb3dPolylineVertex
 10
-0.0000059232825151
 20
51.49757766723633
 30
-21.33675384521485
 70
    32
  0
VERTEX
  5
127
330
FA
100
AcDbEntity
  8
OracDecor_cornice_mouldings
 62
   136
420
   427889
100
AcDbVertex
100
AcDb3dPolylineVertex
 10
-0.0000059481271819
 20
52.09914398193359
 30
-18.52621269226074
 70
    32
  0
VERTEX
  5
128
330
FA
100
AcDbEntity
  8
OracDecor_cornice_mouldings
 62
   136
420
   427889
100
AcDbVertex
100
AcDb3dPolylineVertex
 10
-0.0000059442154452
 20
52.76702880859375
 30
-16.12639236450195
 70
    32
  0
VERTEX
  5
129
330
FA
100
AcDbEntity
  8
OracDecor_cornice_mouldings
 62
   136
420
   427889
100
AcDbVertex
100
AcDb3dPolylineVertex
 10
-0.0000058995601648
 20
53.57632064819336
 30
-14.13160037994385
 70
    32
  0
VERTEX
  5
12A
330
FA
100
AcDbEntity
  8
OracDecor_cornice_mouldings
 62
   136
420
   427889
100
AcDbVertex
100
AcDb3dPolylineVertex
 10
-0.0000057921151893
 20
54.76972961425781
 30
-12.14158153533935
 70
    32
  0
VERTEX
  5
12B
330
FA
100
AcDbEntity
  8
OracDecor_cornice_mouldings
 62
   136
420
   427889
100
AcDbVertex
100
AcDb3dPolylineVertex
 10
-0.0000055688005887
 20
56.64179229736328
 30
-10.2728796005249
 70
    32
  0
VERTEX
  5
12C
330
FA
100
AcDbEntity
  8
OracDecor_cornice_mouldings
 62
   136
420
   427889
100
AcDbVertex
100
AcDb3dPolylineVertex
 10
-0.0000052926552598
 20
58.65394973754883
 30
-9.09066104888916
 70
    32
  0
VERTEX
  5
12D
330
FA
100
AcDbEntity
  8
OracDecor_cornice_mouldings
 62
   136
420
   427889
100
AcDbVertex
100
AcDb3dPolylineVertex
 10
-0.000005033243724
 20
60.40104675292969
 30
-8.513538360595703
 70
    32
  0
VERTEX
  5
12E
330
FA
100
AcDbEntity
  8
OracDecor_cornice_mouldings
 62
   136
420
   427889
100
AcDbVertex
100
AcDb3dPolylineVertex
 10
-0.0000048068750402
 20
61.87052917480468
 30
-8.215217590332031
 70
    32
  0
VERTEX
  5
12F
330
FA
100
AcDbEntity
  8
OracDecor_cornice_mouldings
 62
   136
420
   427889
100
AcDbVertex
100
AcDb3dPolylineVertex
 10
-0.0000046208206186
 20
63.04845428466797
 30
-8.081278800964355
 70
    32
  0
VERTEX
  5
130
330
FA
100
AcDbEntity
  8
OracDecor_cornice_mouldings
 62
   136
420
   427889
100
AcDbVertex
100
AcDb3dPolylineVertex
 10
-0.0000044623748181
 20
64.03800201416015
 30
-8.017894744873046
 70
    32
  0
VERTEX
  5
131
330
FA
100
AcDbEntity
  8
OracDecor_cornice_mouldings
 62
   136
420
   427889
100
AcDbVertex
100
AcDb3dPolylineVertex
 10
-0.0000044232720029
 20
64.28929901123047
 30
-7.975822925567626
 70
    32
  0
VERTEX
  5
132
330
FA
100
AcDbEntity
  8
OracDecor_cornice_mouldings
 62
   136
420
   427889
100
AcDbVertex
100
AcDb3dPolylineVertex
 10
-0.000004389959031
 20
64.5217056274414
 30
-7.871687412261962
 70
    32
  0
VERTEX
  5
133
330
FA
100
AcDbEntity
  8
OracDecor_cornice_mouldings
 62
   136
420
   427889
100
AcDbVertex
100
AcDb3dPolylineVertex
 10
-0.0000043645695769
 20
64.72035980224609
 30
-7.712133884429931
 70
    32
  0
VERTEX
  5
134
330
FA
100
AcDbEntity
  8
OracDecor_cornice_mouldings
 62
   136
420
   427889
100
AcDbVertex
100
AcDb3dPolylineVertex
 10
-0.0000043487698349
 20
64.87223052978515
 30
-7.507540225982666
 70
    32
  0
VERTEX
  5
135
330
FA
100
AcDbEntity
  8
OracDecor_cornice_mouldings
 62
   136
420
   427889
100
AcDbVertex
100
AcDb3dPolylineVertex
 10
-0.0000043435811676
 20
64.96744537353515
 30
-7.27134370803833
 70
    32
  0
VERTEX
  5
136
330
FA
100
AcDbEntity
  8
OracDecor_cornice_mouldings
 62
   136
420
   427889
100
AcDbVertex
100
AcDb3dPolylineVertex
 10
-0.0000043493382691
 20
64.99991607666015
 30
-7.018621921539306
 70
    32
  0
VERTEX
  5
137
330
FA
100
AcDbEntity
  8
OracDecor_cornice_mouldings
 62
   136
420
   427889
100
AcDbVertex
100
AcDb3dPolylineVertex
 10
-0.0000046561317504
 20
64.99991607666015
 30
-0.0000003175493646
 70
    32
  0
VERTEX
  5
138
330
FA
100
AcDbEntity
  8
OracDecor_cornice_mouldings
 62
   136
420
   427889
100
AcDbVertex
100
AcDb3dPolylineVertex
 10
-0.000005338371011
 20
60.81236267089844
 30
-0.0000000513339131
 70
    32
  0
VERTEX
  5
139
330
FA
100
AcDbEntity
  8
OracDecor_cornice_mouldings
 62
   136
420
   427889
100
AcDbVertex
100
AcDb3dPolylineVertex
 10
-0.0000053711592045
 20
60.49347686767578
 30
-0.4384327232837677
 70
    32
  0
VERTEX
  5
13A
330
FA
100
AcDbEntity
  8
OracDecor_cornice_mouldings
 62
   136
420
   427889
100
AcDbVertex
100
AcDb3dPolylineVertex
 10
-0.0000054495931181
 20
59.90235519409179
 30
-0.8473014831542968
 70
    32
  0
VERTEX
  5
13B
330
FA
100
AcDbEntity
  8
OracDecor_cornice_mouldings
 62
   136
420
   427889
100
AcDbVertex
100
AcDb3dPolylineVertex
 10
-0.0000055580603657
 20
59.19808197021485
 30
-0.990816056728363
 70
    32
  0
VERTEX
  5
13C
330
FA
100
AcDbEntity
  8
OracDecor_cornice_mouldings
 62
   136
420
   427889
100
AcDbVertex
100
AcDb3dPolylineVertex
 10
-0.0000056790904637
 20
58.49409866333008
 30
-0.845857560634613
 70
    32
  0
VERTEX
  5
13D
330
FA
100
AcDbEntity
  8
OracDecor_cornice_mouldings
 62
   136
420
   427889
100
AcDbVertex
100
AcDb3dPolylineVertex
 10
-0.0000059708290792
 20
56.93035888671875
 30
0.0000001954570195
 70
    32
  0
VERTEX
  5
13E
330
FA
100
AcDbEntity
  8
OracDecor_cornice_mouldings
 62
   136
420
   427889
100
AcDbVertex
100
AcDb3dPolylineVertex
 10
-0.0000066111797423
 20
52.99991607666015
 30
-0.0000033693700061
 70
    32
  0
VERTEX
  5
13F
330
FA
100
AcDbEntity
  8
OracDecor_cornice_mouldings
 62
   136
420
   427889
100
AcDbVertex
100
AcDb3dPolylineVertex
 10
-0.000006579998626
 20
52.9848403930664
 30
-0.7695422768592835
 70
    32
  0
VERTEX
  5
140
330
FA
100
AcDbEntity
  8
OracDecor_cornice_mouldings
 62
   136
420
   427889
100
AcDbVertex
100
AcDb3dPolylineVertex
 10
-0.0000065620542955
 20
52.80521392822265
 30
-1.849560260772705
 70
    32
  0
VERTEX
  5
141
330
FA
100
AcDbEntity
  8
OracDecor_cornice_mouldings
 62
   136
420
   427889
100
AcDbVertex
100
AcDb3dPolylineVertex
 10
-0.0000066155980676
 20
52.0833740234375
 30
-3.315049648284912
 70
    32
  0
VERTEX
  5
142
330
FA
100
AcDbEntity
  8
OracDecor_cornice_mouldings
 62
   136
420
   427889
100
AcDbVertex
100
AcDb3dPolylineVertex
 10
0.0000007844865308
 20
50.13086700439453
 30
-5.346419334411621
 70
    32
  0
VERTEX
  5
143
330
FA
100
AcDbEntity
  8
OracDecor_cornice_mouldings
 62
   136
420
   427889
100
AcDbVertex
100
AcDb3dPolylineVertex
 10
0.0000005163629453
 20
47.6815071105957
 30
-8.341706275939941
 70
    32
  0
VERTEX
  5
144
330
FA
100
AcDbEntity
  8
OracDecor_cornice_mouldings
 62
   136
420
   427889
100
AcDbVertex
100
AcDb3dPolylineVertex
 10
0.0000003797659645
 20
46.00091552734375
 30
-11.48061180114746
 70
    32
  0
VERTEX
  5
145
330
FA
100
AcDbEntity
  8
OracDecor_cornice_mouldings
 62
   136
420
   427889
100
AcDbVertex
100
AcDb3dPolylineVertex
 10
0.0000003325077103
 20
44.9481201171875
 30
-14.32343578338623
 70
    32
  0
VERTEX
  5
146
330
FA
100
AcDbEntity
  8
OracDecor_cornice_mouldings
 62
   136
420
   427889
100
AcDbVertex
100
AcDb3dPolylineVertex
 10
0.0000003375936046
 20
44.13980865478515
 30
-17.45251083374023
 70
    32
  0
VERTEX
  5
147
330
FA
100
AcDbEntity
  8
OracDecor_cornice_mouldings
 62
   136
420
   427889
100
AcDbVertex
100
AcDb3dPolylineVertex
 10
0.000000351000466
 20
43.28855895996094
 30
-20.93198966979981
 70
    32
  0
VERTEX
  5
148
330
FA
100
AcDbEntity
  8
OracDecor_cornice_mouldings
 62
   136
420
   427889
100
AcDbVertex
100
AcDb3dPolylineVertex
 10
0.000000273508789
 20
42.2298583984375
 30
-23.10517883300781
 70
    32
  0
VERTEX
  5
149
330
FA
100
AcDbEntity
  8
OracDecor_cornice_mouldings
 62
   136
420
   427889
100
AcDbVertex
100
AcDb3dPolylineVertex
 10
0.0000001594508632
 20
41.196044921875
 30
-24.34904289245606
 70
    32
  0
VERTEX
  5
14A
330
FA
100
AcDbEntity
  8
OracDecor_cornice_mouldings
 62
   136
420
   427889
100
AcDbVertex
100
AcDb3dPolylineVertex
 10
0.0000000028326985
 20
39.95610046386719
 30
-25.38755607604981
 70
    32
  0
VERTEX
  5
14B
330
FA
100
AcDbEntity
  8
OracDecor_cornice_mouldings
 62
   136
420
   427889
100
AcDbVertex
100
AcDb3dPolylineVertex
 10
-0.0000001912748502
 20
38.55015563964844
 30
-26.18711662292481
 70
    32
  0
VERTEX
  5
14C
330
FA
100
AcDbEntity
  8
OracDecor_cornice_mouldings
 62
   136
420
   427889
100
AcDbVertex
100
AcDb3dPolylineVertex
 10
-0.0000004165903249
 20
37.02371215820313
 30
-26.72184562683106
 70
    32
  0
VERTEX
  5
14D
330
FA
100
AcDbEntity
  8
OracDecor_cornice_mouldings
 62
   136
420
   427889
100
AcDbVertex
100
AcDb3dPolylineVertex
 10
-0.0000007883635931
 20
34.65519332885742
 30
-27.04459762573242
 70
    32
  0
VERTEX
  5
14E
330
FA
100
AcDbEntity
  8
OracDecor_cornice_mouldings
 62
   136
420
   427889
100
AcDbVertex
100
AcDb3dPolylineVertex
 10
-0.0000011342280004
 20
32.41065979003906
 30
-27.4979305267334
 70
    32
  0
VERTEX
  5
14F
330
FA
100
AcDbEntity
  8
OracDecor_cornice_mouldings
 62
   136
420
   427889
100
AcDbVertex
100
AcDb3dPolylineVertex
 10
-0.0000013302195612
 20
31.03347396850586
 30
-28.14720344543457
 70
    32
  0
VERTEX
  5
150
330
FA
100
AcDbEntity
  8
OracDecor_cornice_mouldings
 62
   136
420
   427889
100
AcDbVertex
100
AcDb3dPolylineVertex
 10
-0.0000014921073443
 20
29.80023956298828
 30
-29.04014205932617
 70
    32
  0
VERTEX
  5
151
330
FA
100
AcDbEntity
  8
OracDecor_cornice_mouldings
 62
   136
420
   427889
100
AcDbVertex
100
AcDb3dPolylineVertex
 10
-0.0000016534321503
 20
28.34160423278809
 30
-30.78607749938965
 70
    32
  0
VERTEX
  5
152
330
FA
100
AcDbEntity
  8
OracDecor_cornice_mouldings
 62
   136
420
   427889
100
AcDbVertex
100
AcDb3dPolylineVertex
 10
-0.0000017161772803
 20
27.20601844787598
 30
-33.58317947387695
 70
    32
  0
VERTEX
  5
153
330
FA
100
AcDbEntity
  8
OracDecor_cornice_mouldings
 62
   136
420
   427889
100
AcDbVertex
100
AcDb3dPolylineVertex
 10
-0.0000016909197029
 20
26.68698310852051
 30
-36.09554672241211
 70
    32
  0
VERTEX
  5
154
330
FA
100
AcDbEntity
  8
OracDecor_cornice_mouldings
 62
   136
420
   427889
100
AcDbVertex
100
AcDb3dPolylineVertex
 10
-0.0000017587852881
 20
25.86882781982422
 30
-37.59239196777344
 70
    32
  0
VERTEX
  5
155
330
FA
100
AcDbEntity
  8
OracDecor_cornice_mouldings
 62
   136
420
   427889
100
AcDbVertex
100
AcDb3dPolylineVertex
 10
-0.0000018586805481
 20
25.04323196411133
 30
-38.38420104980469
 70
    32
  0
VERTEX
  5
156
330
FA
100
AcDbEntity
  8
OracDecor_cornice_mouldings
 62
   136
420
   427889
100
AcDbVertex
100
AcDb3dPolylineVertex
 10
-0.0000019935214368
 20
24.05916023254395
 30
-38.96723175048828
 70
    32
  0
VERTEX
  5
157
330
FA
100
AcDbEntity
  8
OracDecor_cornice_mouldings
 62
   136
420
   427889
100
AcDbVertex
100
AcDb3dPolylineVertex
 10
-0.0000023318430067
 20
21.7145767211914
 30
-39.96604156494141
 70
    32
  0
VERTEX
  5
158
330
FA
100
AcDbEntity
  8
OracDecor_cornice_mouldings
 62
   136
420
   427889
100
AcDbVertex
100
AcDb3dPolylineVertex
 10
-0.000002750899057
 20
18.72266006469726
 30
-41.53060150146484
 70
    32
  0
VERTEX
  5
159
330
FA
100
AcDbEntity
  8
OracDecor_cornice_mouldings
 62
   136
420
   427889
100
AcDbVertex
100
AcDb3dPolylineVertex
 10
0.0000045323731683
 20
16.14920997619629
 30
-43.20398330688476
 70
    32
  0
VERTEX
  5
15A
330
FA
100
AcDbEntity
  8
OracDecor_cornice_mouldings
 62
   136
420
   427889
100
AcDbVertex
100
AcDb3dPolylineVertex
 10
0.0000042182309699
 20
13.70464706420898
 30
-45.12860107421874
 70
    32
  0
VERTEX
  5
15B
330
FA
100
AcDbEntity
  8
OracDecor_cornice_mouldings
 62
   136
420
   427889
100
AcDbVertex
100
AcDb3dPolylineVertex
 10
0.0000039391593418
 20
11.40866947174072
 30
-47.3017349243164
 70
    32
  0
VERTEX
  5
15C
330
FA
100
AcDbEntity
  8
OracDecor_cornice_mouldings
 62
   136
420
   427889
100
AcDbVertex
100
AcDb3dPolylineVertex
 10
0.0000037006695948
 20
9.30092430114746
 30
-49.70169067382812
 70
    32
  0
VERTEX
  5
15D
330
FA
100
AcDbEntity
  8
OracDecor_cornice_mouldings
 62
   136
420
   427889
100
AcDbVertex
100
AcDb3dPolylineVertex
 10
0.0000035087923607
 20
7.433405399322509
 30
-52.27265167236328
 70
    32
  0
VERTEX
  5
15E
330
FA
100
AcDbEntity
  8
OracDecor_cornice_mouldings
 62
   136
420
   427889
100
AcDbVertex
100
AcDb3dPolylineVertex
 10
0.000003366171768
 20
5.849055290222167
 30
-54.91504669189453
 70
    32
  0
VERTEX
  5
15F
330
FA
100
AcDbEntity
  8
OracDecor_cornice_mouldings
 62
   136
420
   427889
100
AcDbVertex
100
AcDb3dPolylineVertex
 10
0.0000031962963476
 20
4.276750564575195
 30
-56.88903045654297
 70
    32
  0
VERTEX
  5
160
330
FA
100
AcDbEntity
  8
OracDecor_cornice_mouldings
 62
   136
420
   427889
100
AcDbVertex
100
AcDb3dPolylineVertex
 10
0.0000028855299661
 20
2.105550527572631
 30
-57.87200164794922
 70
    32
  0
VERTEX
  5
161
330
FA
100
AcDbEntity
  8
OracDecor_cornice_mouldings
 62
   136
420
   427889
100
AcDbVertex
100
AcDb3dPolylineVertex
 10
0.0000025480730983
 20
-0.0000861176449689
 30
-58.0
 70
    32
  0
VERTEX
  5
162
330
FA
100
AcDbEntity
  8
OracDecor_cornice_mouldings
 62
   136
420
   427889
100
AcDbVertex
100
AcDb3dPolylineVertex
 10
0.0000026946247544
 20
-0.0000863307868713
 30
-61.35271072387695
 70
    32
  0
VERTEX
  5
163
330
FA
100
AcDbEntity
  8
OracDecor_cornice_mouldings
 62
   136
420
   427889
100
AcDbVertex
100
AcDb3dPolylineVertex
 10
0.0000027976657293
 20
0.5323500037193299
 30
-61.72552490234375
 70
    32
  0
VERTEX
  5
164
330
FA
100
AcDbEntity
  8
OracDecor_cornice_mouldings
 62
   136
420
   427889
100
AcDbVertex
100
AcDb3dPolylineVertex
 10
0.0000028780107186
 20
0.9218763709068298
 30
-62.11176300048828
 70
    32
  0
VERTEX
  5
165
330
FA
100
AcDbEntity
  8
OracDecor_cornice_mouldings
 62
   136
420
   427889
100
AcDbVertex
100
AcDb3dPolylineVertex
 10
0.0000029580480714
 20
1.237355709075927
 30
-62.76695251464843
 70
    32
  0
VERTEX
  5
166
330
FA
100
AcDbEntity
  8
OracDecor_cornice_mouldings
 62
   136
420
   427889
100
AcDbVertex
100
AcDb3dPolylineVertex
 10
0.0000029945219922
 20
1.266282439231872
 30
-63.49356460571289
 70
    32
  0
VERTEX
  5
167
330
FA
100
AcDbEntity
  8
OracDecor_cornice_mouldings
 62
   136
420
   427889
100
AcDbVertex
100
AcDb3dPolylineVertex
 10
0.0000029814164009
 20
1.003878951072692
 30
-64.17176818847656
 70
    32
  0
VERTEX
  5
168
330
FA
100
AcDbEntity
  8
OracDecor_cornice_mouldings
 62
   136
420
   427889
100
AcDbVertex
100
AcDb3dPolylineVertex
 10
0.0000029208927117
 20
0.4934322834014893
 30
-64.68968200683594
 70
    32
  0
VERTEX
  5
169
330
FA
100
AcDbEntity
  8
OracDecor_cornice_mouldings
 62
   136
420
   427889
100
AcDbVertex
100
AcDb3dPolylineVertex
 10
0.0000028509562071
 20
-0.0000865581532707
 30
-64.92916107177734
 70
    32
  0
SEQEND
  5
16A
330
FA
100
AcDbEntity
  8
OracDecor_cornice_mouldings
 62
   136
420
   427889
  0
ENDSEC
  0
SECTION
  2
OBJECTS
  0
DICTIONARY
  5
C
330
0
100
AcDbDictionary
281
     1
  3
ACAD_COLOR
350
DC
  3
ACAD_DETAILVIEWSTYLE
350
F5
  3
ACAD_GROUP
350
D
  3
ACAD_LAYOUT
350
1A
  3
ACAD_MATERIAL
350
AA
  3
ACAD_MLEADERSTYLE
350
F1
  3
ACAD_MLINESTYLE
350
17
  3
ACAD_PLOTSETTINGS
350
19
  3
ACAD_PLOTSTYLENAME
350
E
  3
ACAD_SCALELIST
350
DF
  3
ACAD_SECTIONVIEWSTYLE
350
F3
  3
ACAD_TABLESTYLE
350
DD
  3
ACAD_VISUALSTYLE
350
C3
  3
ACDB_RECOMPOSE_DATA
350
177
  3
AcDbVariableDictionary
350
16B
  0
DICTIONARY
  5
DC
102
{ACAD_REACTORS
330
C
102
}
330
C
100
AcDbDictionary
281
     1
  0
DICTIONARY
  5
F5
102
{ACAD_REACTORS
330
C
102
}
330
C
100
AcDbDictionary
281
     1
  3
Imperial24
350
F6
  0
DICTIONARY
  5
D
102
{ACAD_REACTORS
330
C
102
}
330
C
100
AcDbDictionary
281
     1
  0
DICTIONARY
  5
1A
102
{ACAD_REACTORS
330
C
102
}
330
C
100
AcDbDictionary
281
     1
  3
Layout1
350
1E
  3
Layout2
350
26
  3
Model
350
22
  0
DICTIONARY
  5
AA
102
{ACAD_REACTORS
330
C
102
}
330
C
100
AcDbDictionary
281
     1
  3
ByBlock
350
B3
  3
ByLayer
350
AB
  3
Global
350
BB
  0
DICTIONARY
  5
F1
102
{ACAD_REACTORS
330
C
102
}
330
C
100
AcDbDictionary
281
     1
  3
Standard
350
F2
  0
DICTIONARY
  5
17
102
{ACAD_REACTORS
330
C
102
}
330
C
100
AcDbDictionary
281
     1
  3
Standard
350
18
  0
DICTIONARY
  5
19
102
{ACAD_REACTORS
330
C
102
}
330
C
100
AcDbDictionary
281
     1
  0
ACDBDICTIONARYWDFLT
  5
E
102
{ACAD_REACTORS
330
C
102
}
330
C
100
AcDbDictionary
281
     1
  3
ByLayer
350
2D
  3
Normal
350
F
100
AcDbDictionaryWithDefault
340
F
  0
DICTIONARY
  5
DF
102
{ACAD_REACTORS
330
C
102
}
330
C
100
AcDbDictionary
281
     1
  3
A0
350
E0
  3
A1
350
E1
  3
A2
350
E2
  3
A3
350
E3
  3
A4
350
E4
  3
A5
350
E5
  3
A6
350
E6
  3
A7
350
E7
  3
A8
350
E8
  3
A9
350
E9
  3
B0
350
EA
  3
B1
350
EB
  3
B2
350
EC
  3
B3
350
ED
  3
B4
350
EE
  3
B5
350
EF
  3
B6
350
F0
  0
DICTIONARY
  5
F3
102
{ACAD_REACTORS
330
C
102
}
330
C
100
AcDbDictionary
281
     1
  3
Imperial24
350
F4
  0
DICTIONARY
  5
DD
102
{ACAD_REACTORS
330
C
102
}
330
C
100
AcDbDictionary
281
     1
  3
Standard
350
DE
  0
DICTIONARY
  5
C3
102
{ACAD_REACTORS
330
C
102
}
330
C
100
AcDbDictionary
281
     1
  3
2dWireframe
350
C9
  3
Basic
350
C8
  3
Brighten
350
CF
  3
ColorChange
350
D3
  3
Conceptual
350
CC
  3
Dim
350
CE
  3
EdgeColorOff
350
DB
  3
Facepattern
350
D2
  3
Flat
350
C4
  3
FlatWithEdges
350
C5
  3
Gouraud
350
C6
  3
GouraudWithEdges
350
C7
  3
Hidden
350
CB
  3
JitterOff
350
D9
  3
Linepattern
350
D1
  3
OverhangOff
350
DA
  3
Realistic
350
CD
  3
Shaded
350
D8
  3
Shaded with edges
350
D7
  3
Shades of Gray
350
D4
  3
Sketchy
350
D5
  3
Thicken
350
D0
  3
Wireframe
350
CA
  3
X-Ray
350
D6
  0
XRECORD
  5
177
102
{ACAD_REACTORS
330
C
102
}
330
C
100
AcDbXrecord
280
     1
 90
        1
330
DE
  0
DICTIONARY
  5
16B
102
{ACAD_REACTORS
330
C
102
}
330
C
100
AcDbDictionary
281
     1
  3
CANNOSCALE
350
171
  3
CMLEADERSTYLE
350
16D
  3
CTABLESTYLE
350
16C
  3
CVIEWDETAILSTYLE
350
16E
  3
CVIEWSECTIONSTYLE
350
16F
  3
LAYEREVAL
350
173
  3
LAYERNOTIFY
350
174
  3
LIGHTINGUNITS
350
172
  3
MSLTSCALE
350
170
  0
ACDBDETAILVIEWSTYLE
  5
F6
102
{ACAD_XDICTIONARY
360
1AC
102
}
102
{ACAD_REACTORS
330
F5
102
}
330
F5
100
AcDbModelDocViewStyle
 70
     0
  3
Imperial24
290
     0
100
AcDbDetailViewStyle
 70
     0
 71
     0
 90
        3
 71
     1
340
11
 62
   256
 40
0.24
340
0
 62
   256
 40
0.24
300

 40
0.36
280
     3
 71
     2
340
16
 90
       25
 62
   256
 71
     3
340
11
 62
   256
 40
0.24
 90
        1
 40
0.75
 90
        1
300
%<\AcVar ViewType \f "%tc1">% %<\AcVar ViewDetailId>%\PSCALE %<\AcVar ViewScale \f "%sn">%
 71
     4
340
16
 90
       25
 62
   256
340
16
 90
       25
 62
   256
280
     0
  0
LAYOUT
  5
1E
102
{ACAD_REACTORS
330
1A
102
}
330
1A
100
AcDbPlotSettings
  1

  2
\\KTXNTBDC\CASF2PN1
  4

  6

 40
0.0
 41
0.0
 42
0.0
 43
0.0
 44
0.0
 45
0.0
 46
0.0
 47
0.0
 48
0.0
 49
0.0
140
0.0
141
0.0
142
1.0
143
1.0
 70
   688
 72
     0
 73
     0
 74
     5
  7

 75
    16
147
1.0
 76
     0
 77
     2
 78
   300
148
0.0
149
0.0
100
AcDbLayout
  1
Layout1
 70
     1
 71
     1
 10
0.0
 20
0.0
 11
12.0
 21
9.0
 12
0.0
 22
0.0
 32
0.0
 14
1.000000000000000E+20
 24
1.000000000000000E+20
 34
1.000000000000000E+20
 15
-1.000000000000000E+20
 25
-1.000000000000000E+20
 35
-1.000000000000000E+20
146
0.0
 13
0.0
 23
0.0
 33
0.0
 16
1.0
 26
0.0
 36
0.0
 17
0.0
 27
1.0
 37
0.0
 76
     0
330
1B
  0
LAYOUT
  5
26
102
{ACAD_REACTORS
330
1A
102
}
330
1A
100
AcDbPlotSettings
  1

  2
\\KTXNTBDC\CASF2PN1
  4

  6

 40
0.0
 41
0.0
 42
0.0
 43
0.0
 44
0.0
 45
0.0
 46
0.0
 47
0.0
 48
0.0
 49
0.0
140
0.0
141
0.0
142
1.0
143
1.0
 70
   688
 72
     0
 73
     0
 74
     5
  7

 75
    16
147
1.0
 76
     0
 77
     2
 78
   300
148
0.0
149
0.0
100
AcDbLayout
  1
Layout2
 70
     1
 71
     2
 10
0.0
 20
0.0
 11
12.0
 21
9.0
 12
0.0
 22
0.0
 32
0.0
 14
0.0
 24
0.0
 34
0.0
 15
0.0
 25
0.0
 35
0.0
146
0.0
 13
0.0
 23
0.0
 33
0.0
 16
1.0
 26
0.0
 36
0.0
 17
0.0
 27
1.0
 37
0.0
 76
     0
330
23
  0
LAYOUT
  5
22
102
{ACAD_REACTORS
330
1A
102
}
330
1A
100
AcDbPlotSettings
  1

  2
\\KTXNTBDC\CASF2PN1
  4

  6

 40
0.0
 41
0.0
 42
0.0
 43
0.0
 44
0.0
 45
0.0
 46
0.0
 47
0.0
 48
0.0
 49
0.0
140
0.0
141
0.0
142
1.0
143
1.0
 70
  1712
 72
     0
 73
     0
 74
     0
  7

 75
     0
147
1.0
 76
     0
 77
     2
 78
   300
148
0.0
149
0.0
100
AcDbLayout
  1
Model
 70
     1
 71
     0
 10
0.0
 20
0.0
 11
12.0
 21
9.0
 12
0.0
 22
0.0
 32
0.0
 14
0.0
 24
0.0
 34
0.0
 15
0.0
 25
0.0
 35
0.0
146
0.0
 13
0.0
 23
0.0
 33
0.0
 16
1.0
 26
0.0
 36
0.0
 17
0.0
 27
1.0
 37
0.0
 76
     0
330
1F
  0
MATERIAL
  5
B3
102
{ACAD_XDICTIONARY
360
B4
102
}
102
{ACAD_REACTORS
330
AA
102
}
330
AA
100
AcDbMaterial
  1
ByBlock
 72
     0
 43
0.0208333333333333
 43
0.0
 43
0.0
 43
0.0
 43
0.0
 43
0.0208333333333333
 43
0.0
 43
0.0
 43
0.0
 43
0.0
 43
1.0
 43
0.0
 43
0.0
 43
0.0
 43
0.0
 43
1.0
 77
     0
 47
0.0208333333333333
 47
0.0
 47
0.0
 47
0.0
 47
0.0
 47
0.0208333333333333
 47
0.0
 47
0.0
 47
0.0
 47
0.0
 47
1.0
 47
0.0
 47
0.0
 47
0.0
 47
0.0
 47
1.0
171
     0
 49
0.0208333333333333
 49
0.0
 49
0.0
 49
0.0
 49
0.0
 49
0.0208333333333333
 49
0.0
 49
0.0
 49
0.0
 49
0.0
 49
1.0
 49
0.0
 49
0.0
 49
0.0
 49
0.0
 49
1.0
175
     0
142
0.0208333333333333
142
0.0
142
0.0
142
0.0
142
0.0
142
0.0208333333333333
142
0.0
142
0.0
142
0.0
142
0.0
142
1.0
142
0.0
142
0.0
142
0.0
142
0.0
142
1.0
179
     0
144
0.0208333333333333
144
0.0
144
0.0
144
0.0
144
0.0
144
0.0208333333333333
144
0.0
144
0.0
144
0.0
144
0.0
144
1.0
144
0.0
144
0.0
144
0.0
144
0.0
144
1.0
147
0.0208333333333333
147
0.0
147
0.0
147
0.0
147
0.0
147
0.0208333333333333
147
0.0
147
0.0
147
0.0
147
0.0
147
1.0
147
0.0
147
0.0
147
0.0
147
0.0
147
1.0
  0
MATERIAL
  5
AB
102
{ACAD_XDICTIONARY
360
AC
102
}
102
{ACAD_REACTORS
330
AA
102
}
330
AA
100
AcDbMaterial
  1
ByLayer
 72
     0
 43
0.0208333333333333
 43
0.0
 43
0.0
 43
0.0
 43
0.0
 43
0.0208333333333333
 43
0.0
 43
0.0
 43
0.0
 43
0.0
 43
1.0
 43
0.0
 43
0.0
 43
0.0
 43
0.0
 43
1.0
 77
     0
 47
0.0208333333333333
 47
0.0
 47
0.0
 47
0.0
 47
0.0
 47
0.0208333333333333
 47
0.0
 47
0.0
 47
0.0
 47
0.0
 47
1.0
 47
0.0
 47
0.0
 47
0.0
 47
0.0
 47
1.0
171
     0
 49
0.0208333333333333
 49
0.0
 49
0.0
 49
0.0
 49
0.0
 49
0.0208333333333333
 49
0.0
 49
0.0
 49
0.0
 49
0.0
 49
1.0
 49
0.0
 49
0.0
 49
0.0
 49
0.0
 49
1.0
175
     0
142
0.0208333333333333
142
0.0
142
0.0
142
0.0
142
0.0
142
0.0208333333333333
142
0.0
142
0.0
142
0.0
142
0.0
142
1.0
142
0.0
142
0.0
142
0.0
142
0.0
142
1.0
179
     0
144
0.0208333333333333
144
0.0
144
0.0
144
0.0
144
0.0
144
0.0208333333333333
144
0.0
144
0.0
144
0.0
144
0.0
144
1.0
144
0.0
144
0.0
144
0.0
144
0.0
144
1.0
147
0.0208333333333333
147
0.0
147
0.0
147
0.0
147
0.0
147
0.0208333333333333
147
0.0
147
0.0
147
0.0
147
0.0
147
1.0
147
0.0
147
0.0
147
0.0
147
0.0
147
1.0
  0
MATERIAL
  5
BB
102
{ACAD_XDICTIONARY
360
BC
102
}
102
{ACAD_REACTORS
330
AA
102
}
330
AA
100
AcDbMaterial
  1
Global
 72
     0
 43
0.0208333333333333
 43
0.0
 43
0.0
 43
0.0
 43
0.0
 43
0.0208333333333333
 43
0.0
 43
0.0
 43
0.0
 43
0.0
 43
1.0
 43
0.0
 43
0.0
 43
0.0
 43
0.0
 43
1.0
 77
     0
 47
0.0208333333333333
 47
0.0
 47
0.0
 47
0.0
 47
0.0
 47
0.0208333333333333
 47
0.0
 47
0.0
 47
0.0
 47
0.0
 47
1.0
 47
0.0
 47
0.0
 47
0.0
 47
0.0
 47
1.0
171
     0
 49
0.0208333333333333
 49
0.0
 49
0.0
 49
0.0
 49
0.0
 49
0.0208333333333333
 49
0.0
 49
0.0
 49
0.0
 49
0.0
 49
1.0
 49
0.0
 49
0.0
 49
0.0
 49
0.0
 49
1.0
175
     0
142
0.0208333333333333
142
0.0
142
0.0
142
0.0
142
0.0
142
0.0208333333333333
142
0.0
142
0.0
142
0.0
142
0.0
142
1.0
142
0.0
142
0.0
142
0.0
142
0.0
142
1.0
179
     0
144
0.0208333333333333
144
0.0
144
0.0
144
0.0
144
0.0
144
0.0208333333333333
144
0.0
144
0.0
144
0.0
144
0.0
144
1.0
144
0.0
144
0.0
144
0.0
144
0.0
144
1.0
147
0.0208333333333333
147
0.0
147
0.0
147
0.0
147
0.0
147
0.0208333333333333
147
0.0
147
0.0
147
0.0
147
0.0
147
1.0
147
0.0
147
0.0
147
0.0
147
0.0
147
1.0
  0
MLEADERSTYLE
  5
F2
102
{ACAD_XDICTIONARY
360
1A8
102
}
102
{ACAD_REACTORS
330
F1
102
}
330
F1
100
AcDbMLeaderStyle
179
     2
170
     2
171
     1
172
     0
 90
        2
 40
0.0
 41
0.0
173
     1
 91
-1056964608
340
14
 92
       -2
290
     1
 42
0.09
291
     1
 43
0.36
  3
Standard
 44
0.18
300

342
11
174
     1
178
     6
175
     1
176
     0
 93
-1056964608
 45
0.18
292
     0
297
     0
 46
0.18
 94
-1056964608
 47
1.0
 49
1.0
140
1.0
293
     1
141
0.0
294
     1
177
     0
142
1.0
295
     0
296
     0
143
0.125
271
     0
272
     9
273
     9
  0
MLINESTYLE
  5
18
102
{ACAD_REACTORS
330
17
102
}
330
17
100
AcDbMlineStyle
  2
STANDARD
 70
     0
  3

 62
   256
 51
90.0
 52
90.0
 71
     2
 49
0.5
 62
   256
  6
BYLAYER
 49
-0.5
 62
   256
  6
BYLAYER
  0
ACDBPLACEHOLDER
  5
2D
102
{ACAD_REACTORS
330
E
102
}
330
E
  0
ACDBPLACEHOLDER
  5
F
102
{ACAD_REACTORS
330
E
102
}
330
E
  0
SCALE
  5
E0
102
{ACAD_REACTORS
330
DF
102
}
330
DF
100
AcDbScale
 70
     0
300
1:1
140
1.0
141
1.0
290
     1
  0
SCALE
  5
E1
102
{ACAD_REACTORS
330
DF
102
}
330
DF
100
AcDbScale
 70
     0
300
1/128" = 1'-0"
140
0.0078125
141
12.0
290
     0
  0
SCALE
  5
E2
102
{ACAD_REACTORS
330
DF
102
}
330
DF
100
AcDbScale
 70
     0
300
1/64" = 1'-0"
140
0.015625
141
12.0
290
     0
  0
SCALE
  5
E3
102
{ACAD_REACTORS
330
DF
102
}
330
DF
100
AcDbScale
 70
     0
300
1/32" = 1'-0"
140
0.03125
141
12.0
290
     0
  0
SCALE
  5
E4
102
{ACAD_REACTORS
330
DF
102
}
330
DF
100
AcDbScale
 70
     0
300
1/16" = 1'-0"
140
0.0625
141
12.0
290
     0
  0
SCALE
  5
E5
102
{ACAD_REACTORS
330
DF
102
}
330
DF
100
AcDbScale
 70
     0
300
3/32" = 1'-0"
140
0.09375
141
12.0
290
     0
  0
SCALE
  5
E6
102
{ACAD_REACTORS
330
DF
102
}
330
DF
100
AcDbScale
 70
     0
300
1/8" = 1'-0"
140
0.125
141
12.0
290
     0
  0
SCALE
  5
E7
102
{ACAD_REACTORS
330
DF
102
}
330
DF
100
AcDbScale
 70
     0
300
3/16" = 1'-0"
140
0.1875
141
12.0
290
     0
  0
SCALE
  5
E8
102
{ACAD_REACTORS
330
DF
102
}
330
DF
100
AcDbScale
 70
     0
300
1/4" = 1'-0"
140
0.25
141
12.0
290
     0
  0
SCALE
  5
E9
102
{ACAD_REACTORS
330
DF
102
}
330
DF
100
AcDbScale
 70
     0
300
3/8" = 1'-0"
140
0.375
141
12.0
290
     0
  0
SCALE
  5
EA
102
{ACAD_REACTORS
330
DF
102
}
330
DF
100
AcDbScale
 70
     0
300
1/2" = 1'-0"
140
0.5
141
12.0
290
     0
  0
SCALE
  5
EB
102
{ACAD_REACTORS
330
DF
102
}
330
DF
100
AcDbScale
 70
     0
300
3/4" = 1'-0"
140
0.75
141
12.0
290
     0
  0
SCALE
  5
EC
102
{ACAD_REACTORS
330
DF
102
}
330
DF
100
AcDbScale
 70
     0
300
1" = 1'-0"
140
1.0
141
12.0
290
     0
  0
SCALE
  5
ED
102
{ACAD_REACTORS
330
DF
102
}
330
DF
100
AcDbScale
 70
     0
300
1-1/2" = 1'-0"
140
1.5
141
12.0
290
     0
  0
SCALE
  5
EE
102
{ACAD_REACTORS
330
DF
102
}
330
DF
100
AcDbScale
 70
     0
300
3" = 1'-0"
140
3.0
141
12.0
290
     0
  0
SCALE
  5
EF
102
{ACAD_REACTORS
330
DF
102
}
330
DF
100
AcDbScale
 70
     0
300
6" = 1'-0"
140
6.0
141
12.0
290
     0
  0
SCALE
  5
F0
102
{ACAD_REACTORS
330
DF
102
}
330
DF
100
AcDbScale
 70
     0
300
1'-0" = 1'-0"
140
12.0
141
12.0
290
     0
  0
ACDBSECTIONVIEWSTYLE
  5
F4
102
{ACAD_XDICTIONARY
360
1AA
102
}
102
{ACAD_REACTORS
330
F3
102
}
330
F3
100
AcDbModelDocViewStyle
 70
     0
  3
Imperial24
290
     0
100
AcDbSectionViewStyle
 70
     0
 71
     0
 90
       78
 71
     1
340
11
 62
   256
 40
0.24
340
0
340
0
 62
   256
 40
0.24
300
I, O, Q, S, X, Z
 40
0.48
 90
        3
 40
0.18
 90
        1
 71
     2
340
16
 90
       25
 62
   256
340
16
 90
       50
 62
   256
 40
0.24
 40
0.0
 40
0.24
 71
     3
340
11
 62
   256
 40
0.24
 90
        1
 40
0.75
 90
        1
300
%<\AcVar ViewType \f "%tc1">% %<\AcVar ViewSectionStartId>%-%<\AcVar ViewSectionEndId>%\PSCALE %<\AcVar ViewScale \f "%sn">%
 71
     4
 62
   256
 62
   257
300
ANSI31
 40
1.0
 90
        0
290
     0
290
     0
 90
        6
 40
0.0
 40
1.570796326794896
 40
0.2617993877991494
 40
1.308996938995747
 40
-0.2617993877991494
 40
1.832595714594046
  0
TABLESTYLE
  5
DE
102
{ACAD_XDICTIONARY
360
175
102
}
102
{ACAD_REACTORS
330
DD
102
}
330
DD
100
AcDbTableStyle
280
     0
  3
Standard
 70
     0
 71
     0
 40
0.06
 41
0.06
280
     0
281
     0
  7
Standard
140
0.18
170
     2
 62
     0
 63
     7
283
     0
 90
      512
 91
        0
  1

274
    -2
284
     1
 64
     0
275
    -2
285
     1
 65
     0
276
    -2
286
     1
 66
     0
277
    -2
287
     1
 67
     0
278
    -2
288
     1
 68
     0
279
    -2
289
     1
 69
     0
  7
Standard
140
0.25
170
     5
 62
     0
 63
     7
283
     0
 90
      512
 91
        0
  1

274
    -2
284
     1
 64
     0
275
    -2
285
     1
 65
     0
276
    -2
286
     1
 66
     0
277
    -2
287
     1
 67
     0
278
    -2
288
     1
 68
     0
279
    -2
289
     1
 69
     0
  7
Standard
140
0.18
170
     5
 62
     0
 63
     7
283
     0
 90
      512
 91
        0
  1

274
    -2
284
     1
 64
     0
275
    -2
285
     1
 65
     0
276
    -2
286
     1
 66
     0
277
    -2
287
     1
 67
     0
278
    -2
288
     1
 68
     0
279
    -2
289
     1
 69
     0
  0
VISUALSTYLE
  5
C9
102
{ACAD_XDICTIONARY
360
182
102
}
102
{ACAD_REACTORS
330
C3
102
}
330
C3
100
AcDbVisualStyle
  2
2dWireframe
 70
     4
177
     2
291
     0
 71
     0
176
     1
 72
     2
176
     1
 73
     0
176
     1
 90
        0
176
     1
 40
0.6
176
     1
 41
30.0
176
     1
 63
     7
421
 16777215
176
     1
 74
     1
176
     1
 91
        4
176
     1
 64
     7
176
     1
 65
   257
176
     1
 75
     1
176
     1
175
     1
176
     1
 42
1.0
176
     1
 92
        0
176
     1
 66
   257
176
     1
 43
1.0
176
     1
 76
     1
176
     1
 77
     6
176
     1
 78
     2
176
     1
 67
     7
176
     1
 79
     5
176
     1
170
     0
176
     1
171
     0
176
     1
290
     0
176
     1
 93
        1
176
     1
 44
0.0
176
     1
173
     0
176
     1
1001
ACAD
1000
AcDbSavedByObjectVersion
1070
     0
  0
VISUALSTYLE
  5
C8
102
{ACAD_XDICTIONARY
360
180
102
}
102
{ACAD_REACTORS
330
C3
102
}
330
C3
100
AcDbVisualStyle
  2
Basic
 70
     7
177
     2
291
     1
 71
     1
176
     1
 72
     0
176
     1
 73
     1
176
     1
 90
        0
176
     1
 40
0.6
176
     1
 41
30.0
176
     1
 63
     7
421
 16777215
176
     1
 74
     0
176
     1
 91
        4
176
     1
 64
     7
176
     1
 65
   257
176
     1
 75
     1
176
     1
175
     1
176
     1
 42
1.0
176
     1
 92
        8
176
     1
 66
     7
176
     1
 43
1.0
176
     1
 76
     1
176
     1
 77
     6
176
     1
 78
     2
176
     1
 67
     7
176
     1
 79
     5
176
     1
170
     0
176
     1
171
     0
176
     1
290
     0
176
     1
 93
        1
176
     1
 44
0.0
176
     1
173
     0
176
     1
1001
ACAD
1000
AcDbSavedByObjectVersion
1070
     0
  0
VISUALSTYLE
  5
CF
102
{ACAD_XDICTIONARY
360
18E
102
}
102
{ACAD_REACTORS
330
C3
102
}
330
C3
100
AcDbVisualStyle
  2
Brighten
 70
    12
177
     2
291
     1
 71
     2
176
     1
 72
     2
176
     1
 73
     0
176
     1
 90
        0
176
     1
 40
0.6
176
     1
 41
30.0
176
     1
 63
     7
421
 16777215
176
     1
 74
     1
176
     1
 91
        4
176
     1
 64
     7
176
     1
 65
   257
176
     1
 75
     1
176
     1
175
     1
176
     1
 42
1.0
176
     1
 92
        8
176
     1
 66
     7
176
     1
 43
1.0
176
     1
 76
     1
176
     1
 77
     6
176
     1
 78
     2
176
     1
 67
     7
176
     1
 79
     5
176
     1
170
     0
176
     1
171
     0
176
     1
290
     0
176
     1
 93
        1
176
     1
 44
50.0
176
     1
173
     0
176
     1
1001
ACAD
1000
AcDbSavedByObjectVersion
1070
     0
  0
VISUALSTYLE
  5
D3
102
{ACAD_XDICTIONARY
360
196
102
}
102
{ACAD_REACTORS
330
C3
102
}
330
C3
100
AcDbVisualStyle
  2
ColorChange
 70
    16
177
     2
291
     1
 71
     2
176
     1
 72
     2
176
     1
 73
     3
176
     1
 90
        0
176
     1
 40
0.6
176
     1
 41
30.0
176
     1
 63
     8
421
  8421504
176
     1
 74
     1
176
     1
 91
        4
176
     1
 64
     7
176
     1
 65
   257
176
     1
 75
     1
176
     1
175
     1
176
     1
 42
1.0
176
     1
 92
        8
176
     1
 66
     8
424
  8421504
176
     1
 43
1.0
176
     1
 76
     1
176
     1
 77
     6
176
     1
 78
     2
176
     1
 67
     7
176
     1
 79
     5
176
     1
170
     0
176
     1
171
     0
176
     1
290
     0
176
     1
 93
        1
176
     1
 44
0.0
176
     1
173
     0
176
     1
1001
ACAD
1000
AcDbSavedByObjectVersion
1070
     0
  0
VISUALSTYLE
  5
CC
102
{ACAD_XDICTIONARY
360
188
102
}
102
{ACAD_REACTORS
330
C3
102
}
330
C3
100
AcDbVisualStyle
  2
Conceptual
 70
     9
177
     2
291
     0
 71
     3
176
     1
 72
     2
176
     1
 73
     0
176
     1
 90
        0
176
     1
 40
0.6
176
     1
 41
30.0
176
     1
 63
     7
421
 16777215
176
     1
 74
     2
176
     1
 91
        2
176
     1
 64
     7
176
     1
 65
   257
176
     1
 75
     1
176
     1
175
     1
176
     1
 42
179.0
176
     1
 92
        8
176
     1
 66
     7
176
     1
 43
1.0
176
     1
 76
     1
176
     1
 77
     6
176
     1
 78
     2
176
     1
 67
     7
176
     1
 79
     3
176
     1
170
     0
176
     1
171
     0
176
     1
290
     0
176
     1
 93
        1
176
     1
 44
0.0
176
     1
173
     0
176
     1
1001
ACAD
1000
AcDbSavedByObjectVersion
1070
     0
  0
VISUALSTYLE
  5
CE
102
{ACAD_XDICTIONARY
360
18C
102
}
102
{ACAD_REACTORS
330
C3
102
}
330
C3
100
AcDbVisualStyle
  2
Dim
 70
    11
177
     2
291
     1
 71
     2
176
     1
 72
     2
176
     1
 73
     0
176
     1
 90
        0
176
     1
 40
0.6
176
     1
 41
30.0
176
     1
 63
     7
421
 16777215
176
     1
 74
     1
176
     1
 91
        4
176
     1
 64
     7
176
     1
 65
   257
176
     1
 75
     1
176
     1
175
     1
176
     1
 42
1.0
176
     1
 92
        8
176
     1
 66
     7
176
     1
 43
1.0
176
     1
 76
     1
176
     1
 77
     6
176
     1
 78
     2
176
     1
 67
     7
176
     1
 79
     5
176
     1
170
     0
176
     1
171
     0
176
     1
290
     0
176
     1
 93
        1
176
     1
 44
-50.0
176
     1
173
     0
176
     1
1001
ACAD
1000
AcDbSavedByObjectVersion
1070
     0
  0
VISUALSTYLE
  5
DB
102
{ACAD_XDICTIONARY
360
1A6
102
}
102
{ACAD_REACTORS
330
C3
102
}
330
C3
100
AcDbVisualStyle
  2
EdgeColorOff
 70
    22
177
     2
291
     1
 71
     2
176
     0
 72
     2
176
     0
 73
     0
176
     0
 90
        0
176
     0
 40
0.6
176
     0
 41
30.0
176
     0
 63
     7
421
 16777215
176
     0
 74
     1
176
     0
 91
        4
176
     0
 64
     7
176
     0
 65
   257
176
     0
 75
     1
176
     0
175
     1
176
     0
 42
1.0
176
     0
 92
        8
176
     2
 66
     7
176
     0
 43
1.0
176
     0
 76
     1
176
     0
 77
     6
176
     0
 78
     2
176
     0
 67
     7
176
     0
 79
     5
176
     0
170
     0
176
     0
171
     0
176
     0
290
     0
176
     0
 93
        1
176
     0
 44
0.0
176
     0
173
     0
176
     0
1001
ACAD
1000
AcDbSavedByObjectVersion
1070
     0
  0
VISUALSTYLE
  5
D2
102
{ACAD_XDICTIONARY
360
194
102
}
102
{ACAD_REACTORS
330
C3
102
}
330
C3
100
AcDbVisualStyle
  2
Facepattern
 70
    15
177
     2
291
     1
 71
     2
176
     1
 72
     2
176
     1
 73
     0
176
     1
 90
        0
176
     1
 40
0.6
176
     1
 41
30.0
176
     1
 63
     7
421
 16777215
176
     1
 74
     1
176
     1
 91
        4
176
     1
 64
     7
176
     1
 65
   257
176
     1
 75
     1
176
     1
175
     1
176
     1
 42
1.0
176
     1
 92
        8
176
     1
 66
     7
176
     1
 43
1.0
176
     1
 76
     1
176
     1
 77
     6
176
     1
 78
     2
176
     1
 67
     7
176
     1
 79
     5
176
     1
170
     0
176
     1
171
     0
176
     1
290
     0
176
     1
 93
        1
176
     1
 44
0.0
176
     1
173
     0
176
     1
1001
ACAD
1000
AcDbSavedByObjectVersion
1070
     0
  0
VISUALSTYLE
  5
C4
102
{ACAD_XDICTIONARY
360
178
102
}
102
{ACAD_REACTORS
330
C3
102
}
330
C3
100
AcDbVisualStyle
  2
Flat
 70
     0
177
     2
291
     1
 71
     2
176
     1
 72
     1
176
     1
 73
     1
176
     1
 90
        2
176
     1
 40
0.6
176
     1
 41
30.0
176
     1
 63
     7
421
 16777215
176
     1
 74
     0
176
     1
 91
        0
176
     1
 64
     7
176
     1
 65
   257
176
     1
 75
     1
176
     1
175
     1
176
     1
 42
1.0
176
     1
 92
        8
176
     1
 66
     7
176
     1
 43
1.0
176
     1
 76
     1
176
     1
 77
     6
176
     1
 78
     2
176
     1
 67
     7
176
     1
 79
     5
176
     1
170
     0
176
     1
171
     0
176
     1
290
     0
176
     1
 93
       13
176
     1
 44
0.0
176
     1
173
     0
176
     1
1001
ACAD
1000
AcDbSavedByObjectVersion
1070
     0
  0
VISUALSTYLE
  5
C5
102
{ACAD_XDICTIONARY
360
17A
102
}
102
{ACAD_REACTORS
330
C3
102
}
330
C3
100
AcDbVisualStyle
  2
FlatWithEdges
 70
     1
177
     2
291
     1
 71
     2
176
     1
 72
     1
176
     1
 73
     1
176
     1
 90
        2
176
     1
 40
0.6
176
     1
 41
30.0
176
     1
 63
     7
421
 16777215
176
     1
 74
     1
176
     1
 91
        0
176
     1
 64
     7
176
     1
 65
   257
176
     1
 75
     1
176
     1
175
     1
176
     1
 42
1.0
176
     1
 92
        0
176
     1
 66
   257
176
     1
 43
1.0
176
     1
 76
     1
176
     1
 77
     6
176
     1
 78
     2
176
     1
 67
     7
176
     1
 79
     5
176
     1
170
     0
176
     1
171
     0
176
     1
290
     0
176
     1
 93
       13
176
     1
 44
0.0
176
     1
173
     0
176
     1
1001
ACAD
1000
AcDbSavedByObjectVersion
1070
     0
  0
VISUALSTYLE
  5
C6
102
{ACAD_XDICTIONARY
360
17C
102
}
102
{ACAD_REACTORS
330
C3
102
}
330
C3
100
AcDbVisualStyle
  2
Gouraud
 70
     2
177
     2
291
     1
 71
     2
176
     1
 72
     2
176
     1
 73
     1
176
     1
 90
        2
176
     1
 40
0.6
176
     1
 41
30.0
176
     1
 63
     7
421
 16777215
176
     1
 74
     0
176
     1
 91
        0
176
     1
 64
     7
176
     1
 65
   257
176
     1
 75
     1
176
     1
175
     1
176
     1
 42
1.0
176
     1
 92
        0
176
     1
 66
     7
176
     1
 43
1.0
176
     1
 76
     1
176
     1
 77
     6
176
     1
 78
     2
176
     1
 67
     7
176
     1
 79
     5
176
     1
170
     0
176
     1
171
     0
176
     1
290
     0
176
     1
 93
       13
176
     1
 44
0.0
176
     1
173
     0
176
     1
1001
ACAD
1000
AcDbSavedByObjectVersion
1070
     0
  0
VISUALSTYLE
  5
C7
102
{ACAD_XDICTIONARY
360
17E
102
}
102
{ACAD_REACTORS
330
C3
102
}
330
C3
100
AcDbVisualStyle
  2
GouraudWithEdges
 70
     3
177
     2
291
     1
 71
     2
176
     1
 72
     2
176
     1
 73
     1
176
     1
 90
        2
176
     1
 40
0.6
176
     1
 41
30.0
176
     1
 63
     7
421
 16777215
176
     1
 74
     1
176
     1
 91
        0
176
     1
 64
     7
176
     1
 65
   257
176
     1
 75
     1
176
     1
175
     1
176
     1
 42
1.0
176
     1
 92
        0
176
     1
 66
   257
176
     1
 43
1.0
176
     1
 76
     1
176
     1
 77
     6
176
     1
 78
     2
176
     1
 67
     7
176
     1
 79
     5
176
     1
170
     0
176
     1
171
     0
176
     1
290
     0
176
     1
 93
       13
176
     1
 44
0.0
176
     1
173
     0
176
     1
1001
ACAD
1000
AcDbSavedByObjectVersion
1070
     0
  0
VISUALSTYLE
  5
CB
102
{ACAD_XDICTIONARY
360
186
102
}
102
{ACAD_REACTORS
330
C3
102
}
330
C3
100
AcDbVisualStyle
  2
Hidden
 70
     6
177
     2
291
     0
 71
     1
176
     1
 72
     2
176
     1
 73
     2
176
     1
 90
        0
176
     1
 40
0.6
176
     1
 41
30.0
176
     1
 63
     7
421
 16777215
176
     1
 74
     2
176
     1
 91
        2
176
     1
 64
     7
176
     1
 65
   257
176
     1
 75
     2
176
     1
175
     1
176
     1
 42
40.0
176
     1
 92
        0
176
     1
 66
   257
176
     1
 43
1.0
176
     1
 76
     1
176
     1
 77
     6
176
     1
 78
     2
176
     1
 67
     7
176
     1
 79
     3
176
     1
170
     0
176
     1
171
     0
176
     1
290
     0
176
     1
 93
        1
176
     1
 44
0.0
176
     1
173
     0
176
     1
1001
ACAD
1000
AcDbSavedByObjectVersion
1070
     0
  0
VISUALSTYLE
  5
D9
102
{ACAD_XDICTIONARY
360
1A2
102
}
102
{ACAD_REACTORS
330
C3
102
}
330
C3
100
AcDbVisualStyle
  2
JitterOff
 70
    20
177
     2
291
     1
 71
     2
176
     0
 72
     2
176
     0
 73
     0
176
     0
 90
        0
176
     0
 40
0.6
176
     0
 41
30.0
176
     0
 63
     7
421
 16777215
176
     0
 74
     1
176
     0
 91
        4
176
     0
 64
     7
176
     0
 65
   257
176
     0
 75
     1
176
     0
175
     1
176
     0
 42
1.0
176
     0
 92
       10
176
     2
 66
     7
176
     0
 43
1.0
176
     0
 76
     1
176
     0
 77
     6
176
     0
 78
     2
176
     0
 67
     7
176
     0
 79
     5
176
     0
170
     0
176
     0
171
     0
176
     0
290
     0
176
     0
 93
        1
176
     0
 44
0.0
176
     0
173
     0
176
     0
1001
ACAD
1000
AcDbSavedByObjectVersion
1070
     0
  0
VISUALSTYLE
  5
D1
102
{ACAD_XDICTIONARY
360
192
102
}
102
{ACAD_REACTORS
330
C3
102
}
330
C3
100
AcDbVisualStyle
  2
Linepattern
 70
    14
177
     2
291
     1
 71
     2
176
     1
 72
     2
176
     1
 73
     0
176
     1
 90
        0
176
     1
 40
0.6
176
     1
 41
30.0
176
     1
 63
     7
421
 16777215
176
     1
 74
     1
176
     1
 91
        4
176
     1
 64
     7
176
     1
 65
   257
176
     1
 75
     7
176
     1
175
     7
176
     1
 42
1.0
176
     1
 92
        8
176
     1
 66
     7
176
     1
 43
1.0
176
     1
 76
     1
176
     1
 77
     6
176
     1
 78
     2
176
     1
 67
     7
176
     1
 79
     5
176
     1
170
     0
176
     1
171
     0
176
     1
290
     0
176
     1
 93
        1
176
     1
 44
0.0
176
     1
173
     0
176
     1
1001
ACAD
1000
AcDbSavedByObjectVersion
1070
     0
  0
VISUALSTYLE
  5
DA
102
{ACAD_XDICTIONARY
360
1A4
102
}
102
{ACAD_REACTORS
330
C3
102
}
330
C3
100
AcDbVisualStyle
  2
OverhangOff
 70
    21
177
     2
291
     1
 71
     2
176
     0
 72
     2
176
     0
 73
     0
176
     0
 90
        0
176
     0
 40
0.6
176
     0
 41
30.0
176
     0
 63
     7
421
 16777215
176
     0
 74
     1
176
     0
 91
        4
176
     0
 64
     7
176
     0
 65
   257
176
     0
 75
     1
176
     0
175
     1
176
     0
 42
1.0
176
     0
 92
        9
176
     2
 66
     7
176
     0
 43
1.0
176
     0
 76
     1
176
     0
 77
     6
176
     0
 78
     2
176
     0
 67
     7
176
     0
 79
     5
176
     0
170
     0
176
     0
171
     0
176
     0
290
     0
176
     0
 93
        1
176
     0
 44
0.0
176
     0
173
     0
176
     0
1001
ACAD
1000
AcDbSavedByObjectVersion
1070
     0
  0
VISUALSTYLE
  5
CD
102
{ACAD_XDICTIONARY
360
18A
102
}
102
{ACAD_REACTORS
330
C3
102
}
330
C3
100
AcDbVisualStyle
  2
Realistic
 70
     8
177
     2
291
     0
 71
     2
176
     1
 72
     3
176
     1
 73
     0
176
     1
 90
        2
176
     1
 40
0.6
176
     1
 41
30.0
176
     1
 63
     7
421
 16777215
176
     1
 74
     0
176
     1
 91
        0
176
     1
 64
     7
176
     1
 65
   257
176
     1
 75
     1
176
     1
175
     1
176
     1
 42
1.0
176
     1
 92
        8
176
     1
 66
   257
176
     1
 43
1.0
176
     1
 76
     1
176
     1
 77
     6
176
     1
 78
     2
176
     1
 67
     7
176
     1
 79
     3
176
     1
170
     0
176
     1
171
     0
176
     1
290
     0
176
     1
 93
       13
176
     1
 44
0.0
176
     1
173
     0
176
     1
1001
ACAD
1000
AcDbSavedByObjectVersion
1070
     0
  0
VISUALSTYLE
  5
D8
102
{ACAD_XDICTIONARY
360
1A0
102
}
102
{ACAD_REACTORS
330
C3
102
}
330
C3
100
AcDbVisualStyle
  2
Shaded
 70
    27
177
     2
291
     0
 71
     2
176
     1
 72
     2
176
     1
 73
     1
176
     1
 90
        2
176
     1
 40
0.6
176
     1
 41
30.0
176
     1
 63
     7
421
 16777215
176
     1
 74
     0
176
     1
 91
        4
176
     1
 64
     7
176
     1
 65
   257
176
     1
 75
     1
176
     1
175
     1
176
     1
 42
1.0
176
     1
 92
        8
176
     1
 66
   257
176
     1
 43
1.0
176
     1
 76
     1
176
     1
 77
     6
176
     1
 78
     2
176
     1
 67
     8
425
  7895160
176
     1
 79
     3
176
     1
170
     0
176
     1
171
     0
176
     1
290
     0
176
     1
 93
        5
176
     1
 44
0.0
176
     1
173
     0
176
     1
1001
ACAD
1000
AcDbSavedByObjectVersion
1070
     0
  0
VISUALSTYLE
  5
D7
102
{ACAD_XDICTIONARY
360
19E
102
}
102
{ACAD_REACTORS
330
C3
102
}
330
C3
100
AcDbVisualStyle
  2
Shaded with edges
 70
    26
177
     2
291
     0
 71
     2
176
     1
 72
     2
176
     1
 73
     1
176
     1
 90
        2
176
     1
 40
0.6
176
     1
 41
30.0
176
     1
 63
     7
421
 16777215
176
     1
 74
     1
176
     1
 91
       10
176
     1
 64
     7
176
     1
 65
   257
176
     1
 75
     2
176
     1
175
     1
176
     1
 42
1.0
176
     1
 92
        8
176
     1
 66
   257
176
     1
 43
1.0
176
     1
 76
     1
176
     1
 77
     6
176
     1
 78
     2
176
     1
 67
     7
176
     1
 79
     3
176
     1
170
     0
176
     1
171
     0
176
     1
290
     0
176
     1
 93
        5
176
     1
 44
0.0
176
     1
173
     0
176
     1
1001
ACAD
1000
AcDbSavedByObjectVersion
1070
     0
  0
VISUALSTYLE
  5
D4
102
{ACAD_XDICTIONARY
360
198
102
}
102
{ACAD_REACTORS
330
C3
102
}
330
C3
100
AcDbVisualStyle
  2
Shades of Gray
 70
    23
177
     2
291
     0
 71
     2
176
     1
 72
     2
176
     1
 73
     3
176
     1
 90
        0
176
     1
 40
0.6
176
     1
 41
30.0
176
     1
 63
     7
421
 16777215
176
     1
 74
     2
176
     1
 91
        2
176
     1
 64
     7
176
     1
 65
     7
176
     1
 75
     1
176
     1
175
     1
176
     1
 42
40.0
176
     1
 92
        8
176
     1
 66
     7
176
     1
 43
1.0
176
     1
 76
     1
176
     1
 77
     6
176
     1
 78
     2
176
     1
 67
     7
176
     1
 79
     3
176
     1
170
     0
176
     1
171
     0
176
     1
290
     0
176
     1
 93
        1
176
     1
 44
0.0
176
     1
173
     0
176
     1
1001
ACAD
1000
AcDbSavedByObjectVersion
1070
     0
  0
VISUALSTYLE
  5
D5
102
{ACAD_XDICTIONARY
360
19A
102
}
102
{ACAD_REACTORS
330
C3
102
}
330
C3
100
AcDbVisualStyle
  2
Sketchy
 70
    24
177
     2
291
     0
 71
     1
176
     1
 72
     2
176
     1
 73
     2
176
     1
 90
        0
176
     1
 40
0.6
176
     1
 41
30.0
176
     1
 63
     7
421
 16777215
176
     1
 74
     2
176
     1
 91
        2
176
     1
 64
     7
176
     1
 65
     7
176
     1
 75
     1
176
     1
175
     1
176
     1
 42
40.0
176
     1
 92
       11
176
     1
 66
     7
176
     1
 43
1.0
176
     1
 76
     1
176
     1
 77
     6
176
     1
 78
     2
176
     1
 67
     7
176
     1
 79
     6
176
     1
170
     0
176
     1
171
     0
176
     1
290
     0
176
     1
 93
        1
176
     1
 44
0.0
176
     1
173
     0
176
     1
1001
ACAD
1000
AcDbSavedByObjectVersion
1070
     0
  0
VISUALSTYLE
  5
D0
102
{ACAD_XDICTIONARY
360
190
102
}
102
{ACAD_REACTORS
330
C3
102
}
330
C3
100
AcDbVisualStyle
  2
Thicken
 70
    13
177
     2
291
     1
 71
     2
176
     1
 72
     2
176
     1
 73
     0
176
     1
 90
        0
176
     1
 40
0.6
176
     1
 41
30.0
176
     1
 63
     7
421
 16777215
176
     1
 74
     1
176
     1
 91
        4
176
     1
 64
     7
176
     1
 65
   257
176
     1
 75
     1
176
     1
175
     1
176
     1
 42
1.0
176
     1
 92
       12
176
     1
 66
     7
176
     1
 43
1.0
176
     1
 76
     1
176
     1
 77
     6
176
     1
 78
     2
176
     1
 67
     7
176
     1
 79
     5
176
     1
170
     0
176
     1
171
     0
176
     1
290
     0
176
     1
 93
        1
176
     1
 44
0.0
176
     1
173
     0
176
     1
1001
ACAD
1000
AcDbSavedByObjectVersion
1070
     0
  0
VISUALSTYLE
  5
CA
102
{ACAD_XDICTIONARY
360
184
102
}
102
{ACAD_REACTORS
330
C3
102
}
330
C3
100
AcDbVisualStyle
  2
Wireframe
 70
     5
177
     2
291
     0
 71
     0
176
     1
 72
     2
176
     1
 73
     0
176
     1
 90
        0
176
     1
 40
0.6
176
     1
 41
30.0
176
     1
 63
     7
421
 16777215
176
     1
 74
     1
176
     1
 91
        4
176
     1
 64
     7
176
     1
 65
   257
176
     1
 75
     1
176
     1
175
     1
176
     1
 42
1.0
176
     1
 92
        0
176
     1
 66
   257
176
     1
 43
1.0
176
     1
 76
     1
176
     1
 77
     6
176
     1
 78
     2
176
     1
 67
     7
176
     1
 79
     3
176
     1
170
     0
176
     1
171
     0
176
     1
290
     0
176
     1
 93
        1
176
     1
 44
0.0
176
     1
173
     0
176
     1
1001
ACAD
1000
AcDbSavedByObjectVersion
1070
     0
  0
VISUALSTYLE
  5
D6
102
{ACAD_XDICTIONARY
360
19C
102
}
102
{ACAD_REACTORS
330
C3
102
}
330
C3
100
AcDbVisualStyle
  2
X-Ray
 70
    25
177
     2
291
     0
 71
     2
176
     1
 72
     2
176
     1
 73
     1
176
     1
 90
        1
176
     1
 40
0.5
176
     1
 41
30.0
176
     1
 63
     7
421
 16777215
176
     1
 74
     1
176
     1
 91
        0
176
     1
 64
     7
176
     1
 65
   257
176
     1
 75
     1
176
     1
175
     1
176
     1
 42
1.0
176
     1
 92
        8
176
     1
 66
     7
176
     1
 43
1.0
176
     1
 76
     1
176
     1
 77
     6
176
     1
 78
     2
176
     1
 67
     7
176
     1
 79
     3
176
     1
170
     0
176
     1
171
     0
176
     1
290
     0
176
     1
 93
       13
176
     1
 44
0.0
176
     1
173
     0
176
     1
1001
ACAD
1000
AcDbSavedByObjectVersion
1070
     0
  0
DICTIONARYVAR
  5
171
102
{ACAD_REACTORS
330
16B
102
}
330
16B
100
DictionaryVariables
280
     0
  1
1:1
  0
DICTIONARYVAR
  5
16D
102
{ACAD_REACTORS
330
16B
102
}
330
16B
100
DictionaryVariables
280
     0
  1
STANDARD
  0
DICTIONARYVAR
  5
16C
102
{ACAD_REACTORS
330
16B
102
}
330
16B
100
DictionaryVariables
280
     0
  1
STANDARD
  0
DICTIONARYVAR
  5
16E
102
{ACAD_REACTORS
330
16B
102
}
330
16B
100
DictionaryVariables
280
     0
  1
Imperial24
  0
DICTIONARYVAR
  5
16F
102
{ACAD_REACTORS
330
16B
102
}
330
16B
100
DictionaryVariables
280
     0
  1
Imperial24
  0
DICTIONARYVAR
  5
173
102
{ACAD_REACTORS
330
16B
102
}
330
16B
100
DictionaryVariables
280
     0
  1
1
  0
DICTIONARYVAR
  5
174
102
{ACAD_REACTORS
330
16B
102
}
330
16B
100
DictionaryVariables
280
     0
  1
15
  0
DICTIONARYVAR
  5
172
102
{ACAD_REACTORS
330
16B
102
}
330
16B
100
DictionaryVariables
280
     0
  1
0
  0
DICTIONARYVAR
  5
170
102
{ACAD_REACTORS
330
16B
102
}
330
16B
100
DictionaryVariables
280
     0
  1
0
  0
DICTIONARY
  5
1AC
330
F6
100
AcDbDictionary
280
     1
281
     1
  3
ACAD_XREC_ROUNDTRIP
360
1AD
  0
DICTIONARY
  5
B4
330
B3
100
AcDbDictionary
280
     1
281
     1
  3
BUMPTILE
360
B6
  3
DIFFUSETILE
360
B5
  3
OPACITYTILE
360
B9
  3
REFLECTIONTILE
360
B8
  3
REFRACTIONTILE
360
BA
  3
SPECULARTILE
360
B7
  0
DICTIONARY
  5
AC
330
AB
100
AcDbDictionary
280
     1
281
     1
  3
BUMPTILE
360
AE
  3
DIFFUSETILE
360
AD
  3
OPACITYTILE
360
B1
  3
REFLECTIONTILE
360
B0
  3
REFRACTIONTILE
360
B2
  3
SPECULARTILE
360
AF
  0
DICTIONARY
  5
BC
330
BB
100
AcDbDictionary
280
     1
281
     1
  3
BUMPTILE
360
BE
  3
DIFFUSETILE
360
BD
  3
OPACITYTILE
360
C1
  3
REFLECTIONTILE
360
C0
  3
REFRACTIONTILE
360
C2
  3
SPECULARTILE
360
BF
  0
DICTIONARY
  5
1A8
330
F2
100
AcDbDictionary
280
     1
281
     1
  3
ACAD_XREC_ROUNDTRIP
360
1A9
  0
DICTIONARY
  5
1AA
330
F4
100
AcDbDictionary
280
     1
281
     1
  3
ACAD_XREC_ROUNDTRIP
360
1AB
  0
DICTIONARY
  5
175
330
DE
100
AcDbDictionary
280
     1
281
     1
  3
ACAD_ROUNDTRIP_2008_TABLESTYLE_CELLSTYLEMAP
360
176
  0
DICTIONARY
  5
182
330
C9
100
AcDbDictionary
280
     1
281
     1
  3
ACAD_XREC_ROUNDTRIP
360
183
  0
DICTIONARY
  5
180
330
C8
100
AcDbDictionary
280
     1
281
     1
  3
ACAD_XREC_ROUNDTRIP
360
181
  0
DICTIONARY
  5
18E
330
CF
100
AcDbDictionary
280
     1
281
     1
  3
ACAD_XREC_ROUNDTRIP
360
18F
  0
DICTIONARY
  5
196
330
D3
100
AcDbDictionary
280
     1
281
     1
  3
ACAD_XREC_ROUNDTRIP
360
197
  0
DICTIONARY
  5
188
330
CC
100
AcDbDictionary
280
     1
281
     1
  3
ACAD_XREC_ROUNDTRIP
360
189
  0
DICTIONARY
  5
18C
330
CE
100
AcDbDictionary
280
     1
281
     1
  3
ACAD_XREC_ROUNDTRIP
360
18D
  0
DICTIONARY
  5
1A6
330
DB
100
AcDbDictionary
280
     1
281
     1
  3
ACAD_XREC_ROUNDTRIP
360
1A7
  0
DICTIONARY
  5
194
330
D2
100
AcDbDictionary
280
     1
281
     1
  3
ACAD_XREC_ROUNDTRIP
360
195
  0
DICTIONARY
  5
178
330
C4
100
AcDbDictionary
280
     1
281
     1
  3
ACAD_XREC_ROUNDTRIP
360
179
  0
DICTIONARY
  5
17A
330
C5
100
AcDbDictionary
280
     1
281
     1
  3
ACAD_XREC_ROUNDTRIP
360
17B
  0
DICTIONARY
  5
17C
330
C6
100
AcDbDictionary
280
     1
281
     1
  3
ACAD_XREC_ROUNDTRIP
360
17D
  0
DICTIONARY
  5
17E
330
C7
100
AcDbDictionary
280
     1
281
     1
  3
ACAD_XREC_ROUNDTRIP
360
17F
  0
DICTIONARY
  5
186
330
CB
100
AcDbDictionary
280
     1
281
     1
  3
ACAD_XREC_ROUNDTRIP
360
187
  0
DICTIONARY
  5
1A2
330
D9
100
AcDbDictionary
280
     1
281
     1
  3
ACAD_XREC_ROUNDTRIP
360
1A3
  0
DICTIONARY
  5
192
330
D1
100
AcDbDictionary
280
     1
281
     1
  3
ACAD_XREC_ROUNDTRIP
360
193
  0
DICTIONARY
  5
1A4
330
DA
100
AcDbDictionary
280
     1
281
     1
  3
ACAD_XREC_ROUNDTRIP
360
1A5
  0
DICTIONARY
  5
18A
330
CD
100
AcDbDictionary
280
     1
281
     1
  3
ACAD_XREC_ROUNDTRIP
360
18B
  0
DICTIONARY
  5
1A0
330
D8
100
AcDbDictionary
280
     1
281
     1
  3
ACAD_XREC_ROUNDTRIP
360
1A1
  0
DICTIONARY
  5
19E
330
D7
100
AcDbDictionary
280
     1
281
     1
  3
ACAD_XREC_ROUNDTRIP
360
19F
  0
DICTIONARY
  5
198
330
D4
100
AcDbDictionary
280
     1
281
     1
  3
ACAD_XREC_ROUNDTRIP
360
199
  0
DICTIONARY
  5
19A
330
D5
100
AcDbDictionary
280
     1
281
     1
  3
ACAD_XREC_ROUNDTRIP
360
19B
  0
DICTIONARY
  5
190
330
D0
100
AcDbDictionary
280
     1
281
     1
  3
ACAD_XREC_ROUNDTRIP
360
191
  0
DICTIONARY
  5
184
330
CA
100
AcDbDictionary
280
     1
281
     1
  3
ACAD_XREC_ROUNDTRIP
360
185
  0
DICTIONARY
  5
19C
330
D6
100
AcDbDictionary
280
     1
281
     1
  3
ACAD_XREC_ROUNDTRIP
360
19D
  0
XRECORD
  5
1AD
102
{ACAD_REACTORS
330
1AC
102
}
330
1AC
100
AcDbXrecord
280
     1
102
DISPLAYNAME
  1
Imperial24
102
FLAGS
 90
        0
  0
XRECORD
  5
B6
102
{ACAD_REACTORS
330
B4
102
}
330
B4
100
AcDbXrecord
280
     1
270
     1
271
     1
  0
XRECORD
  5
B5
102
{ACAD_REACTORS
330
B4
102
}
330
B4
100
AcDbXrecord
280
     1
270
     1
271
     1
  0
XRECORD
  5
B9
102
{ACAD_REACTORS
330
B4
102
}
330
B4
100
AcDbXrecord
280
     1
270
     1
271
     1
  0
XRECORD
  5
B8
102
{ACAD_REACTORS
330
B4
102
}
330
B4
100
AcDbXrecord
280
     1
270
     1
271
     1
  0
XRECORD
  5
BA
102
{ACAD_REACTORS
330
B4
102
}
330
B4
100
AcDbXrecord
280
     1
270
     1
271
     1
  0
XRECORD
  5
B7
102
{ACAD_REACTORS
330
B4
102
}
330
B4
100
AcDbXrecord
280
     1
270
     1
271
     1
  0
XRECORD
  5
AE
102
{ACAD_REACTORS
330
AC
102
}
330
AC
100
AcDbXrecord
280
     1
270
     1
271
     1
  0
XRECORD
  5
AD
102
{ACAD_REACTORS
330
AC
102
}
330
AC
100
AcDbXrecord
280
     1
270
     1
271
     1
  0
XRECORD
  5
B1
102
{ACAD_REACTORS
330
AC
102
}
330
AC
100
AcDbXrecord
280
     1
270
     1
271
     1
  0
XRECORD
  5
B0
102
{ACAD_REACTORS
330
AC
102
}
330
AC
100
AcDbXrecord
280
     1
270
     1
271
     1
  0
XRECORD
  5
B2
102
{ACAD_REACTORS
330
AC
102
}
330
AC
100
AcDbXrecord
280
     1
270
     1
271
     1
  0
XRECORD
  5
AF
102
{ACAD_REACTORS
330
AC
102
}
330
AC
100
AcDbXrecord
280
     1
270
     1
271
     1
  0
XRECORD
  5
BE
102
{ACAD_REACTORS
330
BC
102
}
330
BC
100
AcDbXrecord
280
     1
270
     1
271
     1
  0
XRECORD
  5
BD
102
{ACAD_REACTORS
330
BC
102
}
330
BC
100
AcDbXrecord
280
     1
270
     1
271
     1
  0
XRECORD
  5
C1
102
{ACAD_REACTORS
330
BC
102
}
330
BC
100
AcDbXrecord
280
     1
270
     1
271
     1
  0
XRECORD
  5
C0
102
{ACAD_REACTORS
330
BC
102
}
330
BC
100
AcDbXrecord
280
     1
270
     1
271
     1
  0
XRECORD
  5
C2
102
{ACAD_REACTORS
330
BC
102
}
330
BC
100
AcDbXrecord
280
     1
270
     1
271
     1
  0
XRECORD
  5
BF
102
{ACAD_REACTORS
330
BC
102
}
330
BC
100
AcDbXrecord
280
     1
270
     1
271
     1
  0
XRECORD
  5
1A9
102
{ACAD_REACTORS
330
1A8
102
}
330
1A8
100
AcDbXrecord
280
     1
102
ACAD_ROUNDTRIP_2012_MLEADER_STYLE
298
     1
  0
XRECORD
  5
1AB
102
{ACAD_REACTORS
330
1AA
102
}
330
1AA
100
AcDbXrecord
280
     1
102
DISPLAYNAME
  1
Imperial24
102
FLAGS
 90
        0
  0
CELLSTYLEMAP
  5
176
102
{ACAD_REACTORS
330
175
102
}
330
175
100
AcDbCellStyleMap
 90
        3
300
CELLSTYLE
  1
TABLEFORMAT_BEGIN
 90
        5
170
     1
 91
        0
 92
    32768
 62
   257
 93
        1
300
CONTENTFORMAT
  1
CONTENTFORMAT_BEGIN
 90
        0
 91
        0
 92
      512
 93
        0
300

 40
0.0
140
1.0
 94
        5
 62
     0
340
11
144
0.25
309
CONTENTFORMAT_END
171
     0
 94
        0
309
TABLEFORMAT_END
  1
CELLSTYLE_BEGIN
 90
        1
 91
        1
300
_TITLE
309
CELLSTYLE_END
300
CELLSTYLE
  1
TABLEFORMAT_BEGIN
 90
        5
170
     1
 91
        0
 92
        0
 62
   257
 93
        1
300
CONTENTFORMAT
  1
CONTENTFORMAT_BEGIN
 90
        0
 91
        0
 92
      512
 93
        0
300

 40
0.0
140
1.0
 94
        5
 62
     0
340
11
144
0.18
309
CONTENTFORMAT_END
171
     0
 94
        0
309
TABLEFORMAT_END
  1
CELLSTYLE_BEGIN
 90
        2
 91
        1
300
_HEADER
309
CELLSTYLE_END
300
CELLSTYLE
  1
TABLEFORMAT_BEGIN
 90
        5
170
     1
 91
        0
 92
        0
 62
   257
 93
        1
300
CONTENTFORMAT
  1
CONTENTFORMAT_BEGIN
 90
        0
 91
        0
 92
      512
 93
        0
300

 40
0.0
140
1.0
 94
        2
 62
     0
340
11
144
0.18
309
CONTENTFORMAT_END
171
     0
 94
        0
309
TABLEFORMAT_END
  1
CELLSTYLE_BEGIN
 90
        3
 91
        2
300
_DATA
309
CELLSTYLE_END
  0
XRECORD
  5
183
102
{ACAD_REACTORS
330
182
102
}
330
182
100
AcDbXrecord
280
     1
102
RTVSPost2010Prop28
280
     1
102
RTVSPost2010PropOp28
 70
     1
102
RTVSPost2010Prop29
280
     1
102
RTVSPost2010PropOp29
 70
     1
102
RTVSPost2010Prop30
280
     0
102
RTVSPost2010PropOp30
 70
     1
102
RTVSPost2010Prop31
280
     0
102
RTVSPost2010PropOp31
 70
     1
102
RTVSPost2010Prop32
280
     0
102
RTVSPost2010PropOp32
 70
     1
102
RTVSPost2010Prop33
280
     0
102
RTVSPost2010PropOp33
 70
     1
102
RTVSPost2010Prop34
280
     0
102
RTVSPost2010PropOp34
 70
     1
102
RTVSPost2010Prop35
280
     0
102
RTVSPost2010PropOp35
 70
     1
102
RTVSPost2010Prop36
280
     0
102
RTVSPost2010PropOp36
 70
     1
102
RTVSPost2010Prop37
 90
       50
102
RTVSPost2010PropOp37
 70
     1
102
RTVSPost2010Prop38
140
0.0
102
RTVSPost2010PropOp38
 70
     1
102
RTVSPost2010Prop39
140
1.0
102
RTVSPost2010PropOp39
 70
     1
102
RTVSPost2010Prop40
 90
        0
102
RTVSPost2010PropOp40
 70
     1
102
RTVSPost2010Prop41ColorIndex
 90
       18
102
RTVSPost2010Prop41ColorRGB
 90
        0
102
RTVSPost2010PropOp41
 70
     1
102
RTVSPost2010Prop42
 90
       50
102
RTVSPost2010PropOp42
 70
     1
102
RTVSPost2010Prop43
 90
        3
102
RTVSPost2010PropOp43
 70
     1
102
RTVSPost2010Prop44ColorIndex
 90
        5
102
RTVSPost2010Prop44ColorRGB
 90
      255
102
RTVSPost2010PropOp44
 70
     1
102
RTVSPost2010Prop45
280
     0
102
RTVSPost2010PropOp45
 70
     1
102
RTVSPost2010Prop46
 90
       50
102
RTVSPost2010PropOp46
 70
     1
102
RTVSPost2010Prop47
 90
       50
102
RTVSPost2010PropOp47
 70
     1
102
RTVSPost2010Prop48
 90
       50
102
RTVSPost2010PropOp48
 70
     1
102
RTVSPost2010Prop49
280
     0
102
RTVSPost2010PropOp49
 70
     1
102
RTVSPost2010Prop50
 90
       50
102
RTVSPost2010PropOp50
 70
     1
102
RTVSPost2010Prop51ColorIndex
 90
      256
102
RTVSPost2010Prop51ColorRGB
 90
-16777216
102
RTVSPost2010PropOp51
 70
     0
102
RTVSPost2010Prop52
140
1.0
102
RTVSPost2010PropOp52
 70
     0
102
RTVSPost2010Prop53
 90
        2
102
RTVSPost2010PropOp53
 70
     1
102
RTVSPost2010Prop54
  1
strokes_ogs.tif
102
RTVSPost2010PropOp54
 70
     1
102
RTVSPost2010Prop55
280
     0
102
RTVSPost2010PropOp55
 70
     1
102
RTVSPost2010Prop56
140
1.0
102
RTVSPost2010PropOp56
 70
     1
102
RTVSPost2010Prop57
140
1.0
102
RTVSPost2010PropOp57
 70
     1
  0
XRECORD
  5
181
102
{ACAD_REACTORS
330
180
102
}
330
180
100
AcDbXrecord
280
     1
102
RTVSPost2010Prop28
280
     0
102
RTVSPost2010PropOp28
 70
     1
102
RTVSPost2010Prop29
280
     1
102
RTVSPost2010PropOp29
 70
     1
102
RTVSPost2010Prop30
280
     1
102
RTVSPost2010PropOp30
 70
     1
102
RTVSPost2010Prop31
280
     0
102
RTVSPost2010PropOp31
 70
     1
102
RTVSPost2010Prop32
280
     0
102
RTVSPost2010PropOp32
 70
     1
102
RTVSPost2010Prop33
280
     0
102
RTVSPost2010PropOp33
 70
     1
102
RTVSPost2010Prop34
280
     0
102
RTVSPost2010PropOp34
 70
     1
102
RTVSPost2010Prop35
280
     0
102
RTVSPost2010PropOp35
 70
     1
102
RTVSPost2010Prop36
280
     0
102
RTVSPost2010PropOp36
 70
     1
102
RTVSPost2010Prop37
 90
       50
102
RTVSPost2010PropOp37
 70
     1
102
RTVSPost2010Prop38
140
0.0
102
RTVSPost2010PropOp38
 70
     1
102
RTVSPost2010Prop39
140
1.0
102
RTVSPost2010PropOp39
 70
     1
102
RTVSPost2010Prop40
 90
        0
102
RTVSPost2010PropOp40
 70
     1
102
RTVSPost2010Prop41ColorIndex
 90
       18
102
RTVSPost2010Prop41ColorRGB
 90
        0
102
RTVSPost2010PropOp41
 70
     1
102
RTVSPost2010Prop42
 90
       50
102
RTVSPost2010PropOp42
 70
     1
102
RTVSPost2010Prop43
 90
        3
102
RTVSPost2010PropOp43
 70
     1
102
RTVSPost2010Prop44ColorIndex
 90
        5
102
RTVSPost2010Prop44ColorRGB
 90
      255
102
RTVSPost2010PropOp44
 70
     1
102
RTVSPost2010Prop45
280
     0
102
RTVSPost2010PropOp45
 70
     1
102
RTVSPost2010Prop46
 90
       50
102
RTVSPost2010PropOp46
 70
     1
102
RTVSPost2010Prop47
 90
       50
102
RTVSPost2010PropOp47
 70
     1
102
RTVSPost2010Prop48
 90
       50
102
RTVSPost2010PropOp48
 70
     1
102
RTVSPost2010Prop49
280
     0
102
RTVSPost2010PropOp49
 70
     1
102
RTVSPost2010Prop50
 90
       50
102
RTVSPost2010PropOp50
 70
     1
102
RTVSPost2010Prop51ColorIndex
 90
      256
102
RTVSPost2010Prop51ColorRGB
 90
-16777216
102
RTVSPost2010PropOp51
 70
     0
102
RTVSPost2010Prop52
140
1.0
102
RTVSPost2010PropOp52
 70
     0
102
RTVSPost2010Prop53
 90
        2
102
RTVSPost2010PropOp53
 70
     1
102
RTVSPost2010Prop54
  1
strokes_ogs.tif
102
RTVSPost2010PropOp54
 70
     1
102
RTVSPost2010Prop55
280
     0
102
RTVSPost2010PropOp55
 70
     1
102
RTVSPost2010Prop56
140
1.0
102
RTVSPost2010PropOp56
 70
     1
102
RTVSPost2010Prop57
140
1.0
102
RTVSPost2010PropOp57
 70
     1
  0
XRECORD
  5
18F
102
{ACAD_REACTORS
330
18E
102
}
330
18E
100
AcDbXrecord
280
     1
102
RTVSPost2010Prop28
280
     0
102
RTVSPost2010PropOp28
 70
     1
102
RTVSPost2010Prop29
280
     1
102
RTVSPost2010PropOp29
 70
     1
102
RTVSPost2010Prop30
280
     1
102
RTVSPost2010PropOp30
 70
     1
102
RTVSPost2010Prop31
280
     0
102
RTVSPost2010PropOp31
 70
     1
102
RTVSPost2010Prop32
280
     0
102
RTVSPost2010PropOp32
 70
     1
102
RTVSPost2010Prop33
280
     0
102
RTVSPost2010PropOp33
 70
     1
102
RTVSPost2010Prop34
280
     0
102
RTVSPost2010PropOp34
 70
     1
102
RTVSPost2010Prop35
280
     0
102
RTVSPost2010PropOp35
 70
     1
102
RTVSPost2010Prop36
280
     0
102
RTVSPost2010PropOp36
 70
     1
102
RTVSPost2010Prop37
 90
       50
102
RTVSPost2010PropOp37
 70
     1
102
RTVSPost2010Prop38
140
0.0
102
RTVSPost2010PropOp38
 70
     1
102
RTVSPost2010Prop39
140
1.0
102
RTVSPost2010PropOp39
 70
     1
102
RTVSPost2010Prop40
 90
        0
102
RTVSPost2010PropOp40
 70
     1
102
RTVSPost2010Prop41ColorIndex
 90
       18
102
RTVSPost2010Prop41ColorRGB
 90
        0
102
RTVSPost2010PropOp41
 70
     1
102
RTVSPost2010Prop42
 90
       50
102
RTVSPost2010PropOp42
 70
     1
102
RTVSPost2010Prop43
 90
        3
102
RTVSPost2010PropOp43
 70
     1
102
RTVSPost2010Prop44ColorIndex
 90
        5
102
RTVSPost2010Prop44ColorRGB
 90
      255
102
RTVSPost2010PropOp44
 70
     1
102
RTVSPost2010Prop45
280
     0
102
RTVSPost2010PropOp45
 70
     1
102
RTVSPost2010Prop46
 90
       50
102
RTVSPost2010PropOp46
 70
     1
102
RTVSPost2010Prop47
 90
       50
102
RTVSPost2010PropOp47
 70
     1
102
RTVSPost2010Prop48
 90
       50
102
RTVSPost2010PropOp48
 70
     1
102
RTVSPost2010Prop49
280
     0
102
RTVSPost2010PropOp49
 70
     1
102
RTVSPost2010Prop50
 90
       50
102
RTVSPost2010PropOp50
 70
     1
102
RTVSPost2010Prop51ColorIndex
 90
      256
102
RTVSPost2010Prop51ColorRGB
 90
-16777216
102
RTVSPost2010PropOp51
 70
     0
102
RTVSPost2010Prop52
140
1.0
102
RTVSPost2010PropOp52
 70
     0
102
RTVSPost2010Prop53
 90
        2
102
RTVSPost2010PropOp53
 70
     1
102
RTVSPost2010Prop54
  1
strokes_ogs.tif
102
RTVSPost2010PropOp54
 70
     1
102
RTVSPost2010Prop55
280
     0
102
RTVSPost2010PropOp55
 70
     1
102
RTVSPost2010Prop56
140
1.0
102
RTVSPost2010PropOp56
 70
     1
102
RTVSPost2010Prop57
140
1.0
102
RTVSPost2010PropOp57
 70
     1
  0
XRECORD
  5
197
102
{ACAD_REACTORS
330
196
102
}
330
196
100
AcDbXrecord
280
     1
102
RTVSPost2010Prop28
280
     0
102
RTVSPost2010PropOp28
 70
     1
102
RTVSPost2010Prop29
280
     1
102
RTVSPost2010PropOp29
 70
     1
102
RTVSPost2010Prop30
280
     1
102
RTVSPost2010PropOp30
 70
     1
102
RTVSPost2010Prop31
280
     0
102
RTVSPost2010PropOp31
 70
     1
102
RTVSPost2010Prop32
280
     0
102
RTVSPost2010PropOp32
 70
     1
102
RTVSPost2010Prop33
280
     0
102
RTVSPost2010PropOp33
 70
     1
102
RTVSPost2010Prop34
280
     0
102
RTVSPost2010PropOp34
 70
     1
102
RTVSPost2010Prop35
280
     0
102
RTVSPost2010PropOp35
 70
     1
102
RTVSPost2010Prop36
280
     0
102
RTVSPost2010PropOp36
 70
     1
102
RTVSPost2010Prop37
 90
       50
102
RTVSPost2010PropOp37
 70
     1
102
RTVSPost2010Prop38
140
0.0
102
RTVSPost2010PropOp38
 70
     1
102
RTVSPost2010Prop39
140
1.0
102
RTVSPost2010PropOp39
 70
     1
102
RTVSPost2010Prop40
 90
        0
102
RTVSPost2010PropOp40
 70
     1
102
RTVSPost2010Prop41ColorIndex
 90
       18
102
RTVSPost2010Prop41ColorRGB
 90
        0
102
RTVSPost2010PropOp41
 70
     1
102
RTVSPost2010Prop42
 90
       50
102
RTVSPost2010PropOp42
 70
     1
102
RTVSPost2010Prop43
 90
        3
102
RTVSPost2010PropOp43
 70
     1
102
RTVSPost2010Prop44ColorIndex
 90
        5
102
RTVSPost2010Prop44ColorRGB
 90
      255
102
RTVSPost2010PropOp44
 70
     1
102
RTVSPost2010Prop45
280
     0
102
RTVSPost2010PropOp45
 70
     1
102
RTVSPost2010Prop46
 90
       50
102
RTVSPost2010PropOp46
 70
     1
102
RTVSPost2010Prop47
 90
       50
102
RTVSPost2010PropOp47
 70
     1
102
RTVSPost2010Prop48
 90
       50
102
RTVSPost2010PropOp48
 70
     1
102
RTVSPost2010Prop49
280
     0
102
RTVSPost2010PropOp49
 70
     1
102
RTVSPost2010Prop50
 90
       50
102
RTVSPost2010PropOp50
 70
     1
102
RTVSPost2010Prop51ColorIndex
 90
      256
102
RTVSPost2010Prop51ColorRGB
 90
-16777216
102
RTVSPost2010PropOp51
 70
     0
102
RTVSPost2010Prop52
140
1.0
102
RTVSPost2010PropOp52
 70
     0
102
RTVSPost2010Prop53
 90
        2
102
RTVSPost2010PropOp53
 70
     1
102
RTVSPost2010Prop54
  1
strokes_ogs.tif
102
RTVSPost2010PropOp54
 70
     1
102
RTVSPost2010Prop55
280
     0
102
RTVSPost2010PropOp55
 70
     1
102
RTVSPost2010Prop56
140
1.0
102
RTVSPost2010PropOp56
 70
     1
102
RTVSPost2010Prop57
140
1.0
102
RTVSPost2010PropOp57
 70
     1
  0
XRECORD
  5
189
102
{ACAD_REACTORS
330
188
102
}
330
188
100
AcDbXrecord
280
     1
102
RTVSPost2010Prop28
280
     0
102
RTVSPost2010PropOp28
 70
     1
102
RTVSPost2010Prop29
280
     1
102
RTVSPost2010PropOp29
 70
     1
102
RTVSPost2010Prop30
280
     1
102
RTVSPost2010PropOp30
 70
     1
102
RTVSPost2010Prop31
280
     0
102
RTVSPost2010PropOp31
 70
     1
102
RTVSPost2010Prop32
280
     0
102
RTVSPost2010PropOp32
 70
     1
102
RTVSPost2010Prop33
280
     0
102
RTVSPost2010PropOp33
 70
     1
102
RTVSPost2010Prop34
280
     0
102
RTVSPost2010PropOp34
 70
     1
102
RTVSPost2010Prop35
280
     0
102
RTVSPost2010PropOp35
 70
     1
102
RTVSPost2010Prop36
280
     0
102
RTVSPost2010PropOp36
 70
     1
102
RTVSPost2010Prop37
 90
       50
102
RTVSPost2010PropOp37
 70
     1
102
RTVSPost2010Prop38
140
0.0
102
RTVSPost2010PropOp38
 70
     1
102
RTVSPost2010Prop39
140
1.0
102
RTVSPost2010PropOp39
 70
     1
102
RTVSPost2010Prop40
 90
        0
102
RTVSPost2010PropOp40
 70
     1
102
RTVSPost2010Prop41ColorIndex
 90
       18
102
RTVSPost2010Prop41ColorRGB
 90
        0
102
RTVSPost2010PropOp41
 70
     1
102
RTVSPost2010Prop42
 90
       50
102
RTVSPost2010PropOp42
 70
     1
102
RTVSPost2010Prop43
 90
        3
102
RTVSPost2010PropOp43
 70
     1
102
RTVSPost2010Prop44ColorIndex
 90
        5
102
RTVSPost2010Prop44ColorRGB
 90
      255
102
RTVSPost2010PropOp44
 70
     1
102
RTVSPost2010Prop45
280
     0
102
RTVSPost2010PropOp45
 70
     1
102
RTVSPost2010Prop46
 90
       50
102
RTVSPost2010PropOp46
 70
     1
102
RTVSPost2010Prop47
 90
       50
102
RTVSPost2010PropOp47
 70
     1
102
RTVSPost2010Prop48
 90
       50
102
RTVSPost2010PropOp48
 70
     1
102
RTVSPost2010Prop49
280
     0
102
RTVSPost2010PropOp49
 70
     1
102
RTVSPost2010Prop50
 90
       50
102
RTVSPost2010PropOp50
 70
     1
102
RTVSPost2010Prop51ColorIndex
 90
      256
102
RTVSPost2010Prop51ColorRGB
 90
-16777216
102
RTVSPost2010PropOp51
 70
     0
102
RTVSPost2010Prop52
140
1.0
102
RTVSPost2010PropOp52
 70
     0
102
RTVSPost2010Prop53
 90
        2
102
RTVSPost2010PropOp53
 70
     1
102
RTVSPost2010Prop54
  1
strokes_ogs.tif
102
RTVSPost2010PropOp54
 70
     1
102
RTVSPost2010Prop55
280
     0
102
RTVSPost2010PropOp55
 70
     1
102
RTVSPost2010Prop56
140
1.0
102
RTVSPost2010PropOp56
 70
     1
102
RTVSPost2010Prop57
140
1.0
102
RTVSPost2010PropOp57
 70
     1
  0
XRECORD
  5
18D
102
{ACAD_REACTORS
330
18C
102
}
330
18C
100
AcDbXrecord
280
     1
102
RTVSPost2010Prop28
280
     0
102
RTVSPost2010PropOp28
 70
     1
102
RTVSPost2010Prop29
280
     1
102
RTVSPost2010PropOp29
 70
     1
102
RTVSPost2010Prop30
280
     1
102
RTVSPost2010PropOp30
 70
     1
102
RTVSPost2010Prop31
280
     0
102
RTVSPost2010PropOp31
 70
     1
102
RTVSPost2010Prop32
280
     0
102
RTVSPost2010PropOp32
 70
     1
102
RTVSPost2010Prop33
280
     0
102
RTVSPost2010PropOp33
 70
     1
102
RTVSPost2010Prop34
280
     0
102
RTVSPost2010PropOp34
 70
     1
102
RTVSPost2010Prop35
280
     0
102
RTVSPost2010PropOp35
 70
     1
102
RTVSPost2010Prop36
280
     0
102
RTVSPost2010PropOp36
 70
     1
102
RTVSPost2010Prop37
 90
       50
102
RTVSPost2010PropOp37
 70
     1
102
RTVSPost2010Prop38
140
0.0
102
RTVSPost2010PropOp38
 70
     1
102
RTVSPost2010Prop39
140
1.0
102
RTVSPost2010PropOp39
 70
     1
102
RTVSPost2010Prop40
 90
        0
102
RTVSPost2010PropOp40
 70
     1
102
RTVSPost2010Prop41ColorIndex
 90
       18
102
RTVSPost2010Prop41ColorRGB
 90
        0
102
RTVSPost2010PropOp41
 70
     1
102
RTVSPost2010Prop42
 90
       50
102
RTVSPost2010PropOp42
 70
     1
102
RTVSPost2010Prop43
 90
        3
102
RTVSPost2010PropOp43
 70
     1
102
RTVSPost2010Prop44ColorIndex
 90
        5
102
RTVSPost2010Prop44ColorRGB
 90
      255
102
RTVSPost2010PropOp44
 70
     1
102
RTVSPost2010Prop45
280
     0
102
RTVSPost2010PropOp45
 70
     1
102
RTVSPost2010Prop46
 90
       50
102
RTVSPost2010PropOp46
 70
     1
102
RTVSPost2010Prop47
 90
       50
102
RTVSPost2010PropOp47
 70
     1
102
RTVSPost2010Prop48
 90
       50
102
RTVSPost2010PropOp48
 70
     1
102
RTVSPost2010Prop49
280
     0
102
RTVSPost2010PropOp49
 70
     1
102
RTVSPost2010Prop50
 90
       50
102
RTVSPost2010PropOp50
 70
     1
102
RTVSPost2010Prop51ColorIndex
 90
      256
102
RTVSPost2010Prop51ColorRGB
 90
-16777216
102
RTVSPost2010PropOp51
 70
     0
102
RTVSPost2010Prop52
140
1.0
102
RTVSPost2010PropOp52
 70
     0
102
RTVSPost2010Prop53
 90
        2
102
RTVSPost2010PropOp53
 70
     1
102
RTVSPost2010Prop54
  1
strokes_ogs.tif
102
RTVSPost2010PropOp54
 70
     1
102
RTVSPost2010Prop55
280
     0
102
RTVSPost2010PropOp55
 70
     1
102
RTVSPost2010Prop56
140
1.0
102
RTVSPost2010PropOp56
 70
     1
102
RTVSPost2010Prop57
140
1.0
102
RTVSPost2010PropOp57
 70
     1
  0
XRECORD
  5
1A7
102
{ACAD_REACTORS
330
1A6
102
}
330
1A6
100
AcDbXrecord
280
     1
102
RTVSPost2010Prop28
280
     0
102
RTVSPost2010PropOp28
 70
     0
102
RTVSPost2010Prop29
280
     1
102
RTVSPost2010PropOp29
 70
     0
102
RTVSPost2010Prop30
280
     1
102
RTVSPost2010PropOp30
 70
     0
102
RTVSPost2010Prop31
280
     0
102
RTVSPost2010PropOp31
 70
     0
102
RTVSPost2010Prop32
280
     0
102
RTVSPost2010PropOp32
 70
     0
102
RTVSPost2010Prop33
280
     0
102
RTVSPost2010PropOp33
 70
     0
102
RTVSPost2010Prop34
280
     0
102
RTVSPost2010PropOp34
 70
     0
102
RTVSPost2010Prop35
280
     0
102
RTVSPost2010PropOp35
 70
     0
102
RTVSPost2010Prop36
280
     0
102
RTVSPost2010PropOp36
 70
     0
102
RTVSPost2010Prop37
 90
       50
102
RTVSPost2010PropOp37
 70
     0
102
RTVSPost2010Prop38
140
0.0
102
RTVSPost2010PropOp38
 70
     0
102
RTVSPost2010Prop39
140
1.0
102
RTVSPost2010PropOp39
 70
     0
102
RTVSPost2010Prop40
 90
        0
102
RTVSPost2010PropOp40
 70
     0
102
RTVSPost2010Prop41ColorIndex
 90
       18
102
RTVSPost2010Prop41ColorRGB
 90
        0
102
RTVSPost2010PropOp41
 70
     0
102
RTVSPost2010Prop42
 90
       50
102
RTVSPost2010PropOp42
 70
     0
102
RTVSPost2010Prop43
 90
        3
102
RTVSPost2010PropOp43
 70
     0
102
RTVSPost2010Prop44ColorIndex
 90
        5
102
RTVSPost2010Prop44ColorRGB
 90
      255
102
RTVSPost2010PropOp44
 70
     0
102
RTVSPost2010Prop45
280
     0
102
RTVSPost2010PropOp45
 70
     0
102
RTVSPost2010Prop46
 90
       50
102
RTVSPost2010PropOp46
 70
     0
102
RTVSPost2010Prop47
 90
       50
102
RTVSPost2010PropOp47
 70
     0
102
RTVSPost2010Prop48
 90
       50
102
RTVSPost2010PropOp48
 70
     0
102
RTVSPost2010Prop49
280
     0
102
RTVSPost2010PropOp49
 70
     0
102
RTVSPost2010Prop50
 90
       50
102
RTVSPost2010PropOp50
 70
     0
102
RTVSPost2010Prop51ColorIndex
 90
      256
102
RTVSPost2010Prop51ColorRGB
 90
-16777216
102
RTVSPost2010PropOp51
 70
     0
102
RTVSPost2010Prop52
140
1.0
102
RTVSPost2010PropOp52
 70
     0
102
RTVSPost2010Prop53
 90
        2
102
RTVSPost2010PropOp53
 70
     0
102
RTVSPost2010Prop54
  1
strokes_ogs.tif
102
RTVSPost2010PropOp54
 70
     0
102
RTVSPost2010Prop55
280
     0
102
RTVSPost2010PropOp55
 70
     0
102
RTVSPost2010Prop56
140
1.0
102
RTVSPost2010PropOp56
 70
     0
102
RTVSPost2010Prop57
140
1.0
102
RTVSPost2010PropOp57
 70
     0
  0
XRECORD
  5
195
102
{ACAD_REACTORS
330
194
102
}
330
194
100
AcDbXrecord
280
     1
102
RTVSPost2010Prop28
280
     0
102
RTVSPost2010PropOp28
 70
     1
102
RTVSPost2010Prop29
280
     1
102
RTVSPost2010PropOp29
 70
     1
102
RTVSPost2010Prop30
280
     1
102
RTVSPost2010PropOp30
 70
     1
102
RTVSPost2010Prop31
280
     0
102
RTVSPost2010PropOp31
 70
     1
102
RTVSPost2010Prop32
280
     0
102
RTVSPost2010PropOp32
 70
     1
102
RTVSPost2010Prop33
280
     0
102
RTVSPost2010PropOp33
 70
     1
102
RTVSPost2010Prop34
280
     0
102
RTVSPost2010PropOp34
 70
     1
102
RTVSPost2010Prop35
280
     0
102
RTVSPost2010PropOp35
 70
     1
102
RTVSPost2010Prop36
280
     0
102
RTVSPost2010PropOp36
 70
     1
102
RTVSPost2010Prop37
 90
       50
102
RTVSPost2010PropOp37
 70
     1
102
RTVSPost2010Prop38
140
0.0
102
RTVSPost2010PropOp38
 70
     1
102
RTVSPost2010Prop39
140
1.0
102
RTVSPost2010PropOp39
 70
     1
102
RTVSPost2010Prop40
 90
        0
102
RTVSPost2010PropOp40
 70
     1
102
RTVSPost2010Prop41ColorIndex
 90
       18
102
RTVSPost2010Prop41ColorRGB
 90
        0
102
RTVSPost2010PropOp41
 70
     1
102
RTVSPost2010Prop42
 90
       50
102
RTVSPost2010PropOp42
 70
     1
102
RTVSPost2010Prop43
 90
        3
102
RTVSPost2010PropOp43
 70
     1
102
RTVSPost2010Prop44ColorIndex
 90
        5
102
RTVSPost2010Prop44ColorRGB
 90
      255
102
RTVSPost2010PropOp44
 70
     1
102
RTVSPost2010Prop45
280
     0
102
RTVSPost2010PropOp45
 70
     1
102
RTVSPost2010Prop46
 90
       50
102
RTVSPost2010PropOp46
 70
     1
102
RTVSPost2010Prop47
 90
       50
102
RTVSPost2010PropOp47
 70
     1
102
RTVSPost2010Prop48
 90
       50
102
RTVSPost2010PropOp48
 70
     1
102
RTVSPost2010Prop49
280
     0
102
RTVSPost2010PropOp49
 70
     1
102
RTVSPost2010Prop50
 90
       50
102
RTVSPost2010PropOp50
 70
     1
102
RTVSPost2010Prop51ColorIndex
 90
      256
102
RTVSPost2010Prop51ColorRGB
 90
-16777216
102
RTVSPost2010PropOp51
 70
     0
102
RTVSPost2010Prop52
140
1.0
102
RTVSPost2010PropOp52
 70
     0
102
RTVSPost2010Prop53
 90
        2
102
RTVSPost2010PropOp53
 70
     1
102
RTVSPost2010Prop54
  1
strokes_ogs.tif
102
RTVSPost2010PropOp54
 70
     1
102
RTVSPost2010Prop55
280
     0
102
RTVSPost2010PropOp55
 70
     1
102
RTVSPost2010Prop56
140
1.0
102
RTVSPost2010PropOp56
 70
     1
102
RTVSPost2010Prop57
140
1.0
102
RTVSPost2010PropOp57
 70
     1
  0
XRECORD
  5
179
102
{ACAD_REACTORS
330
178
102
}
330
178
100
AcDbXrecord
280
     1
102
RTVSPost2010Prop28
280
     0
102
RTVSPost2010PropOp28
 70
     1
102
RTVSPost2010Prop29
280
     1
102
RTVSPost2010PropOp29
 70
     1
102
RTVSPost2010Prop30
280
     1
102
RTVSPost2010PropOp30
 70
     1
102
RTVSPost2010Prop31
280
     0
102
RTVSPost2010PropOp31
 70
     1
102
RTVSPost2010Prop32
280
     0
102
RTVSPost2010PropOp32
 70
     1
102
RTVSPost2010Prop33
280
     0
102
RTVSPost2010PropOp33
 70
     1
102
RTVSPost2010Prop34
280
     0
102
RTVSPost2010PropOp34
 70
     1
102
RTVSPost2010Prop35
280
     0
102
RTVSPost2010PropOp35
 70
     1
102
RTVSPost2010Prop36
280
     0
102
RTVSPost2010PropOp36
 70
     1
102
RTVSPost2010Prop37
 90
       50
102
RTVSPost2010PropOp37
 70
     1
102
RTVSPost2010Prop38
140
0.0
102
RTVSPost2010PropOp38
 70
     1
102
RTVSPost2010Prop39
140
1.0
102
RTVSPost2010PropOp39
 70
     1
102
RTVSPost2010Prop40
 90
        0
102
RTVSPost2010PropOp40
 70
     1
102
RTVSPost2010Prop41ColorIndex
 90
       18
102
RTVSPost2010Prop41ColorRGB
 90
        0
102
RTVSPost2010PropOp41
 70
     1
102
RTVSPost2010Prop42
 90
       50
102
RTVSPost2010PropOp42
 70
     1
102
RTVSPost2010Prop43
 90
        3
102
RTVSPost2010PropOp43
 70
     1
102
RTVSPost2010Prop44ColorIndex
 90
        5
102
RTVSPost2010Prop44ColorRGB
 90
      255
102
RTVSPost2010PropOp44
 70
     1
102
RTVSPost2010Prop45
280
     0
102
RTVSPost2010PropOp45
 70
     1
102
RTVSPost2010Prop46
 90
       50
102
RTVSPost2010PropOp46
 70
     1
102
RTVSPost2010Prop47
 90
       50
102
RTVSPost2010PropOp47
 70
     1
102
RTVSPost2010Prop48
 90
       50
102
RTVSPost2010PropOp48
 70
     1
102
RTVSPost2010Prop49
280
     0
102
RTVSPost2010PropOp49
 70
     1
102
RTVSPost2010Prop50
 90
       50
102
RTVSPost2010PropOp50
 70
     1
102
RTVSPost2010Prop51ColorIndex
 90
      256
102
RTVSPost2010Prop51ColorRGB
 90
-16777216
102
RTVSPost2010PropOp51
 70
     0
102
RTVSPost2010Prop52
140
1.0
102
RTVSPost2010PropOp52
 70
     0
102
RTVSPost2010Prop53
 90
        2
102
RTVSPost2010PropOp53
 70
     1
102
RTVSPost2010Prop54
  1
strokes_ogs.tif
102
RTVSPost2010PropOp54
 70
     1
102
RTVSPost2010Prop55
280
     0
102
RTVSPost2010PropOp55
 70
     1
102
RTVSPost2010Prop56
140
1.0
102
RTVSPost2010PropOp56
 70
     1
102
RTVSPost2010Prop57
140
1.0
102
RTVSPost2010PropOp57
 70
     1
  0
XRECORD
  5
17B
102
{ACAD_REACTORS
330
17A
102
}
330
17A
100
AcDbXrecord
280
     1
102
RTVSPost2010Prop28
280
     0
102
RTVSPost2010PropOp28
 70
     1
102
RTVSPost2010Prop29
280
     1
102
RTVSPost2010PropOp29
 70
     1
102
RTVSPost2010Prop30
280
     1
102
RTVSPost2010PropOp30
 70
     1
102
RTVSPost2010Prop31
280
     0
102
RTVSPost2010PropOp31
 70
     1
102
RTVSPost2010Prop32
280
     0
102
RTVSPost2010PropOp32
 70
     1
102
RTVSPost2010Prop33
280
     0
102
RTVSPost2010PropOp33
 70
     1
102
RTVSPost2010Prop34
280
     0
102
RTVSPost2010PropOp34
 70
     1
102
RTVSPost2010Prop35
280
     0
102
RTVSPost2010PropOp35
 70
     1
102
RTVSPost2010Prop36
280
     0
102
RTVSPost2010PropOp36
 70
     1
102
RTVSPost2010Prop37
 90
       50
102
RTVSPost2010PropOp37
 70
     1
102
RTVSPost2010Prop38
140
0.0
102
RTVSPost2010PropOp38
 70
     1
102
RTVSPost2010Prop39
140
1.0
102
RTVSPost2010PropOp39
 70
     1
102
RTVSPost2010Prop40
 90
        0
102
RTVSPost2010PropOp40
 70
     1
102
RTVSPost2010Prop41ColorIndex
 90
       18
102
RTVSPost2010Prop41ColorRGB
 90
        0
102
RTVSPost2010PropOp41
 70
     1
102
RTVSPost2010Prop42
 90
       50
102
RTVSPost2010PropOp42
 70
     1
102
RTVSPost2010Prop43
 90
        3
102
RTVSPost2010PropOp43
 70
     1
102
RTVSPost2010Prop44ColorIndex
 90
        5
102
RTVSPost2010Prop44ColorRGB
 90
      255
102
RTVSPost2010PropOp44
 70
     1
102
RTVSPost2010Prop45
280
     0
102
RTVSPost2010PropOp45
 70
     1
102
RTVSPost2010Prop46
 90
       50
102
RTVSPost2010PropOp46
 70
     1
102
RTVSPost2010Prop47
 90
       50
102
RTVSPost2010PropOp47
 70
     1
102
RTVSPost2010Prop48
 90
       50
102
RTVSPost2010PropOp48
 70
     1
102
RTVSPost2010Prop49
280
     0
102
RTVSPost2010PropOp49
 70
     1
102
RTVSPost2010Prop50
 90
       50
102
RTVSPost2010PropOp50
 70
     1
102
RTVSPost2010Prop51ColorIndex
 90
      256
102
RTVSPost2010Prop51ColorRGB
 90
-16777216
102
RTVSPost2010PropOp51
 70
     0
102
RTVSPost2010Prop52
140
1.0
102
RTVSPost2010PropOp52
 70
     0
102
RTVSPost2010Prop53
 90
        2
102
RTVSPost2010PropOp53
 70
     1
102
RTVSPost2010Prop54
  1
strokes_ogs.tif
102
RTVSPost2010PropOp54
 70
     1
102
RTVSPost2010Prop55
280
     0
102
RTVSPost2010PropOp55
 70
     1
102
RTVSPost2010Prop56
140
1.0
102
RTVSPost2010PropOp56
 70
     1
102
RTVSPost2010Prop57
140
1.0
102
RTVSPost2010PropOp57
 70
     1
  0
XRECORD
  5
17D
102
{ACAD_REACTORS
330
17C
102
}
330
17C
100
AcDbXrecord
280
     1
102
RTVSPost2010Prop28
280
     0
102
RTVSPost2010PropOp28
 70
     1
102
RTVSPost2010Prop29
280
     1
102
RTVSPost2010PropOp29
 70
     1
102
RTVSPost2010Prop30
280
     1
102
RTVSPost2010PropOp30
 70
     1
102
RTVSPost2010Prop31
280
     0
102
RTVSPost2010PropOp31
 70
     1
102
RTVSPost2010Prop32
280
     0
102
RTVSPost2010PropOp32
 70
     1
102
RTVSPost2010Prop33
280
     0
102
RTVSPost2010PropOp33
 70
     1
102
RTVSPost2010Prop34
280
     0
102
RTVSPost2010PropOp34
 70
     1
102
RTVSPost2010Prop35
280
     0
102
RTVSPost2010PropOp35
 70
     1
102
RTVSPost2010Prop36
280
     0
102
RTVSPost2010PropOp36
 70
     1
102
RTVSPost2010Prop37
 90
       50
102
RTVSPost2010PropOp37
 70
     1
102
RTVSPost2010Prop38
140
0.0
102
RTVSPost2010PropOp38
 70
     1
102
RTVSPost2010Prop39
140
1.0
102
RTVSPost2010PropOp39
 70
     1
102
RTVSPost2010Prop40
 90
        0
102
RTVSPost2010PropOp40
 70
     1
102
RTVSPost2010Prop41ColorIndex
 90
       18
102
RTVSPost2010Prop41ColorRGB
 90
        0
102
RTVSPost2010PropOp41
 70
     1
102
RTVSPost2010Prop42
 90
       50
102
RTVSPost2010PropOp42
 70
     1
102
RTVSPost2010Prop43
 90
        3
102
RTVSPost2010PropOp43
 70
     1
102
RTVSPost2010Prop44ColorIndex
 90
        5
102
RTVSPost2010Prop44ColorRGB
 90
      255
102
RTVSPost2010PropOp44
 70
     1
102
RTVSPost2010Prop45
280
     0
102
RTVSPost2010PropOp45
 70
     1
102
RTVSPost2010Prop46
 90
       50
102
RTVSPost2010PropOp46
 70
     1
102
RTVSPost2010Prop47
 90
       50
102
RTVSPost2010PropOp47
 70
     1
102
RTVSPost2010Prop48
 90
       50
102
RTVSPost2010PropOp48
 70
     1
102
RTVSPost2010Prop49
280
     0
102
RTVSPost2010PropOp49
 70
     1
102
RTVSPost2010Prop50
 90
       50
102
RTVSPost2010PropOp50
 70
     1
102
RTVSPost2010Prop51ColorIndex
 90
      256
102
RTVSPost2010Prop51ColorRGB
 90
-16777216
102
RTVSPost2010PropOp51
 70
     0
102
RTVSPost2010Prop52
140
1.0
102
RTVSPost2010PropOp52
 70
     0
102
RTVSPost2010Prop53
 90
        2
102
RTVSPost2010PropOp53
 70
     1
102
RTVSPost2010Prop54
  1
strokes_ogs.tif
102
RTVSPost2010PropOp54
 70
     1
102
RTVSPost2010Prop55
280
     0
102
RTVSPost2010PropOp55
 70
     1
102
RTVSPost2010Prop56
140
1.0
102
RTVSPost2010PropOp56
 70
     1
102
RTVSPost2010Prop57
140
1.0
102
RTVSPost2010PropOp57
 70
     1
  0
XRECORD
  5
17F
102
{ACAD_REACTORS
330
17E
102
}
330
17E
100
AcDbXrecord
280
     1
102
RTVSPost2010Prop28
280
     0
102
RTVSPost2010PropOp28
 70
     1
102
RTVSPost2010Prop29
280
     1
102
RTVSPost2010PropOp29
 70
     1
102
RTVSPost2010Prop30
280
     1
102
RTVSPost2010PropOp30
 70
     1
102
RTVSPost2010Prop31
280
     0
102
RTVSPost2010PropOp31
 70
     1
102
RTVSPost2010Prop32
280
     0
102
RTVSPost2010PropOp32
 70
     1
102
RTVSPost2010Prop33
280
     0
102
RTVSPost2010PropOp33
 70
     1
102
RTVSPost2010Prop34
280
     0
102
RTVSPost2010PropOp34
 70
     1
102
RTVSPost2010Prop35
280
     0
102
RTVSPost2010PropOp35
 70
     1
102
RTVSPost2010Prop36
280
     0
102
RTVSPost2010PropOp36
 70
     1
102
RTVSPost2010Prop37
 90
       50
102
RTVSPost2010PropOp37
 70
     1
102
RTVSPost2010Prop38
140
0.0
102
RTVSPost2010PropOp38
 70
     1
102
RTVSPost2010Prop39
140
1.0
102
RTVSPost2010PropOp39
 70
     1
102
RTVSPost2010Prop40
 90
        0
102
RTVSPost2010PropOp40
 70
     1
102
RTVSPost2010Prop41ColorIndex
 90
       18
102
RTVSPost2010Prop41ColorRGB
 90
        0
102
RTVSPost2010PropOp41
 70
     1
102
RTVSPost2010Prop42
 90
       50
102
RTVSPost2010PropOp42
 70
     1
102
RTVSPost2010Prop43
 90
        3
102
RTVSPost2010PropOp43
 70
     1
102
RTVSPost2010Prop44ColorIndex
 90
        5
102
RTVSPost2010Prop44ColorRGB
 90
      255
102
RTVSPost2010PropOp44
 70
     1
102
RTVSPost2010Prop45
280
     0
102
RTVSPost2010PropOp45
 70
     1
102
RTVSPost2010Prop46
 90
       50
102
RTVSPost2010PropOp46
 70
     1
102
RTVSPost2010Prop47
 90
       50
102
RTVSPost2010PropOp47
 70
     1
102
RTVSPost2010Prop48
 90
       50
102
RTVSPost2010PropOp48
 70
     1
102
RTVSPost2010Prop49
280
     0
102
RTVSPost2010PropOp49
 70
     1
102
RTVSPost2010Prop50
 90
       50
102
RTVSPost2010PropOp50
 70
     1
102
RTVSPost2010Prop51ColorIndex
 90
      256
102
RTVSPost2010Prop51ColorRGB
 90
-16777216
102
RTVSPost2010PropOp51
 70
     0
102
RTVSPost2010Prop52
140
1.0
102
RTVSPost2010PropOp52
 70
     0
102
RTVSPost2010Prop53
 90
        2
102
RTVSPost2010PropOp53
 70
     1
102
RTVSPost2010Prop54
  1
strokes_ogs.tif
102
RTVSPost2010PropOp54
 70
     1
102
RTVSPost2010Prop55
280
     0
102
RTVSPost2010PropOp55
 70
     1
102
RTVSPost2010Prop56
140
1.0
102
RTVSPost2010PropOp56
 70
     1
102
RTVSPost2010Prop57
140
1.0
102
RTVSPost2010PropOp57
 70
     1
  0
XRECORD
  5
187
102
{ACAD_REACTORS
330
186
102
}
330
186
100
AcDbXrecord
280
     1
102
RTVSPost2010Prop28
280
     0
102
RTVSPost2010PropOp28
 70
     1
102
RTVSPost2010Prop29
280
     1
102
RTVSPost2010PropOp29
 70
     1
102
RTVSPost2010Prop30
280
     1
102
RTVSPost2010PropOp30
 70
     1
102
RTVSPost2010Prop31
280
     0
102
RTVSPost2010PropOp31
 70
     1
102
RTVSPost2010Prop32
280
     0
102
RTVSPost2010PropOp32
 70
     1
102
RTVSPost2010Prop33
280
     0
102
RTVSPost2010PropOp33
 70
     1
102
RTVSPost2010Prop34
280
     0
102
RTVSPost2010PropOp34
 70
     1
102
RTVSPost2010Prop35
280
     0
102
RTVSPost2010PropOp35
 70
     1
102
RTVSPost2010Prop36
280
     0
102
RTVSPost2010PropOp36
 70
     1
102
RTVSPost2010Prop37
 90
       50
102
RTVSPost2010PropOp37
 70
     1
102
RTVSPost2010Prop38
140
0.0
102
RTVSPost2010PropOp38
 70
     1
102
RTVSPost2010Prop39
140
1.0
102
RTVSPost2010PropOp39
 70
     1
102
RTVSPost2010Prop40
 90
        0
102
RTVSPost2010PropOp40
 70
     1
102
RTVSPost2010Prop41ColorIndex
 90
       18
102
RTVSPost2010Prop41ColorRGB
 90
        0
102
RTVSPost2010PropOp41
 70
     1
102
RTVSPost2010Prop42
 90
       50
102
RTVSPost2010PropOp42
 70
     1
102
RTVSPost2010Prop43
 90
        3
102
RTVSPost2010PropOp43
 70
     1
102
RTVSPost2010Prop44ColorIndex
 90
        5
102
RTVSPost2010Prop44ColorRGB
 90
      255
102
RTVSPost2010PropOp44
 70
     1
102
RTVSPost2010Prop45
280
     0
102
RTVSPost2010PropOp45
 70
     1
102
RTVSPost2010Prop46
 90
       50
102
RTVSPost2010PropOp46
 70
     1
102
RTVSPost2010Prop47
 90
       50
102
RTVSPost2010PropOp47
 70
     1
102
RTVSPost2010Prop48
 90
       50
102
RTVSPost2010PropOp48
 70
     1
102
RTVSPost2010Prop49
280
     0
102
RTVSPost2010PropOp49
 70
     1
102
RTVSPost2010Prop50
 90
       50
102
RTVSPost2010PropOp50
 70
     1
102
RTVSPost2010Prop51ColorIndex
 90
      256
102
RTVSPost2010Prop51ColorRGB
 90
-16777216
102
RTVSPost2010PropOp51
 70
     0
102
RTVSPost2010Prop52
140
1.0
102
RTVSPost2010PropOp52
 70
     0
102
RTVSPost2010Prop53
 90
        2
102
RTVSPost2010PropOp53
 70
     1
102
RTVSPost2010Prop54
  1
strokes_ogs.tif
102
RTVSPost2010PropOp54
 70
     1
102
RTVSPost2010Prop55
280
     0
102
RTVSPost2010PropOp55
 70
     1
102
RTVSPost2010Prop56
140
1.0
102
RTVSPost2010PropOp56
 70
     1
102
RTVSPost2010Prop57
140
1.0
102
RTVSPost2010PropOp57
 70
     1
  0
XRECORD
  5
1A3
102
{ACAD_REACTORS
330
1A2
102
}
330
1A2
100
AcDbXrecord
280
     1
102
RTVSPost2010Prop28
280
     0
102
RTVSPost2010PropOp28
 70
     0
102
RTVSPost2010Prop29
280
     1
102
RTVSPost2010PropOp29
 70
     0
102
RTVSPost2010Prop30
280
     1
102
RTVSPost2010PropOp30
 70
     0
102
RTVSPost2010Prop31
280
     0
102
RTVSPost2010PropOp31
 70
     0
102
RTVSPost2010Prop32
280
     0
102
RTVSPost2010PropOp32
 70
     0
102
RTVSPost2010Prop33
280
     0
102
RTVSPost2010PropOp33
 70
     0
102
RTVSPost2010Prop34
280
     0
102
RTVSPost2010PropOp34
 70
     0
102
RTVSPost2010Prop35
280
     0
102
RTVSPost2010PropOp35
 70
     0
102
RTVSPost2010Prop36
280
     0
102
RTVSPost2010PropOp36
 70
     0
102
RTVSPost2010Prop37
 90
       50
102
RTVSPost2010PropOp37
 70
     0
102
RTVSPost2010Prop38
140
0.0
102
RTVSPost2010PropOp38
 70
     0
102
RTVSPost2010Prop39
140
1.0
102
RTVSPost2010PropOp39
 70
     0
102
RTVSPost2010Prop40
 90
        0
102
RTVSPost2010PropOp40
 70
     0
102
RTVSPost2010Prop41ColorIndex
 90
       18
102
RTVSPost2010Prop41ColorRGB
 90
        0
102
RTVSPost2010PropOp41
 70
     0
102
RTVSPost2010Prop42
 90
       50
102
RTVSPost2010PropOp42
 70
     0
102
RTVSPost2010Prop43
 90
        3
102
RTVSPost2010PropOp43
 70
     0
102
RTVSPost2010Prop44ColorIndex
 90
        5
102
RTVSPost2010Prop44ColorRGB
 90
      255
102
RTVSPost2010PropOp44
 70
     0
102
RTVSPost2010Prop45
280
     0
102
RTVSPost2010PropOp45
 70
     0
102
RTVSPost2010Prop46
 90
       50
102
RTVSPost2010PropOp46
 70
     0
102
RTVSPost2010Prop47
 90
       50
102
RTVSPost2010PropOp47
 70
     0
102
RTVSPost2010Prop48
 90
       50
102
RTVSPost2010PropOp48
 70
     0
102
RTVSPost2010Prop49
280
     0
102
RTVSPost2010PropOp49
 70
     0
102
RTVSPost2010Prop50
 90
       50
102
RTVSPost2010PropOp50
 70
     0
102
RTVSPost2010Prop51ColorIndex
 90
      256
102
RTVSPost2010Prop51ColorRGB
 90
-16777216
102
RTVSPost2010PropOp51
 70
     0
102
RTVSPost2010Prop52
140
1.0
102
RTVSPost2010PropOp52
 70
     0
102
RTVSPost2010Prop53
 90
        2
102
RTVSPost2010PropOp53
 70
     0
102
RTVSPost2010Prop54
  1
strokes_ogs.tif
102
RTVSPost2010PropOp54
 70
     0
102
RTVSPost2010Prop55
280
     0
102
RTVSPost2010PropOp55
 70
     0
102
RTVSPost2010Prop56
140
1.0
102
RTVSPost2010PropOp56
 70
     0
102
RTVSPost2010Prop57
140
1.0
102
RTVSPost2010PropOp57
 70
     0
  0
XRECORD
  5
193
102
{ACAD_REACTORS
330
192
102
}
330
192
100
AcDbXrecord
280
     1
102
RTVSPost2010Prop28
280
     0
102
RTVSPost2010PropOp28
 70
     1
102
RTVSPost2010Prop29
280
     1
102
RTVSPost2010PropOp29
 70
     1
102
RTVSPost2010Prop30
280
     1
102
RTVSPost2010PropOp30
 70
     1
102
RTVSPost2010Prop31
280
     0
102
RTVSPost2010PropOp31
 70
     1
102
RTVSPost2010Prop32
280
     0
102
RTVSPost2010PropOp32
 70
     1
102
RTVSPost2010Prop33
280
     0
102
RTVSPost2010PropOp33
 70
     1
102
RTVSPost2010Prop34
280
     0
102
RTVSPost2010PropOp34
 70
     1
102
RTVSPost2010Prop35
280
     0
102
RTVSPost2010PropOp35
 70
     1
102
RTVSPost2010Prop36
280
     0
102
RTVSPost2010PropOp36
 70
     1
102
RTVSPost2010Prop37
 90
       50
102
RTVSPost2010PropOp37
 70
     1
102
RTVSPost2010Prop38
140
0.0
102
RTVSPost2010PropOp38
 70
     1
102
RTVSPost2010Prop39
140
1.0
102
RTVSPost2010PropOp39
 70
     1
102
RTVSPost2010Prop40
 90
        0
102
RTVSPost2010PropOp40
 70
     1
102
RTVSPost2010Prop41ColorIndex
 90
       18
102
RTVSPost2010Prop41ColorRGB
 90
        0
102
RTVSPost2010PropOp41
 70
     1
102
RTVSPost2010Prop42
 90
       50
102
RTVSPost2010PropOp42
 70
     1
102
RTVSPost2010Prop43
 90
        3
102
RTVSPost2010PropOp43
 70
     1
102
RTVSPost2010Prop44ColorIndex
 90
        5
102
RTVSPost2010Prop44ColorRGB
 90
      255
102
RTVSPost2010PropOp44
 70
     1
102
RTVSPost2010Prop45
280
     0
102
RTVSPost2010PropOp45
 70
     1
102
RTVSPost2010Prop46
 90
       50
102
RTVSPost2010PropOp46
 70
     1
102
RTVSPost2010Prop47
 90
       50
102
RTVSPost2010PropOp47
 70
     1
102
RTVSPost2010Prop48
 90
       50
102
RTVSPost2010PropOp48
 70
     1
102
RTVSPost2010Prop49
280
     0
102
RTVSPost2010PropOp49
 70
     1
102
RTVSPost2010Prop50
 90
       50
102
RTVSPost2010PropOp50
 70
     1
102
RTVSPost2010Prop51ColorIndex
 90
      256
102
RTVSPost2010Prop51ColorRGB
 90
-16777216
102
RTVSPost2010PropOp51
 70
     0
102
RTVSPost2010Prop52
140
1.0
102
RTVSPost2010PropOp52
 70
     0
102
RTVSPost2010Prop53
 90
        2
102
RTVSPost2010PropOp53
 70
     1
102
RTVSPost2010Prop54
  1
strokes_ogs.tif
102
RTVSPost2010PropOp54
 70
     1
102
RTVSPost2010Prop55
280
     0
102
RTVSPost2010PropOp55
 70
     1
102
RTVSPost2010Prop56
140
1.0
102
RTVSPost2010PropOp56
 70
     1
102
RTVSPost2010Prop57
140
1.0
102
RTVSPost2010PropOp57
 70
     1
  0
XRECORD
  5
1A5
102
{ACAD_REACTORS
330
1A4
102
}
330
1A4
100
AcDbXrecord
280
     1
102
RTVSPost2010Prop28
280
     0
102
RTVSPost2010PropOp28
 70
     0
102
RTVSPost2010Prop29
280
     1
102
RTVSPost2010PropOp29
 70
     0
102
RTVSPost2010Prop30
280
     1
102
RTVSPost2010PropOp30
 70
     0
102
RTVSPost2010Prop31
280
     0
102
RTVSPost2010PropOp31
 70
     0
102
RTVSPost2010Prop32
280
     0
102
RTVSPost2010PropOp32
 70
     0
102
RTVSPost2010Prop33
280
     0
102
RTVSPost2010PropOp33
 70
     0
102
RTVSPost2010Prop34
280
     0
102
RTVSPost2010PropOp34
 70
     0
102
RTVSPost2010Prop35
280
     0
102
RTVSPost2010PropOp35
 70
     0
102
RTVSPost2010Prop36
280
     0
102
RTVSPost2010PropOp36
 70
     0
102
RTVSPost2010Prop37
 90
       50
102
RTVSPost2010PropOp37
 70
     0
102
RTVSPost2010Prop38
140
0.0
102
RTVSPost2010PropOp38
 70
     0
102
RTVSPost2010Prop39
140
1.0
102
RTVSPost2010PropOp39
 70
     0
102
RTVSPost2010Prop40
 90
        0
102
RTVSPost2010PropOp40
 70
     0
102
RTVSPost2010Prop41ColorIndex
 90
       18
102
RTVSPost2010Prop41ColorRGB
 90
        0
102
RTVSPost2010PropOp41
 70
     0
102
RTVSPost2010Prop42
 90
       50
102
RTVSPost2010PropOp42
 70
     0
102
RTVSPost2010Prop43
 90
        3
102
RTVSPost2010PropOp43
 70
     0
102
RTVSPost2010Prop44ColorIndex
 90
        5
102
RTVSPost2010Prop44ColorRGB
 90
      255
102
RTVSPost2010PropOp44
 70
     0
102
RTVSPost2010Prop45
280
     0
102
RTVSPost2010PropOp45
 70
     0
102
RTVSPost2010Prop46
 90
       50
102
RTVSPost2010PropOp46
 70
     0
102
RTVSPost2010Prop47
 90
       50
102
RTVSPost2010PropOp47
 70
     0
102
RTVSPost2010Prop48
 90
       50
102
RTVSPost2010PropOp48
 70
     0
102
RTVSPost2010Prop49
280
     0
102
RTVSPost2010PropOp49
 70
     0
102
RTVSPost2010Prop50
 90
       50
102
RTVSPost2010PropOp50
 70
     0
102
RTVSPost2010Prop51ColorIndex
 90
      256
102
RTVSPost2010Prop51ColorRGB
 90
-16777216
102
RTVSPost2010PropOp51
 70
     0
102
RTVSPost2010Prop52
140
1.0
102
RTVSPost2010PropOp52
 70
     0
102
RTVSPost2010Prop53
 90
        2
102
RTVSPost2010PropOp53
 70
     0
102
RTVSPost2010Prop54
  1
strokes_ogs.tif
102
RTVSPost2010PropOp54
 70
     0
102
RTVSPost2010Prop55
280
     0
102
RTVSPost2010PropOp55
 70
     0
102
RTVSPost2010Prop56
140
1.0
102
RTVSPost2010PropOp56
 70
     0
102
RTVSPost2010Prop57
140
1.0
102
RTVSPost2010PropOp57
 70
     0
  0
XRECORD
  5
18B
102
{ACAD_REACTORS
330
18A
102
}
330
18A
100
AcDbXrecord
280
     1
102
RTVSPost2010Prop28
280
     0
102
RTVSPost2010PropOp28
 70
     1
102
RTVSPost2010Prop29
280
     1
102
RTVSPost2010PropOp29
 70
     1
102
RTVSPost2010Prop30
280
     1
102
RTVSPost2010PropOp30
 70
     1
102
RTVSPost2010Prop31
280
     0
102
RTVSPost2010PropOp31
 70
     1
102
RTVSPost2010Prop32
280
     0
102
RTVSPost2010PropOp32
 70
     1
102
RTVSPost2010Prop33
280
     0
102
RTVSPost2010PropOp33
 70
     1
102
RTVSPost2010Prop34
280
     0
102
RTVSPost2010PropOp34
 70
     1
102
RTVSPost2010Prop35
280
     0
102
RTVSPost2010PropOp35
 70
     1
102
RTVSPost2010Prop36
280
     0
102
RTVSPost2010PropOp36
 70
     1
102
RTVSPost2010Prop37
 90
       50
102
RTVSPost2010PropOp37
 70
     1
102
RTVSPost2010Prop38
140
0.0
102
RTVSPost2010PropOp38
 70
     1
102
RTVSPost2010Prop39
140
1.0
102
RTVSPost2010PropOp39
 70
     1
102
RTVSPost2010Prop40
 90
        0
102
RTVSPost2010PropOp40
 70
     1
102
RTVSPost2010Prop41ColorIndex
 90
       18
102
RTVSPost2010Prop41ColorRGB
 90
        0
102
RTVSPost2010PropOp41
 70
     1
102
RTVSPost2010Prop42
 90
       50
102
RTVSPost2010PropOp42
 70
     1
102
RTVSPost2010Prop43
 90
        3
102
RTVSPost2010PropOp43
 70
     1
102
RTVSPost2010Prop44ColorIndex
 90
        5
102
RTVSPost2010Prop44ColorRGB
 90
      255
102
RTVSPost2010PropOp44
 70
     1
102
RTVSPost2010Prop45
280
     0
102
RTVSPost2010PropOp45
 70
     1
102
RTVSPost2010Prop46
 90
       50
102
RTVSPost2010PropOp46
 70
     1
102
RTVSPost2010Prop47
 90
       50
102
RTVSPost2010PropOp47
 70
     1
102
RTVSPost2010Prop48
 90
       50
102
RTVSPost2010PropOp48
 70
     1
102
RTVSPost2010Prop49
280
     0
102
RTVSPost2010PropOp49
 70
     1
102
RTVSPost2010Prop50
 90
       50
102
RTVSPost2010PropOp50
 70
     1
102
RTVSPost2010Prop51ColorIndex
 90
      256
102
RTVSPost2010Prop51ColorRGB
 90
-16777216
102
RTVSPost2010PropOp51
 70
     0
102
RTVSPost2010Prop52
140
1.0
102
RTVSPost2010PropOp52
 70
     0
102
RTVSPost2010Prop53
 90
        2
102
RTVSPost2010PropOp53
 70
     1
102
RTVSPost2010Prop54
  1
strokes_ogs.tif
102
RTVSPost2010PropOp54
 70
     1
102
RTVSPost2010Prop55
280
     0
102
RTVSPost2010PropOp55
 70
     1
102
RTVSPost2010Prop56
140
1.0
102
RTVSPost2010PropOp56
 70
     1
102
RTVSPost2010Prop57
140
1.0
102
RTVSPost2010PropOp57
 70
     1
  0
XRECORD
  5
1A1
102
{ACAD_REACTORS
330
1A0
102
}
330
1A0
100
AcDbXrecord
280
     1
102
RTVSPost2010Prop28
280
     0
102
RTVSPost2010PropOp28
 70
     1
102
RTVSPost2010Prop29
280
     1
102
RTVSPost2010PropOp29
 70
     1
102
RTVSPost2010Prop30
280
     1
102
RTVSPost2010PropOp30
 70
     1
102
RTVSPost2010Prop31
280
     0
102
RTVSPost2010PropOp31
 70
     1
102
RTVSPost2010Prop32
280
     0
102
RTVSPost2010PropOp32
 70
     1
102
RTVSPost2010Prop33
280
     0
102
RTVSPost2010PropOp33
 70
     1
102
RTVSPost2010Prop34
280
     0
102
RTVSPost2010PropOp34
 70
     1
102
RTVSPost2010Prop35
280
     0
102
RTVSPost2010PropOp35
 70
     1
102
RTVSPost2010Prop36
280
     0
102
RTVSPost2010PropOp36
 70
     1
102
RTVSPost2010Prop37
 90
       50
102
RTVSPost2010PropOp37
 70
     1
102
RTVSPost2010Prop38
140
0.0
102
RTVSPost2010PropOp38
 70
     1
102
RTVSPost2010Prop39
140
1.0
102
RTVSPost2010PropOp39
 70
     1
102
RTVSPost2010Prop40
 90
        0
102
RTVSPost2010PropOp40
 70
     1
102
RTVSPost2010Prop41ColorIndex
 90
       18
102
RTVSPost2010Prop41ColorRGB
 90
        0
102
RTVSPost2010PropOp41
 70
     1
102
RTVSPost2010Prop42
 90
       50
102
RTVSPost2010PropOp42
 70
     1
102
RTVSPost2010Prop43
 90
        3
102
RTVSPost2010PropOp43
 70
     1
102
RTVSPost2010Prop44ColorIndex
 90
        5
102
RTVSPost2010Prop44ColorRGB
 90
      255
102
RTVSPost2010PropOp44
 70
     1
102
RTVSPost2010Prop45
280
     0
102
RTVSPost2010PropOp45
 70
     1
102
RTVSPost2010Prop46
 90
       50
102
RTVSPost2010PropOp46
 70
     1
102
RTVSPost2010Prop47
 90
       50
102
RTVSPost2010PropOp47
 70
     1
102
RTVSPost2010Prop48
 90
       50
102
RTVSPost2010PropOp48
 70
     1
102
RTVSPost2010Prop49
280
     0
102
RTVSPost2010PropOp49
 70
     1
102
RTVSPost2010Prop50
 90
       50
102
RTVSPost2010PropOp50
 70
     1
102
RTVSPost2010Prop51ColorIndex
 90
      256
102
RTVSPost2010Prop51ColorRGB
 90
-16777216
102
RTVSPost2010PropOp51
 70
     0
102
RTVSPost2010Prop52
140
1.0
102
RTVSPost2010PropOp52
 70
     0
102
RTVSPost2010Prop53
 90
        2
102
RTVSPost2010PropOp53
 70
     1
102
RTVSPost2010Prop54
  1
strokes_ogs.tif
102
RTVSPost2010PropOp54
 70
     1
102
RTVSPost2010Prop55
280
     0
102
RTVSPost2010PropOp55
 70
     1
102
RTVSPost2010Prop56
140
1.0
102
RTVSPost2010PropOp56
 70
     1
102
RTVSPost2010Prop57
140
1.0
102
RTVSPost2010PropOp57
 70
     1
  0
XRECORD
  5
19F
102
{ACAD_REACTORS
330
19E
102
}
330
19E
100
AcDbXrecord
280
     1
102
RTVSPost2010Prop28
280
     0
102
RTVSPost2010PropOp28
 70
     1
102
RTVSPost2010Prop29
280
     1
102
RTVSPost2010PropOp29
 70
     1
102
RTVSPost2010Prop30
280
     1
102
RTVSPost2010PropOp30
 70
     1
102
RTVSPost2010Prop31
280
     0
102
RTVSPost2010PropOp31
 70
     1
102
RTVSPost2010Prop32
280
     0
102
RTVSPost2010PropOp32
 70
     1
102
RTVSPost2010Prop33
280
     0
102
RTVSPost2010PropOp33
 70
     1
102
RTVSPost2010Prop34
280
     0
102
RTVSPost2010PropOp34
 70
     1
102
RTVSPost2010Prop35
280
     0
102
RTVSPost2010PropOp35
 70
     1
102
RTVSPost2010Prop36
280
     0
102
RTVSPost2010PropOp36
 70
     1
102
RTVSPost2010Prop37
 90
       50
102
RTVSPost2010PropOp37
 70
     1
102
RTVSPost2010Prop38
140
0.0
102
RTVSPost2010PropOp38
 70
     1
102
RTVSPost2010Prop39
140
1.0
102
RTVSPost2010PropOp39
 70
     1
102
RTVSPost2010Prop40
 90
        0
102
RTVSPost2010PropOp40
 70
     1
102
RTVSPost2010Prop41ColorIndex
 90
       18
102
RTVSPost2010Prop41ColorRGB
 90
        0
102
RTVSPost2010PropOp41
 70
     1
102
RTVSPost2010Prop42
 90
       50
102
RTVSPost2010PropOp42
 70
     1
102
RTVSPost2010Prop43
 90
        3
102
RTVSPost2010PropOp43
 70
     1
102
RTVSPost2010Prop44ColorIndex
 90
        5
102
RTVSPost2010Prop44ColorRGB
 90
      255
102
RTVSPost2010PropOp44
 70
     1
102
RTVSPost2010Prop45
280
     0
102
RTVSPost2010PropOp45
 70
     1
102
RTVSPost2010Prop46
 90
       50
102
RTVSPost2010PropOp46
 70
     1
102
RTVSPost2010Prop47
 90
       50
102
RTVSPost2010PropOp47
 70
     1
102
RTVSPost2010Prop48
 90
       50
102
RTVSPost2010PropOp48
 70
     1
102
RTVSPost2010Prop49
280
     0
102
RTVSPost2010PropOp49
 70
     1
102
RTVSPost2010Prop50
 90
       50
102
RTVSPost2010PropOp50
 70
     1
102
RTVSPost2010Prop51ColorIndex
 90
      256
102
RTVSPost2010Prop51ColorRGB
 90
-16777216
102
RTVSPost2010PropOp51
 70
     0
102
RTVSPost2010Prop52
140
1.0
102
RTVSPost2010PropOp52
 70
     0
102
RTVSPost2010Prop53
 90
        2
102
RTVSPost2010PropOp53
 70
     1
102
RTVSPost2010Prop54
  1
strokes_ogs.tif
102
RTVSPost2010PropOp54
 70
     1
102
RTVSPost2010Prop55
280
     0
102
RTVSPost2010PropOp55
 70
     1
102
RTVSPost2010Prop56
140
1.0
102
RTVSPost2010PropOp56
 70
     1
102
RTVSPost2010Prop57
140
1.0
102
RTVSPost2010PropOp57
 70
     1
  0
XRECORD
  5
199
102
{ACAD_REACTORS
330
198
102
}
330
198
100
AcDbXrecord
280
     1
102
RTVSPost2010Prop28
280
     0
102
RTVSPost2010PropOp28
 70
     1
102
RTVSPost2010Prop29
280
     1
102
RTVSPost2010PropOp29
 70
     1
102
RTVSPost2010Prop30
280
     1
102
RTVSPost2010PropOp30
 70
     1
102
RTVSPost2010Prop31
280
     0
102
RTVSPost2010PropOp31
 70
     1
102
RTVSPost2010Prop32
280
     0
102
RTVSPost2010PropOp32
 70
     1
102
RTVSPost2010Prop33
280
     0
102
RTVSPost2010PropOp33
 70
     1
102
RTVSPost2010Prop34
280
     0
102
RTVSPost2010PropOp34
 70
     1
102
RTVSPost2010Prop35
280
     0
102
RTVSPost2010PropOp35
 70
     1
102
RTVSPost2010Prop36
280
     0
102
RTVSPost2010PropOp36
 70
     1
102
RTVSPost2010Prop37
 90
       50
102
RTVSPost2010PropOp37
 70
     1
102
RTVSPost2010Prop38
140
0.0
102
RTVSPost2010PropOp38
 70
     1
102
RTVSPost2010Prop39
140
1.0
102
RTVSPost2010PropOp39
 70
     1
102
RTVSPost2010Prop40
 90
        0
102
RTVSPost2010PropOp40
 70
     1
102
RTVSPost2010Prop41ColorIndex
 90
       18
102
RTVSPost2010Prop41ColorRGB
 90
        0
102
RTVSPost2010PropOp41
 70
     1
102
RTVSPost2010Prop42
 90
       50
102
RTVSPost2010PropOp42
 70
     1
102
RTVSPost2010Prop43
 90
        3
102
RTVSPost2010PropOp43
 70
     1
102
RTVSPost2010Prop44ColorIndex
 90
        5
102
RTVSPost2010Prop44ColorRGB
 90
      255
102
RTVSPost2010PropOp44
 70
     1
102
RTVSPost2010Prop45
280
     0
102
RTVSPost2010PropOp45
 70
     1
102
RTVSPost2010Prop46
 90
       50
102
RTVSPost2010PropOp46
 70
     1
102
RTVSPost2010Prop47
 90
       50
102
RTVSPost2010PropOp47
 70
     1
102
RTVSPost2010Prop48
 90
       50
102
RTVSPost2010PropOp48
 70
     1
102
RTVSPost2010Prop49
280
     0
102
RTVSPost2010PropOp49
 70
     1
102
RTVSPost2010Prop50
 90
       50
102
RTVSPost2010PropOp50
 70
     1
102
RTVSPost2010Prop51ColorIndex
 90
      256
102
RTVSPost2010Prop51ColorRGB
 90
-16777216
102
RTVSPost2010PropOp51
 70
     0
102
RTVSPost2010Prop52
140
1.0
102
RTVSPost2010PropOp52
 70
     0
102
RTVSPost2010Prop53
 90
        2
102
RTVSPost2010PropOp53
 70
     1
102
RTVSPost2010Prop54
  1
strokes_ogs.tif
102
RTVSPost2010PropOp54
 70
     1
102
RTVSPost2010Prop55
280
     0
102
RTVSPost2010PropOp55
 70
     1
102
RTVSPost2010Prop56
140
1.0
102
RTVSPost2010PropOp56
 70
     1
102
RTVSPost2010Prop57
140
1.0
102
RTVSPost2010PropOp57
 70
     1
  0
XRECORD
  5
19B
102
{ACAD_REACTORS
330
19A
102
}
330
19A
100
AcDbXrecord
280
     1
102
RTVSPost2010Prop28
280
     0
102
RTVSPost2010PropOp28
 70
     1
102
RTVSPost2010Prop29
280
     1
102
RTVSPost2010PropOp29
 70
     1
102
RTVSPost2010Prop30
280
     1
102
RTVSPost2010PropOp30
 70
     1
102
RTVSPost2010Prop31
280
     0
102
RTVSPost2010PropOp31
 70
     1
102
RTVSPost2010Prop32
280
     0
102
RTVSPost2010PropOp32
 70
     1
102
RTVSPost2010Prop33
280
     0
102
RTVSPost2010PropOp33
 70
     1
102
RTVSPost2010Prop34
280
     0
102
RTVSPost2010PropOp34
 70
     1
102
RTVSPost2010Prop35
280
     0
102
RTVSPost2010PropOp35
 70
     1
102
RTVSPost2010Prop36
280
     0
102
RTVSPost2010PropOp36
 70
     1
102
RTVSPost2010Prop37
 90
       50
102
RTVSPost2010PropOp37
 70
     1
102
RTVSPost2010Prop38
140
0.0
102
RTVSPost2010PropOp38
 70
     1
102
RTVSPost2010Prop39
140
1.0
102
RTVSPost2010PropOp39
 70
     1
102
RTVSPost2010Prop40
 90
        0
102
RTVSPost2010PropOp40
 70
     1
102
RTVSPost2010Prop41ColorIndex
 90
       18
102
RTVSPost2010Prop41ColorRGB
 90
        0
102
RTVSPost2010PropOp41
 70
     1
102
RTVSPost2010Prop42
 90
       50
102
RTVSPost2010PropOp42
 70
     1
102
RTVSPost2010Prop43
 90
        3
102
RTVSPost2010PropOp43
 70
     1
102
RTVSPost2010Prop44ColorIndex
 90
        5
102
RTVSPost2010Prop44ColorRGB
 90
      255
102
RTVSPost2010PropOp44
 70
     1
102
RTVSPost2010Prop45
280
     0
102
RTVSPost2010PropOp45
 70
     1
102
RTVSPost2010Prop46
 90
       50
102
RTVSPost2010PropOp46
 70
     1
102
RTVSPost2010Prop47
 90
       50
102
RTVSPost2010PropOp47
 70
     1
102
RTVSPost2010Prop48
 90
       50
102
RTVSPost2010PropOp48
 70
     1
102
RTVSPost2010Prop49
280
     0
102
RTVSPost2010PropOp49
 70
     1
102
RTVSPost2010Prop50
 90
       50
102
RTVSPost2010PropOp50
 70
     1
102
RTVSPost2010Prop51ColorIndex
 90
      256
102
RTVSPost2010Prop51ColorRGB
 90
-16777216
102
RTVSPost2010PropOp51
 70
     0
102
RTVSPost2010Prop52
140
1.0
102
RTVSPost2010PropOp52
 70
     0
102
RTVSPost2010Prop53
 90
        2
102
RTVSPost2010PropOp53
 70
     1
102
RTVSPost2010Prop54
  1
strokes_ogs.tif
102
RTVSPost2010PropOp54
 70
     1
102
RTVSPost2010Prop55
280
     0
102
RTVSPost2010PropOp55
 70
     1
102
RTVSPost2010Prop56
140
1.0
102
RTVSPost2010PropOp56
 70
     1
102
RTVSPost2010Prop57
140
1.0
102
RTVSPost2010PropOp57
 70
     1
  0
XRECORD
  5
191
102
{ACAD_REACTORS
330
190
102
}
330
190
100
AcDbXrecord
280
     1
102
RTVSPost2010Prop28
280
     0
102
RTVSPost2010PropOp28
 70
     1
102
RTVSPost2010Prop29
280
     1
102
RTVSPost2010PropOp29
 70
     1
102
RTVSPost2010Prop30
280
     1
102
RTVSPost2010PropOp30
 70
     1
102
RTVSPost2010Prop31
280
     0
102
RTVSPost2010PropOp31
 70
     1
102
RTVSPost2010Prop32
280
     0
102
RTVSPost2010PropOp32
 70
     1
102
RTVSPost2010Prop33
280
     0
102
RTVSPost2010PropOp33
 70
     1
102
RTVSPost2010Prop34
280
     0
102
RTVSPost2010PropOp34
 70
     1
102
RTVSPost2010Prop35
280
     0
102
RTVSPost2010PropOp35
 70
     1
102
RTVSPost2010Prop36
280
     0
102
RTVSPost2010PropOp36
 70
     1
102
RTVSPost2010Prop37
 90
       50
102
RTVSPost2010PropOp37
 70
     1
102
RTVSPost2010Prop38
140
0.0
102
RTVSPost2010PropOp38
 70
     1
102
RTVSPost2010Prop39
140
1.0
102
RTVSPost2010PropOp39
 70
     1
102
RTVSPost2010Prop40
 90
        0
102
RTVSPost2010PropOp40
 70
     1
102
RTVSPost2010Prop41ColorIndex
 90
       18
102
RTVSPost2010Prop41ColorRGB
 90
        0
102
RTVSPost2010PropOp41
 70
     1
102
RTVSPost2010Prop42
 90
       50
102
RTVSPost2010PropOp42
 70
     1
102
RTVSPost2010Prop43
 90
        3
102
RTVSPost2010PropOp43
 70
     1
102
RTVSPost2010Prop44ColorIndex
 90
        5
102
RTVSPost2010Prop44ColorRGB
 90
      255
102
RTVSPost2010PropOp44
 70
     1
102
RTVSPost2010Prop45
280
     0
102
RTVSPost2010PropOp45
 70
     1
102
RTVSPost2010Prop46
 90
       50
102
RTVSPost2010PropOp46
 70
     1
102
RTVSPost2010Prop47
 90
       50
102
RTVSPost2010PropOp47
 70
     1
102
RTVSPost2010Prop48
 90
       50
102
RTVSPost2010PropOp48
 70
     1
102
RTVSPost2010Prop49
280
     0
102
RTVSPost2010PropOp49
 70
     1
102
RTVSPost2010Prop50
 90
       50
102
RTVSPost2010PropOp50
 70
     1
102
RTVSPost2010Prop51ColorIndex
 90
      256
102
RTVSPost2010Prop51ColorRGB
 90
-16777216
102
RTVSPost2010PropOp51
 70
     0
102
RTVSPost2010Prop52
140
1.0
102
RTVSPost2010PropOp52
 70
     0
102
RTVSPost2010Prop53
 90
        2
102
RTVSPost2010PropOp53
 70
     1
102
RTVSPost2010Prop54
  1
strokes_ogs.tif
102
RTVSPost2010PropOp54
 70
     1
102
RTVSPost2010Prop55
280
     0
102
RTVSPost2010PropOp55
 70
     1
102
RTVSPost2010Prop56
140
1.0
102
RTVSPost2010PropOp56
 70
     1
102
RTVSPost2010Prop57
140
1.0
102
RTVSPost2010PropOp57
 70
     1
  0
XRECORD
  5
185
102
{ACAD_REACTORS
330
184
102
}
330
184
100
AcDbXrecord
280
     1
102
RTVSPost2010Prop28
280
     0
102
RTVSPost2010PropOp28
 70
     1
102
RTVSPost2010Prop29
280
     1
102
RTVSPost2010PropOp29
 70
     1
102
RTVSPost2010Prop30
280
     1
102
RTVSPost2010PropOp30
 70
     1
102
RTVSPost2010Prop31
280
     0
102
RTVSPost2010PropOp31
 70
     1
102
RTVSPost2010Prop32
280
     0
102
RTVSPost2010PropOp32
 70
     1
102
RTVSPost2010Prop33
280
     0
102
RTVSPost2010PropOp33
 70
     1
102
RTVSPost2010Prop34
280
     0
102
RTVSPost2010PropOp34
 70
     1
102
RTVSPost2010Prop35
280
     0
102
RTVSPost2010PropOp35
 70
     1
102
RTVSPost2010Prop36
280
     0
102
RTVSPost2010PropOp36
 70
     1
102
RTVSPost2010Prop37
 90
       50
102
RTVSPost2010PropOp37
 70
     1
102
RTVSPost2010Prop38
140
0.0
102
RTVSPost2010PropOp38
 70
     1
102
RTVSPost2010Prop39
140
1.0
102
RTVSPost2010PropOp39
 70
     1
102
RTVSPost2010Prop40
 90
        0
102
RTVSPost2010PropOp40
 70
     1
102
RTVSPost2010Prop41ColorIndex
 90
       18
102
RTVSPost2010Prop41ColorRGB
 90
        0
102
RTVSPost2010PropOp41
 70
     1
102
RTVSPost2010Prop42
 90
       50
102
RTVSPost2010PropOp42
 70
     1
102
RTVSPost2010Prop43
 90
        3
102
RTVSPost2010PropOp43
 70
     1
102
RTVSPost2010Prop44ColorIndex
 90
        5
102
RTVSPost2010Prop44ColorRGB
 90
      255
102
RTVSPost2010PropOp44
 70
     1
102
RTVSPost2010Prop45
280
     0
102
RTVSPost2010PropOp45
 70
     1
102
RTVSPost2010Prop46
 90
       50
102
RTVSPost2010PropOp46
 70
     1
102
RTVSPost2010Prop47
 90
       50
102
RTVSPost2010PropOp47
 70
     1
102
RTVSPost2010Prop48
 90
       50
102
RTVSPost2010PropOp48
 70
     1
102
RTVSPost2010Prop49
280
     0
102
RTVSPost2010PropOp49
 70
     1
102
RTVSPost2010Prop50
 90
       50
102
RTVSPost2010PropOp50
 70
     1
102
RTVSPost2010Prop51ColorIndex
 90
      256
102
RTVSPost2010Prop51ColorRGB
 90
-16777216
102
RTVSPost2010PropOp51
 70
     0
102
RTVSPost2010Prop52
140
1.0
102
RTVSPost2010PropOp52
 70
     0
102
RTVSPost2010Prop53
 90
        2
102
RTVSPost2010PropOp53
 70
     1
102
RTVSPost2010Prop54
  1
strokes_ogs.tif
102
RTVSPost2010PropOp54
 70
     1
102
RTVSPost2010Prop55
280
     0
102
RTVSPost2010PropOp55
 70
     1
102
RTVSPost2010Prop56
140
1.0
102
RTVSPost2010PropOp56
 70
     1
102
RTVSPost2010Prop57
140
1.0
102
RTVSPost2010PropOp57
 70
     1
  0
XRECORD
  5
19D
102
{ACAD_REACTORS
330
19C
102
}
330
19C
100
AcDbXrecord
280
     1
102
RTVSPost2010Prop28
280
     0
102
RTVSPost2010PropOp28
 70
     1
102
RTVSPost2010Prop29
280
     1
102
RTVSPost2010PropOp29
 70
     1
102
RTVSPost2010Prop30
280
     1
102
RTVSPost2010PropOp30
 70
     1
102
RTVSPost2010Prop31
280
     0
102
RTVSPost2010PropOp31
 70
     1
102
RTVSPost2010Prop32
280
     0
102
RTVSPost2010PropOp32
 70
     1
102
RTVSPost2010Prop33
280
     0
102
RTVSPost2010PropOp33
 70
     1
102
RTVSPost2010Prop34
280
     0
102
RTVSPost2010PropOp34
 70
     1
102
RTVSPost2010Prop35
280
     0
102
RTVSPost2010PropOp35
 70
     1
102
RTVSPost2010Prop36
280
     0
102
RTVSPost2010PropOp36
 70
     1
102
RTVSPost2010Prop37
 90
       50
102
RTVSPost2010PropOp37
 70
     1
102
RTVSPost2010Prop38
140
0.0
102
RTVSPost2010PropOp38
 70
     1
102
RTVSPost2010Prop39
140
1.0
102
RTVSPost2010PropOp39
 70
     1
102
RTVSPost2010Prop40
 90
        0
102
RTVSPost2010PropOp40
 70
     1
102
RTVSPost2010Prop41ColorIndex
 90
       18
102
RTVSPost2010Prop41ColorRGB
 90
        0
102
RTVSPost2010PropOp41
 70
     1
102
RTVSPost2010Prop42
 90
       50
102
RTVSPost2010PropOp42
 70
     1
102
RTVSPost2010Prop43
 90
        3
102
RTVSPost2010PropOp43
 70
     1
102
RTVSPost2010Prop44ColorIndex
 90
        5
102
RTVSPost2010Prop44ColorRGB
 90
      255
102
RTVSPost2010PropOp44
 70
     1
102
RTVSPost2010Prop45
280
     0
102
RTVSPost2010PropOp45
 70
     1
102
RTVSPost2010Prop46
 90
       50
102
RTVSPost2010PropOp46
 70
     1
102
RTVSPost2010Prop47
 90
       50
102
RTVSPost2010PropOp47
 70
     1
102
RTVSPost2010Prop48
 90
       50
102
RTVSPost2010PropOp48
 70
     1
102
RTVSPost2010Prop49
280
     0
102
RTVSPost2010PropOp49
 70
     1
102
RTVSPost2010Prop50
 90
       50
102
RTVSPost2010PropOp50
 70
     1
102
RTVSPost2010Prop51ColorIndex
 90
      256
102
RTVSPost2010Prop51ColorRGB
 90
-16777216
102
RTVSPost2010PropOp51
 70
     0
102
RTVSPost2010Prop52
140
1.0
102
RTVSPost2010PropOp52
 70
     0
102
RTVSPost2010Prop53
 90
        2
102
RTVSPost2010PropOp53
 70
     1
102
RTVSPost2010Prop54
  1
strokes_ogs.tif
102
RTVSPost2010PropOp54
 70
     1
102
RTVSPost2010Prop55
280
     0
102
RTVSPost2010PropOp55
 70
     1
102
RTVSPost2010Prop56
140
1.0
102
RTVSPost2010PropOp56
 70
     1
102
RTVSPost2010Prop57
140
1.0
102
RTVSPost2010PropOp57
 70
     1
  0
ENDSEC
  0
EOF
