  0
SECTION
  2
HEADER
  9
$ACADVER
  1
AC1024
  9
$ACADMAINTVER
 70
   205
  9
$DWGCODEPAGE
  3
ANSI_1251
  9
$INSBASE
 10
0.0
 20
0.0
 30
0.0
  9
$EXTMIN
 10
1.000000000000000E+20
 20
1.000000000000000E+20
 30
1.000000000000000E+20
  9
$EXTMAX
 10
-1.000000000000000E+20
 20
-1.000000000000000E+20
 30
-1.000000000000000E+20
  9
$LIMMIN
 10
0.0
 20
0.0
  9
$LIMMAX
 10
12.0
 20
9.0
  9
$ORTHOMODE
 70
     0
  9
$REGENMODE
 70
     1
  9
$FILLMODE
 70
     1
  9
$QTEXTMODE
 70
     0
  9
$MIRRTEXT
 70
     1
  9
$LTSCALE
 40
1.0
  9
$ATTMODE
 70
     1
  9
$TEXTSIZE
 40
0.2
  9
$TRACEWID
 40
0.05
  9
$TEXTSTYLE
  7
Standard
  9
$CLAYER
  8
OracDecor_cornice_mouldings
  9
$CELTYPE
  6
ByLayer
  9
$CECOLOR
 62
   256
  9
$CELTSCALE
 40
1.0
  9
$DISPSILH
 70
     0
  9
$DIMSCALE
 40
1.0
  9
$DIMASZ
 40
0.18
  9
$DIMEXO
 40
0.0625
  9
$DIMDLI
 40
0.38
  9
$DIMRND
 40
0.0
  9
$DIMDLE
 40
0.0
  9
$DIMEXE
 40
0.18
  9
$DIMTP
 40
0.0
  9
$DIMTM
 40
0.0
  9
$DIMTXT
 40
0.18
  9
$DIMCEN
 40
0.09
  9
$DIMTSZ
 40
0.0
  9
$DIMTOL
 70
     0
  9
$DIMLIM
 70
     0
  9
$DIMTIH
 70
     1
  9
$DIMTOH
 70
     1
  9
$DIMSE1
 70
     0
  9
$DIMSE2
 70
     0
  9
$DIMTAD
 70
     0
  9
$DIMZIN
 70
     0
  9
$DIMBLK
  1

  9
$DIMASO
 70
     1
  9
$DIMSHO
 70
     1
  9
$DIMPOST
  1

  9
$DIMAPOST
  1

  9
$DIMALT
 70
     0
  9
$DIMALTD
 70
     2
  9
$DIMALTF
 40
25.4
  9
$DIMLFAC
 40
1.0
  9
$DIMTOFL
 70
     0
  9
$DIMTVP
 40
0.0
  9
$DIMTIX
 70
     0
  9
$DIMSOXD
 70
     0
  9
$DIMSAH
 70
     0
  9
$DIMBLK1
  1

  9
$DIMBLK2
  1

  9
$DIMSTYLE
  2
Standard
  9
$DIMCLRD
 70
     0
  9
$DIMCLRE
 70
     0
  9
$DIMCLRT
 70
     0
  9
$DIMTFAC
 40
1.0
  9
$DIMGAP
 40
0.09
  9
$DIMJUST
 70
     0
  9
$DIMSD1
 70
     0
  9
$DIMSD2
 70
     0
  9
$DIMTOLJ
 70
     1
  9
$DIMTZIN
 70
     0
  9
$DIMALTZ
 70
     0
  9
$DIMALTTZ
 70
     0
  9
$DIMUPT
 70
     0
  9
$DIMDEC
 70
     4
  9
$DIMTDEC
 70
     4
  9
$DIMALTU
 70
     2
  9
$DIMALTTD
 70
     2
  9
$DIMTXSTY
  7
Standard
  9
$DIMAUNIT
 70
     0
  9
$DIMADEC
 70
     0
  9
$DIMALTRND
 40
0.0
  9
$DIMAZIN
 70
     0
  9
$DIMDSEP
 70
    46
  9
$DIMATFIT
 70
     3
  9
$DIMFRAC
 70
     0
  9
$DIMLDRBLK
  1

  9
$DIMLUNIT
 70
     2
  9
$DIMLWD
 70
    -2
  9
$DIMLWE
 70
    -2
  9
$DIMTMOVE
 70
     0
  9
$DIMFXL
 40
1.0
  9
$DIMFXLON
 70
     0
  9
$DIMJOGANG
 40
0.7853981633974483
  9
$DIMTFILL
 70
     0
  9
$DIMTFILLCLR
 70
     0
  9
$DIMARCSYM
 70
     0
  9
$DIMLTYPE
  6

  9
$DIMLTEX1
  6

  9
$DIMLTEX2
  6

  9
$DIMTXTDIRECTION
 70
     0
  9
$LUNITS
 70
     2
  9
$LUPREC
 70
     4
  9
$SKETCHINC
 40
0.1
  9
$FILLETRAD
 40
0.5
  9
$AUNITS
 70
     0
  9
$AUPREC
 70
     0
  9
$MENU
  1
.
  9
$ELEVATION
 40
0.0
  9
$PELEVATION
 40
0.0
  9
$THICKNESS
 40
0.0
  9
$LIMCHECK
 70
     0
  9
$CHAMFERA
 40
0.5
  9
$CHAMFERB
 40
0.5
  9
$CHAMFERC
 40
1.0
  9
$CHAMFERD
 40
0.0
  9
$SKPOLY
 70
     0
  9
$TDCREATE
 40
2451380.930432396
  9
$TDUCREATE
 40
2451380.805432396
  9
$TDUPDATE
 40
2451380.966180555
  9
$TDUUPDATE
 40
2451380.841180556
  9
$TDINDWG
 40
0.0075645718
  9
$TDUSRTIMER
 40
0.0075555324
  9
$USRTIMER
 70
     1
  9
$ANGBASE
 50
0.0
  9
$ANGDIR
 70
     0
  9
$PDMODE
 70
     0
  9
$PDSIZE
 40
0.0
  9
$PLINEWID
 40
0.0
  9
$SPLFRAME
 70
     0
  9
$SPLINETYPE
 70
     6
  9
$SPLINESEGS
 70
     8
  9
$HANDSEED
  5
1C1
  9
$SURFTAB1
 70
     6
  9
$SURFTAB2
 70
     6
  9
$SURFTYPE
 70
     6
  9
$SURFU
 70
     6
  9
$SURFV
 70
     6
  9
$UCSBASE
  2

  9
$UCSNAME
  2

  9
$UCSORG
 10
0.0
 20
0.0
 30
0.0
  9
$UCSXDIR
 10
1.0
 20
0.0
 30
0.0
  9
$UCSYDIR
 10
0.0
 20
1.0
 30
0.0
  9
$UCSORTHOREF
  2

  9
$UCSORTHOVIEW
 70
     0
  9
$UCSORGTOP
 10
0.0
 20
0.0
 30
0.0
  9
$UCSORGBOTTOM
 10
0.0
 20
0.0
 30
0.0
  9
$UCSORGLEFT
 10
0.0
 20
0.0
 30
0.0
  9
$UCSORGRIGHT
 10
0.0
 20
0.0
 30
0.0
  9
$UCSORGFRONT
 10
0.0
 20
0.0
 30
0.0
  9
$UCSORGBACK
 10
0.0
 20
0.0
 30
0.0
  9
$PUCSBASE
  2

  9
$PUCSNAME
  2

  9
$PUCSORG
 10
0.0
 20
0.0
 30
0.0
  9
$PUCSXDIR
 10
1.0
 20
0.0
 30
0.0
  9
$PUCSYDIR
 10
0.0
 20
1.0
 30
0.0
  9
$PUCSORTHOREF
  2

  9
$PUCSORTHOVIEW
 70
     0
  9
$PUCSORGTOP
 10
0.0
 20
0.0
 30
0.0
  9
$PUCSORGBOTTOM
 10
0.0
 20
0.0
 30
0.0
  9
$PUCSORGLEFT
 10
0.0
 20
0.0
 30
0.0
  9
$PUCSORGRIGHT
 10
0.0
 20
0.0
 30
0.0
  9
$PUCSORGFRONT
 10
0.0
 20
0.0
 30
0.0
  9
$PUCSORGBACK
 10
0.0
 20
0.0
 30
0.0
  9
$USERI1
 70
     0
  9
$USERI2
 70
     0
  9
$USERI3
 70
     0
  9
$USERI4
 70
     0
  9
$USERI5
 70
     0
  9
$USERR1
 40
0.0
  9
$USERR2
 40
0.0
  9
$USERR3
 40
0.0
  9
$USERR4
 40
0.0
  9
$USERR5
 40
0.0
  9
$WORLDVIEW
 70
     1
  9
$SHADEDGE
 70
     3
  9
$SHADEDIF
 70
    70
  9
$TILEMODE
 70
     1
  9
$MAXACTVP
 70
    64
  9
$PINSBASE
 10
0.0
 20
0.0
 30
0.0
  9
$PLIMCHECK
 70
     0
  9
$PEXTMIN
 10
1.000000000000000E+20
 20
1.000000000000000E+20
 30
1.000000000000000E+20
  9
$PEXTMAX
 10
-1.000000000000000E+20
 20
-1.000000000000000E+20
 30
-1.000000000000000E+20
  9
$PLIMMIN
 10
0.0
 20
0.0
  9
$PLIMMAX
 10
12.0
 20
9.0
  9
$UNITMODE
 70
     0
  9
$VISRETAIN
 70
     1
  9
$PLINEGEN
 70
     0
  9
$PSLTSCALE
 70
     1
  9
$TREEDEPTH
 70
  3020
  9
$CMLSTYLE
  2
Standard
  9
$CMLJUST
 70
     0
  9
$CMLSCALE
 40
1.0
  9
$PROXYGRAPHICS
 70
     1
  9
$MEASUREMENT
 70
     1
  9
$CELWEIGHT
370
    -1
  9
$ENDCAPS
280
     0
  9
$JOINSTYLE
280
     0
  9
$LWDISPLAY
290
     0
  9
$INSUNITS
 70
     4
  9
$HYPERLINKBASE
  1

  9
$STYLESHEET
  1

  9
$XEDIT
290
     1
  9
$CEPSNTYPE
380
     0
  9
$PSTYLEMODE
290
     1
  9
$FINGERPRINTGUID
  2
{12F50282-3ED8-11D3-A8B7-0060B0F84BC6}
  9
$VERSIONGUID
  2
{12F50293-3ED8-11D3-A8B7-0060B0F84BC6}
  9
$EXTNAMES
290
     1
  9
$PSVPSCALE
 40
0.0
  9
$OLESTARTUP
290
     0
  9
$SORTENTS
280
   127
  9
$INDEXCTL
280
     0
  9
$HIDETEXT
280
     0
  9
$XCLIPFRAME
280
     2
  9
$HALOGAP
280
     0
  9
$OBSCOLOR
 70
   257
  9
$OBSLTYPE
280
     0
  9
$INTERSECTIONDISPLAY
280
     0
  9
$INTERSECTIONCOLOR
 70
   257
  9
$DIMASSOC
280
     1
  9
$PROJECTNAME
  1

  9
$CAMERADISPLAY
290
     0
  9
$LENSLENGTH
 40
50.0
  9
$CAMERAHEIGHT
 40
0.0
  9
$STEPSPERSEC
 40
2.0
  9
$STEPSIZE
 40
6.0
  9
$3DDWFPREC
 40
2.0
  9
$PSOLWIDTH
 40
0.25
  9
$PSOLHEIGHT
 40
4.0
  9
$LOFTANG1
 40
1.570796326794896
  9
$LOFTANG2
 40
1.570796326794896
  9
$LOFTMAG1
 40
0.0
  9
$LOFTMAG2
 40
0.0
  9
$LOFTPARAM
 70
     7
  9
$LOFTNORMALS
280
     1
  9
$LATITUDE
 40
37.795
  9
$LONGITUDE
 40
-122.394
  9
$NORTHDIRECTION
 40
0.0
  9
$TIMEZONE
 70
 -8000
  9
$LIGHTGLYPHDISPLAY
280
     1
  9
$TILEMODELIGHTSYNCH
280
     1
  9
$CMATERIAL
347
AB
  9
$SOLIDHIST
280
     0
  9
$SHOWHIST
280
     1
  9
$DWFFRAME
280
     2
  9
$DGNFRAME
280
     0
  9
$REALWORLDSCALE
290
     1
  9
$INTERFERECOLOR
 62
     1
  9
$INTERFEREOBJVS
345
CD
  9
$INTERFEREVPVS
346
CA
  9
$CSHADOW
280
     0
  9
$SHADOWPLANELOCATION
 40
0.0
  0
ENDSEC
  0
SECTION
  2
CLASSES
  0
CLASS
  1
ACDBDICTIONARYWDFLT
  2
AcDbDictionaryWithDefault
  3
ObjectDBX Classes
 90
        0
 91
        1
280
     0
281
     0
  0
CLASS
  1
ACDBPLACEHOLDER
  2
AcDbPlaceHolder
  3
ObjectDBX Classes
 90
        0
 91
        2
280
     0
281
     0
  0
CLASS
  1
LAYOUT
  2
AcDbLayout
  3
ObjectDBX Classes
 90
        0
 91
        3
280
     0
281
     0
  0
CLASS
  1
MATERIAL
  2
AcDbMaterial
  3
ObjectDBX Classes
 90
     1153
 91
        3
280
     0
281
     0
  0
CLASS
  1
VISUALSTYLE
  2
AcDbVisualStyle
  3
ObjectDBX Classes
 90
     4095
 91
       24
280
     0
281
     0
  0
CLASS
  1
TABLESTYLE
  2
AcDbTableStyle
  3
ObjectDBX Classes
 90
     4095
 91
        1
280
     0
281
     0
  0
CLASS
  1
SCALE
  2
AcDbScale
  3
ObjectDBX Classes
 90
     1153
 91
       17
280
     0
281
     0
  0
CLASS
  1
MLEADERSTYLE
  2
AcDbMLeaderStyle
  3
ACDB_MLEADERSTYLE_CLASS
 90
     4095
 91
        1
280
     0
281
     0
  0
CLASS
  1
ACDBSECTIONVIEWSTYLE
  2
AcDbSectionViewStyle
  3
ObjectDBX Classes
 90
     1025
 91
        1
280
     0
281
     0
  0
CLASS
  1
ACDBDETAILVIEWSTYLE
  2
AcDbDetailViewStyle
  3
ObjectDBX Classes
 90
     1025
 91
        1
280
     0
281
     0
  0
CLASS
  1
MESH
  2
AcDbSubDMesh
  3
ObjectDBX Classes
 90
        0
 91
        1
280
     0
281
     1
  0
CLASS
  1
DICTIONARYVAR
  2
AcDbDictionaryVar
  3
ObjectDBX Classes
 90
        0
 91
        9
280
     0
281
     0
  0
CLASS
  1
CELLSTYLEMAP
  2
AcDbCellStyleMap
  3
ObjectDBX Classes
 90
     1152
 91
        1
280
     0
281
     0
  0
ENDSEC
  0
SECTION
  2
TABLES
  0
TABLE
  2
VPORT
  5
8
330
0
100
AcDbSymbolTable
 70
     1
  0
VPORT
  5
A8
330
8
100
AcDbSymbolTableRecord
100
AcDbViewportTableRecord
  2
*Active
 70
     0
 10
0.0
 20
0.0
 11
1.0
 21
1.0
 12
0.0000647375636618
 22
-33.88457489013672
 13
0.0
 23
0.0
 14
0.5
 24
0.5
 15
0.5
 25
0.5
 16
-1.0
 26
-1.0
 36
1.0
 17
0.0
 27
0.0
 37
0.0
 40
1117.012732602153
 41
1.603350201629567
 42
50.0
 43
0.0
 44
0.0
 50
0.0
 51
0.0
 71
     0
 72
   100
 73
     1
 74
     3
 75
     0
 76
     0
 77
     0
 78
     0
281
     0
 65
     1
110
0.0
120
0.0
130
0.0
111
1.0
121
0.0
131
0.0
112
0.0
122
1.0
132
0.0
 79
     0
146
0.0
348
C9
 60
     3
 61
     5
292
     1
282
     1
141
0.0
142
0.0
 63
   250
421
  3355443
  0
ENDTAB
  0
TABLE
  2
LTYPE
  5
5
330
0
100
AcDbSymbolTable
 70
     1
  0
LTYPE
  5
14
330
5
100
AcDbSymbolTableRecord
100
AcDbLinetypeTableRecord
  2
ByBlock
 70
     0
  3

 72
    65
 73
     0
 40
0.0
  0
LTYPE
  5
15
330
5
100
AcDbSymbolTableRecord
100
AcDbLinetypeTableRecord
  2
ByLayer
 70
     0
  3

 72
    65
 73
     0
 40
0.0
  0
LTYPE
  5
16
330
5
100
AcDbSymbolTableRecord
100
AcDbLinetypeTableRecord
  2
Continuous
 70
     0
  3
Solid line
 72
    65
 73
     0
 40
0.0
  0
ENDTAB
  0
TABLE
  2
LAYER
  5
2
330
0
100
AcDbSymbolTable
 70
     3
  0
LAYER
  5
10
330
2
100
AcDbSymbolTableRecord
100
AcDbLayerTableRecord
  2
0
 70
     0
 62
     7
  6
Continuous
370
    -3
390
F
347
BB
  0
LAYER
  5
2B
330
2
100
AcDbSymbolTableRecord
100
AcDbLayerTableRecord
  2
ASHADE
 70
     4
 62
     7
  6
Continuous
370
    -3
390
2D
347
BB
  0
LAYER
  5
F8
330
2
100
AcDbSymbolTableRecord
100
AcDbLayerTableRecord
  2
OracDecor_cornice_mouldings
 70
     0
 62
    53
420
 13033815
  6
Continuous
370
    -3
390
F
347
BB
  0
ENDTAB
  0
TABLE
  2
STYLE
  5
3
330
0
100
AcDbSymbolTable
 70
     2
  0
STYLE
  5
11
330
3
100
AcDbSymbolTableRecord
100
AcDbTextStyleTableRecord
  2
Standard
 70
     0
 40
0.0
 41
1.0
 50
0.0
 71
     0
 42
0.2
  3
txt
  4

  0
STYLE
  5
2C
330
3
100
AcDbSymbolTableRecord
100
AcDbTextStyleTableRecord
  2
ASHADE
 70
     0
 40
0.2
 41
1.0
 50
0.0
 71
     0
 42
0.2
  3
simplex
  4

  0
ENDTAB
  0
TABLE
  2
VIEW
  5
6
330
0
100
AcDbSymbolTable
 70
     0
  0
ENDTAB
  0
TABLE
  2
UCS
  5
7
330
0
100
AcDbSymbolTable
 70
     0
  0
ENDTAB
  0
TABLE
  2
APPID
  5
9
330
0
100
AcDbSymbolTable
 70
     6
  0
APPID
  5
12
330
9
100
AcDbSymbolTableRecord
100
AcDbRegAppTableRecord
  2
ACAD
 70
     0
  0
APPID
  5
8F
330
9
100
AcDbSymbolTableRecord
100
AcDbRegAppTableRecord
  2
AVE_RENDER
 70
     0
  0
APPID
  5
90
330
9
100
AcDbSymbolTableRecord
100
AcDbRegAppTableRecord
  2
AVE_ENTITY_MATERIAL
 70
     0
  0
APPID
  5
9C
330
9
100
AcDbSymbolTableRecord
100
AcDbRegAppTableRecord
  2
AVE_FINISH
 70
     0
  0
APPID
  5
9D
330
9
100
AcDbSymbolTableRecord
100
AcDbRegAppTableRecord
  2
AVE_MATERIAL
 70
     0
  0
APPID
  5
9E
330
9
100
AcDbSymbolTableRecord
100
AcDbRegAppTableRecord
  2
AVE_GLOBAL
 70
     0
  0
ENDTAB
  0
TABLE
  2
DIMSTYLE
  5
A
330
0
100
AcDbSymbolTable
 70
     1
100
AcDbDimStyleTable
 71
     0
  0
DIMSTYLE
105
27
330
A
100
AcDbSymbolTableRecord
100
AcDbDimStyleTableRecord
  2
Standard
 70
     0
340
11
  0
ENDTAB
  0
TABLE
  2
BLOCK_RECORD
  5
1
330
0
100
AcDbSymbolTable
 70
     6
  0
BLOCK_RECORD
  5
1F
330
1
100
AcDbSymbolTableRecord
100
AcDbBlockTableRecord
  2
*Model_Space
340
22
 70
     0
280
     1
281
     0
  0
BLOCK_RECORD
  5
1B
330
1
100
AcDbSymbolTableRecord
100
AcDbBlockTableRecord
  2
*Paper_Space
340
1E
 70
     0
280
     1
281
     0
  0
BLOCK_RECORD
  5
23
330
1
100
AcDbSymbolTableRecord
100
AcDbBlockTableRecord
  2
*Paper_Space0
340
26
 70
     0
280
     1
281
     0
  0
BLOCK_RECORD
  5
2E
330
1
100
AcDbSymbolTableRecord
100
AcDbBlockTableRecord
  2
direct
340
0
 70
     0
280
     1
281
     0
  0
BLOCK_RECORD
  5
42
330
1
100
AcDbSymbolTableRecord
100
AcDbBlockTableRecord
  2
overhead
340
0
 70
     0
280
     1
281
     0
  0
BLOCK_RECORD
  5
5F
330
1
100
AcDbSymbolTableRecord
100
AcDbBlockTableRecord
  2
sh_spot
340
0
 70
     0
280
     1
281
     0
  0
BLOCK_RECORD
  5
91
330
1
100
AcDbSymbolTableRecord
100
AcDbBlockTableRecord
  2
AVE_RENDER
340
0
102
{BLKREFS
331
94
331
95
331
96
331
97
331
98
331
99
331
9A
331
9B
102
}
 70
     0
280
     1
281
     0
  0
BLOCK_RECORD
  5
9F
330
1
100
AcDbSymbolTableRecord
100
AcDbBlockTableRecord
  2
AVE_GLOBAL
340
0
102
{BLKREFS
331
A2
102
}
 70
     0
280
     1
281
     0
  0
ENDTAB
  0
ENDSEC
  0
SECTION
  2
BLOCKS
  0
BLOCK
  5
20
330
1F
100
AcDbEntity
  8
0
100
AcDbBlockBegin
  2
*Model_Space
 70
     0
 10
0.0
 20
0.0
 30
0.0
  3
*Model_Space
  1

  0
ENDBLK
  5
21
330
1F
100
AcDbEntity
  8
0
100
AcDbBlockEnd
  0
BLOCK
  5
1C
330
1B
100
AcDbEntity
 67
     1
  8
0
100
AcDbBlockBegin
  2
*Paper_Space
 70
     0
 10
0.0
 20
0.0
 30
0.0
  3
*Paper_Space
  1

  0
ENDBLK
  5
1D
330
1B
100
AcDbEntity
 67
     1
  8
0
100
AcDbBlockEnd
  0
BLOCK
  5
24
330
23
100
AcDbEntity
 67
     1
  8
0
100
AcDbBlockBegin
  2
*Paper_Space0
 70
     0
 10
0.0
 20
0.0
 30
0.0
  3
*Paper_Space0
  1

  0
ENDBLK
  5
25
330
23
100
AcDbEntity
 67
     1
  8
0
100
AcDbBlockEnd
  0
BLOCK
  5
40
330
2E
100
AcDbEntity
  8
0
100
AcDbBlockBegin
  2
direct
 70
     2
 10
0.0
 20
0.0
 30
0.0
  3
direct
  1

  0
ATTDEF
  5
2F
330
2E
100
AcDbEntity
  8
ASHADE
  6
Continuous
 62
     1
100
AcDbText
 10
0.0
 20
-0.1
 30
0.0
 40
0.2
  1

  7
ASHADE
 72
     1
 11
0.0
 21
-0.1
 31
0.0
100
AcDbAttributeDefinition
280
     0
  3
Light Name
  2
SNAME
 70
     0
280
     0
  0
ARC
  5
30
330
2E
100
AcDbEntity
  8
ASHADE
  6
Continuous
 62
     7
100
AcDbCircle
 10
0.0
 20
0.0
 30
0.0
 40
0.3
100
AcDbArc
 50
205.6792886194569
 51
334.3207113805431
  0
ARC
  5
31
330
2E
100
AcDbEntity
  8
ASHADE
  6
Continuous
 62
     7
100
AcDbCircle
 10
0.0
 20
0.0
 30
0.0
 40
0.3
100
AcDbArc
 50
25.67928861945685
 51
154.3207113805431
  0
LINE
  5
32
330
2E
100
AcDbEntity
  8
ASHADE
  6
Continuous
 62
     7
100
AcDbLine
 10
-0.21
 20
0.2142428528562855
 30
0.0
 11
-0.21
 21
0.5
 31
0.0
  0
LINE
  5
33
330
2E
100
AcDbEntity
  8
ASHADE
  6
Continuous
 62
     7
100
AcDbLine
 10
-0.11
 20
0.2791057147390572
 30
0.0
 11
-0.11
 21
0.5
 31
0.0
  0
LINE
  5
34
330
2E
100
AcDbEntity
  8
ASHADE
  6
Continuous
 62
     7
100
AcDbLine
 10
0.21
 20
0.2142428528562855
 30
0.0
 11
0.21
 21
0.5
 31
0.0
  0
ATTDEF
  5
35
330
2E
100
AcDbEntity
  8
ASHADE
  6
Continuous
 62
     7
100
AcDbText
 10
0.0
 20
0.25
 30
0.0
 40
0.01
  1

100
AcDbAttributeDefinition
280
     0
  3
Look-at Y
  2
LAY
 70
     1
280
     0
  0
ATTDEF
  5
36
330
2E
100
AcDbEntity
  8
ASHADE
  6
Continuous
 62
     7
100
AcDbText
 10
0.0
 20
0.22
 30
0.0
 40
0.01
  1
1
100
AcDbAttributeDefinition
280
     0
  3
Light Intensity
  2
INTENSITY
 70
     1
280
     0
  0
ATTDEF
  5
37
330
2E
100
AcDbEntity
  8
ASHADE
  6
Continuous
 62
     7
100
AcDbText
 10
0.0
 20
0.16
 30
0.0
 40
0.01
  1
-1
100
AcDbAttributeDefinition
280
     0
  3
*not used*
  2
BEAMD
 70
     1
280
     0
  0
ATTDEF
  5
38
330
2E
100
AcDbEntity
  8
ASHADE
  6
Continuous
 62
     7
100
AcDbText
 10
0.0
 20
0.175
 30
0.0
 40
0.01
  1
-1
100
AcDbAttributeDefinition
280
     0
  3
*not used*
  2
CONED
 70
     1
280
     0
  0
ATTDEF
  5
39
330
2E
100
AcDbEntity
  8
ASHADE
  6
Continuous
 62
     7
100
AcDbText
 10
0.0
 20
0.19
 30
0.0
 40
0.01
  1
0
100
AcDbAttributeDefinition
280
     0
  3
Depth Map Size
  2
CONEA
 70
     1
280
     0
  0
ATTDEF
  5
3A
330
2E
100
AcDbEntity
  8
ASHADE
  6
Continuous
 62
     7
100
AcDbText
 10
0.0
 20
0.2050000000000001
 30
0.0
 40
0.01
  1
1,1,1
100
AcDbAttributeDefinition
280
     0
  3
Light Color (RGB)
  2
COLOR
 70
     1
280
     0
  0
ATTDEF
  5
3B
330
2E
100
AcDbEntity
  8
ASHADE
  6
Continuous
 62
     7
100
AcDbText
 10
0.0
 20
0.235
 30
0.0
 40
0.01
  1

100
AcDbAttributeDefinition
280
     0
  3
Look-at Z
  2
LAZ
 70
     1
280
     0
  0
LINE
  5
3C
330
2E
100
AcDbEntity
  8
ASHADE
  6
Continuous
 62
     7
100
AcDbLine
 10
0.0
 20
0.3
 30
0.0
 11
0.0
 21
0.5
 31
0.0
  0
LINE
  5
3D
330
2E
100
AcDbEntity
  8
ASHADE
  6
Continuous
 62
     7
100
AcDbLine
 10
0.11
 20
0.2791057147390572
 30
0.0
 11
0.11
 21
0.5
 31
0.0
  0
ATTDEF
  5
3E
330
2E
100
AcDbEntity
  8
ASHADE
  6
Continuous
 62
     7
100
AcDbText
 10
0.0
 20
0.265
 30
0.0
 40
0.01
  1

100
AcDbAttributeDefinition
280
     0
  3
Look-at X
  2
LAX
 70
     1
280
     0
  0
ATTDEF
  5
3F
330
2E
100
AcDbEntity
  8
ASHADE
  6
Continuous
 62
     7
100
AcDbText
 10
0.0
 20
0.28
 30
0.0
 40
0.01
  1

100
AcDbAttributeDefinition
280
     0
  3

  2
GNAME
 70
     1
280
     0
  0
ENDBLK
  5
41
330
2E
100
AcDbEntity
  8
0
100
AcDbBlockEnd
  0
BLOCK
  5
5D
330
42
100
AcDbEntity
  8
0
100
AcDbBlockBegin
  2
overhead
 70
     2
 10
0.0
 20
0.0
 30
0.0
  3
overhead
  1

  0
ATTDEF
  5
43
330
42
100
AcDbEntity
  8
ASHADE
  6
Continuous
 62
     1
100
AcDbText
 10
0.0
 20
-0.1
 30
0.0
 40
0.2
  1

  7
ASHADE
 72
     1
 11
0.0
 21
-0.1
 31
0.0
100
AcDbAttributeDefinition
280
     0
  3
Light Name
  2
SNAME
 70
     0
280
     0
  0
ARC
  5
44
330
42
100
AcDbEntity
  8
ASHADE
  6
Continuous
 62
     7
100
AcDbCircle
 10
0.0
 20
0.0
 30
0.0
 40
0.3
100
AcDbArc
 50
205.6792886194569
 51
334.3207113805431
  0
LINE
  5
45
330
42
100
AcDbEntity
  8
ASHADE
  6
Continuous
 62
     7
100
AcDbLine
 10
-0.2041413561583015
 20
-0.2198324514393848
 30
0.0
 11
-0.2721884748777353
 21
-0.2931099352525131
 31
0.0
  0
LINE
  5
46
330
42
100
AcDbEntity
  8
ASHADE
  6
Continuous
 62
     7
100
AcDbLine
 10
-0.1096591641591904
 20
-0.2792398032442862
 30
0.0
 11
-0.1279356915190555
 21
-0.3257797704516673
 31
0.0
  0
LINE
  5
47
330
42
100
AcDbEntity
  8
ASHADE
  6
Continuous
 62
     7
100
AcDbLine
 10
0.0
 20
-0.2999999999999999
 30
0.0
 11
0.0
 21
-0.4
 31
0.0
  0
LINE
  5
48
330
42
100
AcDbEntity
  8
ASHADE
  6
Continuous
 62
     7
100
AcDbLine
 10
0.1096591641591904
 20
-0.2792398032442862
 30
0.0
 11
0.1279356915190555
 21
-0.3257797704516673
 31
0.0
  0
LINE
  5
49
330
42
100
AcDbEntity
  8
ASHADE
  6
Continuous
 62
     7
100
AcDbLine
 10
0.2041413561583015
 20
-0.2198324514393848
 30
0.0
 11
0.2721884748777353
 21
-0.2931099352525131
 31
0.0
  0
ARC
  5
4A
330
42
100
AcDbEntity
  8
ASHADE
  6
Continuous
 62
     7
100
AcDbCircle
 10
0.0
 20
0.0
 30
0.0
 40
0.3
100
AcDbArc
 50
25.67928861945685
 51
154.3207113805431
  0
LINE
  5
4B
330
42
100
AcDbEntity
  8
ASHADE
  6
Continuous
 62
     7
100
AcDbLine
 10
-0.2703701166919155
 20
0.13
 30
0.0
 11
-0.3154318028072347
 21
0.1516666666666666
 31
0.0
  0
LINE
  5
4C
330
42
100
AcDbEntity
  8
ASHADE
  6
Continuous
 62
     7
100
AcDbLine
 10
-0.2703701166919155
 20
-0.13
 30
0.0
 11
-0.3154318028072347
 21
-0.1516666666666666
 31
0.0
  0
LINE
  5
4D
330
42
100
AcDbEntity
  8
ASHADE
  6
Continuous
 62
     7
100
AcDbLine
 10
-0.2041413561583015
 20
0.2198324514393849
 30
0.0
 11
-0.2721884748777353
 21
0.2931099352525131
 31
0.0
  0
LINE
  5
4E
330
42
100
AcDbEntity
  8
ASHADE
  6
Continuous
 62
     7
100
AcDbLine
 10
-0.1096591641591904
 20
0.2792398032442862
 30
0.0
 11
-0.1279356915190555
 21
0.3257797704516674
 31
0.0
  0
LINE
  5
4F
330
42
100
AcDbEntity
  8
ASHADE
  6
Continuous
 62
     7
100
AcDbLine
 10
0.2703701166919155
 20
-0.13
 30
0.0
 11
0.3154318028072347
 21
-0.1516666666666666
 31
0.0
  0
LINE
  5
50
330
42
100
AcDbEntity
  8
ASHADE
  6
Continuous
 62
     7
100
AcDbLine
 10
0.2703701166919155
 20
0.13
 30
0.0
 11
0.3154318028072347
 21
0.1516666666666666
 31
0.0
  0
LINE
  5
51
330
42
100
AcDbEntity
  8
ASHADE
  6
Continuous
 62
     7
100
AcDbLine
 10
0.0
 20
0.3
 30
0.0
 11
0.0
 21
0.4
 31
0.0
  0
ATTDEF
  5
52
330
42
100
AcDbEntity
  8
ASHADE
  6
Continuous
 62
     7
100
AcDbText
 10
0.0
 20
0.22
 30
0.0
 40
0.01
  1
1
100
AcDbAttributeDefinition
280
     0
  3
Light Intensity
  2
INTENSITY
 70
     1
280
     0
  0
ATTDEF
  5
53
330
42
100
AcDbEntity
  8
ASHADE
  6
Continuous
 62
     7
100
AcDbText
 10
0.0
 20
0.16
 30
0.0
 40
0.01
  1
-1
100
AcDbAttributeDefinition
280
     0
  3
*not used*
  2
BEAMD
 70
     1
280
     0
  0
ATTDEF
  5
54
330
42
100
AcDbEntity
  8
ASHADE
  6
Continuous
 62
     7
100
AcDbText
 10
0.0
 20
0.175
 30
0.0
 40
0.01
  1
-1
100
AcDbAttributeDefinition
280
     0
  3
*not used*
  2
CONED
 70
     1
280
     0
  0
ATTDEF
  5
55
330
42
100
AcDbEntity
  8
ASHADE
  6
Continuous
 62
     7
100
AcDbText
 10
0.0
 20
0.19
 30
0.0
 40
0.01
  1
0
100
AcDbAttributeDefinition
280
     0
  3
Depth Map Size
  2
CONEA
 70
     1
280
     0
  0
ATTDEF
  5
56
330
42
100
AcDbEntity
  8
ASHADE
  6
Continuous
 62
     7
100
AcDbText
 10
0.0
 20
0.2050000000000001
 30
0.0
 40
0.01
  1
1,1,1
100
AcDbAttributeDefinition
280
     0
  3
Light Color (RGB)
  2
COLOR
 70
     1
280
     0
  0
ATTDEF
  5
57
330
42
100
AcDbEntity
  8
ASHADE
  6
Continuous
 62
     7
100
AcDbText
 10
0.0
 20
0.235
 30
0.0
 40
0.01
  1

100
AcDbAttributeDefinition
280
     0
  3
Look-at Z
  2
LAZ
 70
     1
280
     0
  0
ATTDEF
  5
58
330
42
100
AcDbEntity
  8
ASHADE
  6
Continuous
 62
     7
100
AcDbText
 10
0.0
 20
0.25
 30
0.0
 40
0.01
  1

100
AcDbAttributeDefinition
280
     0
  3
Look-at Y
  2
LAY
 70
     1
280
     0
  0
ATTDEF
  5
59
330
42
100
AcDbEntity
  8
ASHADE
  6
Continuous
 62
     7
100
AcDbText
 10
0.0
 20
0.265
 30
0.0
 40
0.01
  1

100
AcDbAttributeDefinition
280
     0
  3
Look-at X
  2
LAX
 70
     1
280
     0
  0
ATTDEF
  5
5A
330
42
100
AcDbEntity
  8
ASHADE
  6
Continuous
 62
     7
100
AcDbText
 10
0.0
 20
0.28
 30
0.0
 40
0.01
  1

100
AcDbAttributeDefinition
280
     0
  3

  2
GNAME
 70
     1
280
     0
  0
LINE
  5
5B
330
42
100
AcDbEntity
  8
ASHADE
  6
Continuous
 62
     7
100
AcDbLine
 10
0.1096591641591904
 20
0.2792398032442862
 30
0.0
 11
0.1279356915190555
 21
0.3257797704516674
 31
0.0
  0
LINE
  5
5C
330
42
100
AcDbEntity
  8
ASHADE
  6
Continuous
 62
     7
100
AcDbLine
 10
0.2041413561583015
 20
0.2198324514393849
 30
0.0
 11
0.2721884748777353
 21
0.2931099352525131
 31
0.0
  0
ENDBLK
  5
5E
330
42
100
AcDbEntity
  8
0
100
AcDbBlockEnd
  0
BLOCK
  5
85
330
5F
100
AcDbEntity
  8
0
100
AcDbBlockBegin
  2
sh_spot
 70
     2
 10
0.0
 20
0.0
 30
0.0
  3
sh_spot
  1

  0
LINE
  5
60
330
5F
100
AcDbEntity
  8
ASHADE
  6
Continuous
 62
     7
100
AcDbLine
 10
0.25
 20
0.26
 30
0.0
 11
-0.25
 21
0.26
 31
0.0
  0
LINE
  5
61
330
5F
100
AcDbEntity
  8
ASHADE
  6
Continuous
 62
     7
100
AcDbLine
 10
-0.25
 20
-0.3399999999999999
 30
0.0
 11
0.25
 21
-0.3399999999999999
 31
0.0
  0
ATTDEF
  5
62
330
5F
100
AcDbEntity
  8
ASHADE
  6
Continuous
 62
     1
100
AcDbText
 10
0.0
 20
-0.1
 30
0.0
 40
0.2
  1

  7
ASHADE
 72
     1
 11
0.0
 21
-0.1
 31
0.0
100
AcDbAttributeDefinition
280
     0
  3
Light Name
  2
SNAME
 70
     0
280
     0
  0
LINE
  5
63
330
5F
100
AcDbEntity
  8
ASHADE
  6
Continuous
 62
     7
100
AcDbLine
 10
-0.25
 20
-0.13
 30
0.0
 11
-0.25
 21
-0.3399999999999999
 31
0.0
  0
LINE
  5
64
330
5F
100
AcDbEntity
  8
ASHADE
  6
Continuous
 62
     7
100
AcDbLine
 10
-0.25
 20
-0.18
 30
0.0
 11
-0.29
 21
-0.18
 31
0.0
  0
LINE
  5
65
330
5F
100
AcDbEntity
  8
ASHADE
  6
Continuous
 62
     7
100
AcDbLine
 10
-0.29
 20
-0.22
 30
0.0
 11
-0.25
 21
-0.22
 31
0.0
  0
LINE
  5
66
330
5F
100
AcDbEntity
  8
ASHADE
  6
Continuous
 62
     7
100
AcDbLine
 10
-0.29
 20
-0.18
 30
0.0
 11
-0.29
 21
-0.22
 31
0.0
  0
LINE
  5
67
330
5F
100
AcDbEntity
  8
ASHADE
  6
Continuous
 62
     7
100
AcDbLine
 10
-0.1045454545454545
 20
0.26
 30
0.0
 11
-0.15
 21
0.46
 31
0.0
  0
LINE
  5
68
330
5F
100
AcDbEntity
  8
ASHADE
  6
Continuous
 62
     7
100
AcDbLine
 10
-0.21
 20
0.26
 30
0.0
 11
-0.301304347826087
 21
0.46
 31
0.0
  0
LINE
  5
69
330
5F
100
AcDbEntity
  8
ASHADE
  6
Continuous
 62
     7
100
AcDbLine
 10
-0.25
 20
0.26
 30
0.0
 11
-0.25
 21
0.13
 31
0.0
  0
LINE
  5
6A
330
5F
100
AcDbEntity
  8
ASHADE
  6
Continuous
 62
     7
100
AcDbLine
 10
-0.25
 20
0.22
 30
0.0
 11
-0.29
 21
0.22
 31
0.0
  0
LINE
  5
6B
330
5F
100
AcDbEntity
  8
ASHADE
  6
Continuous
 62
     7
100
AcDbLine
 10
-0.29
 20
0.1799999999999999
 30
0.0
 11
-0.25
 21
0.1799999999999999
 31
0.0
  0
LINE
  5
6C
330
5F
100
AcDbEntity
  8
ASHADE
  6
Continuous
 62
     7
100
AcDbLine
 10
-0.29
 20
0.22
 30
0.0
 11
-0.29
 21
0.1799999999999999
 31
0.0
  0
ATTDEF
  5
6D
330
5F
100
AcDbEntity
  8
ASHADE
  6
Continuous
 62
     7
100
AcDbText
 10
0.0
 20
-0.24
 30
0.0
 40
0.01
  1
0
100
AcDbAttributeDefinition
280
     0
  3
Depth Map Size
  2
ZSIZE
 70
     1
280
     0
  0
ATTDEF
  5
6E
330
5F
100
AcDbEntity
  8
ASHADE
  6
Continuous
 62
     7
100
AcDbText
 10
0.0
 20
-0.3300000000000001
 30
0.0
 40
0.01
  1
0,0,0
100
AcDbAttributeDefinition
280
     0
  3
Look-from XYZ
  2
LFXYZ
 70
     1
280
     0
  0
ATTDEF
  5
6F
330
5F
100
AcDbEntity
  8
ASHADE
  6
Continuous
 62
     7
100
AcDbText
 10
0.0
 20
-0.315
 30
0.0
 40
0.01
  1
0.0
100
AcDbAttributeDefinition
280
     0
  3
Beam Distribution
  2
BEAMDI
 70
     1
280
     0
  0
ATTDEF
  5
70
330
5F
100
AcDbEntity
  8
ASHADE
  6
Continuous
 62
     7
100
AcDbText
 10
0.0
 20
-0.3
 30
0.0
 40
0.01
  1
0.0
100
AcDbAttributeDefinition
280
     0
  3
Cone Delta
  2
CONEDE
 70
     1
280
     0
  0
ATTDEF
  5
71
330
5F
100
AcDbEntity
  8
ASHADE
  6
Continuous
 62
     7
100
AcDbText
 10
0.0
 20
-0.2850000000000001
 30
0.0
 40
0.01
  1
10.0
100
AcDbAttributeDefinition
280
     0
  3
Cone Angle
  2
CONEAN
 70
     1
280
     0
  0
ATTDEF
  5
72
330
5F
100
AcDbEntity
  8
ASHADE
  6
Continuous
 62
     7
100
AcDbText
 10
0.0
 20
-0.27
 30
0.0
 40
0.01
  1
-1
100
AcDbAttributeDefinition
280
     0
  3
*not used*
  2
BIASMAX
 70
     1
280
     0
  0
ATTDEF
  5
73
330
5F
100
AcDbEntity
  8
ASHADE
  6
Continuous
 62
     7
100
AcDbText
 10
0.0
 20
-0.255
 30
0.0
 40
0.01
  1
-1
100
AcDbAttributeDefinition
280
     0
  3
*not used*
  2
BIASMIN
 70
     1
280
     0
  0
ATTDEF
  5
74
330
5F
100
AcDbEntity
  8
ASHADE
  6
Continuous
 62
     7
100
AcDbText
 10
0.0
 20
-0.225
 30
0.0
 40
0.01
  1
1,1,1
100
AcDbAttributeDefinition
280
     0
  3
Light Color (RGB)
  2
COLOR
 70
     1
280
     0
  0
ATTDEF
  5
75
330
5F
100
AcDbEntity
  8
ASHADE
  6
Continuous
 62
     7
100
AcDbText
 10
0.0
 20
-0.21
 30
0.0
 40
0.01
  1
1
100
AcDbAttributeDefinition
280
     0
  3
Light Intensity
  2
INTENSITY
 70
     1
280
     0
  0
ATTDEF
  5
76
330
5F
100
AcDbEntity
  8
ASHADE
  6
Continuous
 62
     7
100
AcDbText
 10
0.0
 20
-0.15
 30
0.0
 40
0.01
  1

100
AcDbAttributeDefinition
280
     0
  3

  2
GNAME
 70
     1
280
     0
  0
ATTDEF
  5
77
330
5F
100
AcDbEntity
  8
ASHADE
  6
Continuous
 62
     7
100
AcDbText
 10
0.0
 20
-0.195
 30
0.0
 40
0.01
  1

100
AcDbAttributeDefinition
280
     0
  3
Look-at Z
  2
LAZ
 70
     1
280
     0
  0
ATTDEF
  5
78
330
5F
100
AcDbEntity
  8
ASHADE
  6
Continuous
 62
     7
100
AcDbText
 10
0.0
 20
-0.18
 30
0.0
 40
0.01
  1

100
AcDbAttributeDefinition
280
     0
  3
Look-at Y
  2
LAY
 70
     1
280
     0
  0
ATTDEF
  5
79
330
5F
100
AcDbEntity
  8
ASHADE
  6
Continuous
 62
     7
100
AcDbText
 10
0.0
 20
-0.165
 30
0.0
 40
0.01
  1

100
AcDbAttributeDefinition
280
     0
  3
Look-at X
  2
LAX
 70
     1
280
     0
  0
LINE
  5
7A
330
5F
100
AcDbEntity
  8
ASHADE
  6
Continuous
 62
     7
100
AcDbLine
 10
0.25
 20
-0.3399999999999999
 30
0.0
 11
0.25
 21
-0.13
 31
0.0
  0
LINE
  5
7B
330
5F
100
AcDbEntity
  8
ASHADE
  6
Continuous
 62
     7
100
AcDbLine
 10
0.25
 20
-0.18
 30
0.0
 11
0.29
 21
-0.18
 31
0.0
  0
LINE
  5
7C
330
5F
100
AcDbEntity
  8
ASHADE
  6
Continuous
 62
     7
100
AcDbLine
 10
0.29
 20
-0.22
 30
0.0
 11
0.25
 21
-0.22
 31
0.0
  0
LINE
  5
7D
330
5F
100
AcDbEntity
  8
ASHADE
  6
Continuous
 62
     7
100
AcDbLine
 10
0.29
 20
-0.18
 30
0.0
 11
0.29
 21
-0.22
 31
0.0
  0
LINE
  5
7E
330
5F
100
AcDbEntity
  8
ASHADE
  6
Continuous
 62
     7
100
AcDbLine
 10
0.21
 20
0.26
 30
0.0
 11
0.301304347826087
 21
0.46
 31
0.0
  0
LINE
  5
7F
330
5F
100
AcDbEntity
  8
ASHADE
  6
Continuous
 62
     7
100
AcDbLine
 10
0.1045454545454545
 20
0.26
 30
0.0
 11
0.15
 21
0.46
 31
0.0
  0
LINE
  5
80
330
5F
100
AcDbEntity
  8
ASHADE
  6
Continuous
 62
     7
100
AcDbLine
 10
0.0
 20
0.26
 30
0.0
 11
0.0
 21
0.46
 31
0.0
  0
LINE
  5
81
330
5F
100
AcDbEntity
  8
ASHADE
  6
Continuous
 62
     7
100
AcDbLine
 10
0.25
 20
0.13
 30
0.0
 11
0.25
 21
0.26
 31
0.0
  0
LINE
  5
82
330
5F
100
AcDbEntity
  8
ASHADE
  6
Continuous
 62
     7
100
AcDbLine
 10
0.25
 20
0.22
 30
0.0
 11
0.29
 21
0.22
 31
0.0
  0
LINE
  5
83
330
5F
100
AcDbEntity
  8
ASHADE
  6
Continuous
 62
     7
100
AcDbLine
 10
0.29
 20
0.1799999999999999
 30
0.0
 11
0.25
 21
0.1799999999999999
 31
0.0
  0
LINE
  5
84
330
5F
100
AcDbEntity
  8
ASHADE
  6
Continuous
 62
     7
100
AcDbLine
 10
0.29
 20
0.22
 30
0.0
 11
0.29
 21
0.1799999999999999
 31
0.0
  0
ENDBLK
  5
86
330
5F
100
AcDbEntity
  8
0
100
AcDbBlockEnd
  0
BLOCK
  5
92
330
91
100
AcDbEntity
  8
ASHADE
100
AcDbBlockBegin
  2
AVE_RENDER
 70
     0
 10
0.0
 20
0.0
 30
0.0
  3
AVE_RENDER
  1
AVE_RENDER
  0
ENDBLK
  5
93
330
91
100
AcDbEntity
  8
0
100
AcDbBlockEnd
  0
BLOCK
  5
A0
330
9F
100
AcDbEntity
  8
ASHADE
100
AcDbBlockBegin
  2
AVE_GLOBAL
 70
     0
 10
0.0
 20
0.0
 30
0.0
  3
AVE_GLOBAL
  1
AVE_GLOBAL
  0
ENDBLK
  5
A1
330
9F
100
AcDbEntity
  8
0
100
AcDbBlockEnd
  0
ENDSEC
  0
SECTION
  2
ENTITIES
  0
INSERT
  5
94
330
1F
100
AcDbEntity
  8
ASHADE
 62
     1
100
AcDbBlockReference
  2
AVE_RENDER
 10
0.0
 20
0.0
 30
0.0
1001
AVE_RENDER
1002
{
1070
     7
1000
Pref
1070
    30
1070
    20
1070
     1
1070
     0
1000

1070
    10
1070
     1
1070
    10
1040
1.0
1070
     1
1040
0.3
1040
0.7
1040
0.0
1040
10.0
1010
-1.0
1020
-1.0
1030
-1.0
1040
0.3
1070
    49
1070
     0
1070
     0
1010
1.0
1020
1.0
1030
1.0
1040
45.0
1070
     1
1070
     0
1000
WCS
1040
0.0
1070
     0
1040
10.0
1002
}
  0
INSERT
  5
95
330
1F
100
AcDbEntity
  8
ASHADE
 62
     3
100
AcDbBlockReference
  2
AVE_RENDER
 10
0.0
 20
0.0
 30
0.0
1001
AVE_RENDER
1002
{
1070
     0
1000
Full Opt
1070
     0
1070
     1
1070
     1
1070
     1
1070
     0
1070
     0
1070
     0
1070
     1
1070
     1
1040
0.0001
1040
0.0001
1002
}
  0
INSERT
  5
96
330
1F
100
AcDbEntity
  8
ASHADE
 62
     4
100
AcDbBlockReference
  2
AVE_RENDER
 10
0.0
 20
0.0
 30
0.0
1001
AVE_RENDER
1002
{
1070
     0
1000
Quick Opt
1070
     0
1070
     1
1070
     1
1070
     1
1070
     0
1070
     0
1070
     1
1002
}
  0
INSERT
  5
97
330
1F
100
AcDbEntity
  8
ASHADE
 62
     5
100
AcDbBlockReference
  2
AVE_RENDER
 10
0.0
 20
0.0
 30
0.0
1001
AVE_RENDER
1002
{
1070
     1
1000
Scanl Opt
1070
     2
1070
     0
1070
     2
1040
2.0
1040
4.0
1070
     0
1070
     1
1070
     0
1040
0.03
1002
}
  0
INSERT
  5
98
330
1F
100
AcDbEntity
  8
ASHADE
 62
     6
100
AcDbBlockReference
  2
AVE_RENDER
 10
0.0
 20
0.0
 30
0.0
1001
AVE_RENDER
1002
{
1070
     2
1000
Raytr Opt
1070
     2
1070
     0
1070
     2
1040
2.0
1040
4.0
1070
     0
1070
     1
1070
     1
1040
0.03
1070
     3
1040
0.03
1002
}
  0
INSERT
  5
99
330
1F
100
AcDbEntity
  8
ASHADE
 62
     7
100
AcDbBlockReference
  2
AVE_RENDER
 10
0.0
 20
0.0
 30
0.0
1001
AVE_RENDER
1002
{
1070
     0
1000
RFile Opt
1070
     1
1070
   640
1070
   480
1070
 10000
1070
     1
1070
     8
1070
     8
1070
     0
1070
     0
1070
     0
1070
     0
1070
     0
1070
     0
1070
     0
1002
}
  0
INSERT
  5
9A
330
1F
100
AcDbEntity
  8
ASHADE
 62
     8
100
AcDbBlockReference
  2
AVE_RENDER
 10
0.0
 20
0.0
 30
0.0
1001
AVE_RENDER
1002
{
1070
     0
1000
Fog Opt
1070
     0
1070
     0
1040
0.0
1040
1.0
1040
0.0
1040
1.0
1010
0.5
1020
0.5
1030
0.5
1002
}
  0
INSERT
  5
9B
330
1F
100
AcDbEntity
  8
ASHADE
 62
     9
100
AcDbBlockReference
  2
AVE_RENDER
 10
0.0
 20
0.0
 30
0.0
1001
AVE_RENDER
1002
{
1070
     0
1000
BG Opt
1070
     0
1070
     1
1010
0.0
1020
0.0
1030
0.0
1010
1.0
1020
0.0
1030
0.0
1010
0.0
1020
1.0
1030
0.0
1010
0.0
1020
0.0
1030
1.0
1040
0.5
1040
0.33
1040
0.0
1000

1070
     1
1000

1070
     1
1070
     1
1040
1.0
1040
1.0
1040
0.0
1040
0.0
1070
     0
1002
}
  0
INSERT
  5
A2
330
1F
100
AcDbEntity
  8
ASHADE
 62
     1
100
AcDbBlockReference
  2
AVE_GLOBAL
 10
0.0
 20
0.0
 30
0.0
1001
AVE_MATERIAL
1002
{
1000
*GLOBAL*
1000
2
1000
Global finish.
1002
{
1002
}
1002
{
1070
    63
1002
{
1002
{
1010
-1.0
1020
-1.0
1030
-1.0
1002
}
1040
0.1000000014901161
1000

1040
0.0
1002
{
1002
}
1040
0.0
1002
{
1002
}
1040
0.0
1002
}
1002
{
1002
{
1010
-1.0
1020
-1.0
1030
-1.0
1002
}
1040
0.6999999880790711
1000

1040
0.0
1002
{
1002
}
1040
0.0
1002
{
1002
}
1040
0.0
1002
}
1002
{
1002
{
1010
-1.0
1020
-1.0
1030
-1.0
1002
}
1040
0.2000000029802322
1000

1040
0.0
1002
{
1002
}
1040
0.0
1002
{
1002
}
1040
0.0
1002
}
1002
{
1070
     0
1002
{
1070
     1
1002
{
1040
1.0
1040
1.0
1000

1040
0.0
1002
{
1002
}
1040
0.0
1002
{
1002
}
1040
0.0
1002
}
1002
}
1040
1.0
1040
0.0
1040
0.0
1002
}
1002
{
1040
1.0
1040
1.0
1000

1040
0.0
1002
{
1002
}
1040
0.0
1002
{
1002
}
1040
0.0
1002
}
1002
{
1040
0.5
1040
1.0
1000

1040
0.0
1002
{
1002
}
1040
0.0
1002
{
1002
}
1040
0.0
1002
}
1002
{
1070
     0
1040
0.0
1002
{
1002
}
1040
1.0
1002
{
1002
}
1040
0.0
1002
}
1002
{
1040
0.0
1002
{
1002
{
1010
0.0
1020
0.0
1030
0.0
1002
}
1040
1.0
1000

1040
0.0
1002
{
1002
}
1040
0.0
1002
{
1002
}
1040
0.0
1002
}
1002
}
1002
{
1002
{
1070
     1
1002
{
1040
0.0
1040
1.0
1000

1040
0.0
1002
{
1002
}
1040
0.0
1002
{
1002
}
1040
0.0
1002
}
1002
}
1040
0.0
1002
{
1002
}
1010
1.0
1020
0.0
1030
0.0
1010
0.0
1020
1.0
1030
0.0
1010
0.0
1020
0.0
1030
1.0
1070
     0
1002
}
1002
{
1002
{
1040
1.0
1040
1.0
1002
{
1070
     1
1002
{
1040
1.0
1040
1.0
1000

1040
0.0
1002
{
1002
}
1040
0.0
1002
{
1002
}
1040
0.0
1002
}
1002
}
1002
}
1070
     0
1040
0.0
1002
{
1002
}
1002
}
1002
{
1002
}
1002
}
1002
{
1071
        3
1070
     3
1070
     0
1002
{
1070
     2
1070
     0
1070
     0
1040
0.0
1002
}
1070
     0
1070
     2
1002
{
1002
}
1002
}
1002
{
1040
8030.0
1040
190.3000030517578
1040
0.3050000071525574
1040
228.0
1040
545.0
1040
14.0
1040
17.39999961853027
1040
0.4560000002384186
1002
}
1002
}
  0
MESH
  5
F9
330
1F
100
AcDbEntity
  8
OracDecor_cornice_mouldings
 62
    33
420
 14782295
160
             47960
310
58BB0000340500000C00000013000000020000003C00000006000000020000000000002000408F4000000000FFFF17C00000000000C054C00000000000408F40000000002B6FCE3E0000000000C054C00C000000130000000A0000003C00000006000000020000000000002000408F4000000000FFFF17C00000000000C054
310
C0000000C0FF3F8FC000000000FFFF17C00000000000C054C00C00000013000000120000003C0000000600000002000000000000C0FF3F8FC0000000002B6FCE3E0000000000C054C0000000C0FF3F8FC000000000FFFF17C00000000000C054C00C000000130000001A0000003C0000000600000002000000000000C0FF3F
310
8FC0000000002B6FCE3E0000000000C054C00000000000408F40000000002B6FCE3E0000000000C054C00C00000013000000220000003C00000006000000020000000000002000408F4000000000FFFF17C00000000000C054C00000000000408F4000000020FFFF17C000000000006053C00C000000130000002A0000003C
310
00000006000000020000000000000000408F4000000020FFFF17C000000000006053C0000000C0FF3F8FC000000020FFFF17C000000000006053C00C00000013000000320000003C0000000600000002000000000000C0FF3F8FC000000020FFFF17C000000000006053C0000000C0FF3F8FC000000000FFFF17C000000000
310
00C054C00C000000130000003A0000003C00000006000000020000000000002000408F40000000A0F7C419C000000040625F53C00000000000408F4000000020FFFF17C000000000006053C00C00000013000000420000003C00000006000000020000000000002000408F40000000A0F7C419C000000040625F53C0000000
310
C0FF3F8FC000000060F7C419C000000040625F53C00C000000130000004A0000003C0000000600000002000000000000C0FF3F8FC000000020FFFF17C000000000006053C0000000C0FF3F8FC000000060F7C419C000000040625F53C00C00000013000000520000003C00000006000000020000000000002000408F400000
310
00A0F7C419C000000040625F53C00000000000408F40000000A07F131FC000000060BA5653C00C000000130000005A0000003C00000006000000020000000000000000408F40000000A07F131FC000000060BA5653C0000000C0FF3F8FC0000000A07F131FC000000060BA5653C00C00000013000000620000003C00000006
310
00000002000000000000C0FF3F8FC0000000A07F131FC000000060BA5653C0000000C0FF3F8FC000000060F7C419C000000040625F53C00C000000130000006A0000003C00000006000000020000000000002000408F400000004026ED22C0000000200A3D53C00000000000408F40000000A07F131FC000000060BA5653C0
310
0C00000013000000720000003C00000006000000020000000000002000408F400000004026ED22C0000000200A3D53C0000000C0FF3F8FC00000004026ED22C0000000200A3D53C00C000000130000007A0000003C0000000600000002000000000000C0FF3F8FC00000004026ED22C0000000200A3D53C0000000C0FF3F8F
310
C0000000A07F131FC000000060BA5653C00C00000013000000820000003C00000006000000020000000000002000408F400000004026ED22C0000000200A3D53C00000000000408F400000006019F725C000000040C31353C00C000000130000008A0000003C0000000600000002000000000000C0FF3F8FC00000006019F7
310
25C000000040C31353C00000000000408F400000006019F725C000000040C31353C00C00000013000000920000003C0000000600000002000000000000C0FF3F8FC00000004026ED22C0000000200A3D53C0000000C0FF3F8FC00000006019F725C000000040C31353C00C000000130000009A0000003C0000000600000002
310
0000000000002000408F40000000E0F2B328C000000000F6DA52C00000000000408F400000006019F725C000000040C31353C00C00000013000000A20000003C00000006000000020000000000002000408F40000000E0F2B328C000000000F6DA52C0000000C0FF3F8FC0000000E0F2B328C000000000F6DA52C00C000000
310
13000000AA0000003C0000000600000002000000000000C0FF3F8FC00000006019F725C000000040C31353C0000000C0FF3F8FC0000000E0F2B328C000000000F6DA52C00C00000013000000B20000003C00000006000000020000000000002000408F40000000E0F2B328C000000000F6DA52C00000000000408F40000000
310
A018212BC000000040909352C00C00000013000000BA0000003C0000000600000002000000000000C0FF3F8FC0000000A018212BC000000040909352C00000000000408F40000000A018212BC000000040909352C00C00000013000000C20000003C0000000600000002000000000000C0FF3F8FC0000000E0F2B328C00000
310
0000F6DA52C0000000C0FF3F8FC0000000A018212BC000000040909352C00C00000013000000CA0000003C00000006000000020000000000002000408F40000000E0C80C2DC000000040694552C00000000000408F40000000A018212BC000000040909352C00C00000013000000D20000003C000000060000000200000000
310
00002000408F40000000E0C80C2DC000000040694552C0000000C0FF3F8FC0000000E0C80C2DC000000040694552C00C00000013000000DA0000003C0000000600000002000000000000C0FF3F8FC0000000A018212BC000000040909352C0000000C0FF3F8FC0000000E0C80C2DC000000040694552C00C00000013000000
310
E20000003C00000006000000020000000000002000408F40000000E0C80C2DC000000040694552C00000000000408F40000000A0BF9C2EC0000000E01DE351C00C00000013000000EA0000003C00000006000000020000000000000000408F40000000A0BF9C2EC0000000E01DE351C0000000C0FF3F8FC0000000A0BF9C2E
310
C0000000E01DE351C00C00000013000000F20000003C0000000600000002000000000000C0FF3F8FC0000000A0BF9C2EC0000000E01DE351C0000000C0FF3F8FC0000000E0C80C2DC000000040694552C00C00000013000000FA0000003C00000006000000020000000000002000408F4000000040A9762FC000000080C476
310
51C00000000000408F40000000A0BF9C2EC0000000E01DE351C00C00000013000000020100003C00000006000000020000000000002000408F4000000040A9762FC000000080C47651C0000000C0FF3F8FC000000040A9762FC000000080C47651C00C000000130000000A0100003C0000000600000002000000000000C0FF
310
3F8FC0000000A0BF9C2EC0000000E01DE351C0000000C0FF3F8FC000000040A9762FC000000080C47651C00C00000013000000120100003C00000006000000020000000000002000408F4000000040A9762FC000000080C47651C00000000000408F40000000C0EE642FC000000080420D51C00C000000130000001A010000
310
3C00000006000000020000000000000000408F40000000C0EE642FC000000080420D51C0000000C0FF3F8FC0000000C0EE642FC000000080420D51C00C00000013000000220100003C0000000600000002000000000000C0FF3F8FC000000040A9762FC000000080C47651C0000000C0FF3F8FC0000000C0EE642FC0000000
310
80420D51C00C000000130000002A0100003C00000006000000020000000000002000408F400000006040742EC000000080A9A350C00000000000408F40000000C0EE642FC000000080420D51C00C00000013000000320100003C00000006000000020000000000002000408F400000006040742EC000000080A9A350C00000
310
00C0FF3F8FC00000006040742EC000000080A9A350C00C000000130000003A0100003C0000000600000002000000000000C0FF3F8FC0000000C0EE642FC000000080420D51C0000000C0FF3F8FC00000006040742EC000000080A9A350C00C00000013000000420100003C00000006000000020000000000002000408F4000
310
00006040742EC000000080A9A350C00000000000408F40000000A02AA42CC000000060CA3C50C00C000000130000004A0100003C00000006000000020000000000000000408F40000000A02AA42CC000000060CA3C50C0000000C0FF3F8FC0000000A02AA42CC000000060CA3C50C00C00000013000000520100003C000000
310
0600000002000000000000C0FF3F8FC00000006040742EC000000080A9A350C0000000C0FF3F8FC0000000A02AA42CC000000060CA3C50C00C000000130000005A0100003C00000006000000020000000000002000408F40000000C09F1D2AC00000000068CA4FC00000000000408F40000000A02AA42CC000000060CA3C50
310
C00C00000013000000620100003C00000006000000020000000000002000408F40000000C09F1D2AC00000000068CA4FC0000000C0FF3F8FC0000000C09F1D2AC00000000068CA4FC00C000000130000006A0100003C0000000600000002000000000000C0FF3F8FC0000000A02AA42CC000000060CA3C50C0000000C0FF3F
310
8FC0000000C09F1D2AC00000000068CA4FC00C00000013000000720100003C00000006000000020000000000002000408F40000000C09F1D2AC00000000068CA4FC00000000000408F40000000005C3827C0000000C0584F4FC00C000000130000007A0100003C00000006000000020000000000000000408F40000000005C
310
3827C0000000C0584F4FC0000000C0FF3F8FC0000000005C3827C0000000C0584F4FC00C00000013000000820100003C0000000600000002000000000000C0FF3F8FC0000000C09F1D2AC00000000068CA4FC0000000C0FF3F8FC0000000005C3827C0000000C0584F4FC00C000000130000008A0100003C00000006000000
310
020000000000002000408F40000000C0B85B24C000000040C00D4FC00000000000408F40000000005C3827C0000000C0584F4FC00C00000013000000920100003C00000006000000020000000000002000408F40000000C0B85B24C000000040C00D4FC0000000C0FF3F8FC0000000C0B85B24C000000040C00D4FC00C0000
310
00130000009A0100003C0000000600000002000000000000C0FF3F8FC0000000005C3827C0000000C0584F4FC0000000C0FF3F8FC0000000C0B85B24C000000040C00D4FC00C00000013000000A20100003C00000006000000020000000000002000408F40000000C0B85B24C000000040C00D4FC00000000000408F400000
310
00A0FFFF22C00000000000004FC00C00000013000000AA0100003C0000000600000002000000000000C0FF3F8FC0000000A0FFFF22C00000000000004FC00000000000408F40000000A0FFFF22C00000000000004FC00C00000013000000B20100003C0000000600000002000000000000C0FF3F8FC0000000A0FFFF22C000
310
00000000004FC0000000C0FF3F8FC0000000C0B85B24C000000040C00D4FC00C00000013000000BA0100003C00000006000000020000000000002000408F4000000020768323C0000000A077944EC00000000000408F40000000A0FFFF22C00000000000004FC00C00000013000000C20100003C0000000600000002000000
310
0000002000408F4000000020768323C0000000A077944EC0000000C0FF3F8FC000000020768323C0000000A077944EC00C00000013000000CA0100003C0000000600000002000000000000C0FF3F8FC000000020768323C0000000A077944EC0000000C0FF3F8FC0000000A0FFFF22C00000000000004FC00C000000130000
310
00D20100003C00000006000000020000000000002000408F4000000020768323C0000000A077944EC00000000000408F40000000C07C9224C0000000402BFA4DC00C00000013000000DA0100003C0000000600000002000000000000C0FF3F8FC0000000C07C9224C0000000402BFA4DC00000000000408F40000000C07C92
310
24C0000000402BFA4DC00C00000013000000E20100003C0000000600000002000000000000C0FF3F8FC000000020768323C0000000A077944EC0000000C0FF3F8FC0000000C07C9224C0000000402BFA4DC00C00000013000000EA0100003C00000006000000020000000000002000408F40000000E0926F26C00000008007
310
3C4DC00000000000408F40000000C07C9224C0000000402BFA4DC00C00000013000000F20100003C00000006000000020000000000002000408F40000000E0926F26C000000080073C4DC0000000C0FF3F8FC0000000E0926F26C000000080073C4DC00C00000013000000FA0100003C0000000600000002000000000000C0
310
FF3F8FC0000000C07C9224C0000000402BFA4DC0000000C0FF3F8FC0000000E0926F26C000000080073C4DC00C00000013000000020200003C00000006000000020000000000002000408F40000000E0926F26C000000080073C4DC00000000000408F40000000C04ACA28C000000040AC954CC00C000000130000000A0200
310
003C0000000600000002000000000000C0FF3F8FC0000000C04ACA28C000000040AC954CC00000000000408F40000000C04ACA28C000000040AC954CC00C00000013000000120200003C0000000600000002000000000000C0FF3F8FC0000000E0926F26C000000080073C4DC0000000C0FF3F8FC0000000C04ACA28C00000
310
0040AC954CC00C000000130000001A0200003C00000006000000020000000000002000408F400000008012902BC000000080390C4CC00000000000408F40000000C04ACA28C000000040AC954CC00C00000013000000220200003C00000006000000020000000000002000408F400000008012902BC000000080390C4CC000
310
0000C0FF3F8FC00000008012902BC000000080390C4CC00C000000130000002A0200003C0000000600000002000000000000C0FF3F8FC0000000C04ACA28C000000040AC954CC0000000C0FF3F8FC00000008012902BC000000080390C4CC00C00000013000000320200003C00000006000000020000000000002000408F40
310
0000008012902BC000000080390C4CC00000000000408F40000000600CAB2EC000000040EBA34BC00C000000130000003A0200003C0000000600000002000000000000C0FF3F8FC0000000600CAB2EC000000040EBA34BC00000000000408F40000000600CAB2EC000000040EBA34BC00C00000013000000420200003C0000
310
000600000002000000000000C0FF3F8FC0000000600CAB2EC000000040EBA34BC0000000C0FF3F8FC00000008012902BC000000080390C4CC00C000000130000004A0200003C00000006000000020000000000002000408F40000000205D0131C000000020F85F4BC00000000000408F40000000600CAB2EC000000040EBA3
310
4BC00C00000013000000520200003C00000006000000020000000000002000408F40000000205D0131C000000020F85F4BC0000000C0FF3F8FC0000000205D0131C000000020F85F4BC00C000000130000005A0200003C0000000600000002000000000000C0FF3F8FC0000000600CAB2EC000000040EBA34BC0000000C0FF
310
3F8FC0000000205D0131C000000020F85F4BC00C00000013000000620200003C00000006000000020000000000002000408F40000000205D0131C000000020F85F4BC00000000000408F40000000E05FBE32C00000004078424BC00C000000130000006A0200003C00000006000000020000000000000000408F40000000E0
310
5FBE32C00000004078424BC0000000C0FF3F8FC0000000E05FBE32C00000004078424BC00C00000013000000720200003C0000000600000002000000000000C0FF3F8FC0000000205D0131C000000020F85F4BC0000000C0FF3F8FC0000000E05FBE32C00000004078424BC00C000000130000007A0200003C000000060000
310
00020000000000002000408F40000000E0FFFF34C00000000000404BC00000000000408F40000000E05FBE32C00000004078424BC00C00000013000000820200003C00000006000000020000000000002000408F40000000E0FFFF34C00000000000404BC0000000C0FF3F8FC0000000E0FFFF34C00000000000404BC00C00
310
0000130000008A0200003C0000000600000002000000000000C0FF3F8FC0000000E0FFFF34C00000000000404BC0000000C0FF3F8FC0000000E05FBE32C00000004078424BC00C00000013000000920200003C00000006000000020000000000002000408F40000000E0FFFF34C00000000000404BC00000000000408F4000
310
0000E0FFFF34C000000000004049C00C000000130000009A0200003C00000006000000020000000000000000408F40000000E0FFFF34C000000000004049C0000000C0FF3F8FC0000000E0FFFF34C000000000004049C00C00000013000000A20200003C0000000600000002000000000000C0FF3F8FC0000000E0FFFF34C0
310
0000000000404BC0000000C0FF3F8FC0000000E0FFFF34C000000000004049C00C00000013000000AA0200003C00000006000000020000000000002000408F40000000400A5C36C000000000FE3349C00000000000408F40000000E0FFFF34C000000000004049C00C00000013000000B20200003C00000006000000020000
310
000000002000408F40000000400A5C36C000000000FE3349C0000000C0FF3F8FC0000000400A5C36C000000000FE3349C00C00000013000000BA0200003C0000000600000002000000000000C0FF3F8FC0000000400A5C36C000000000FE3349C0000000C0FF3F8FC0000000E0FFFF34C000000000004049C00C0000001300
310
0000C20200003C00000006000000020000000000002000408F40000000400A5C36C000000000FE3349C00000000000408F40000000E0D82238C0000000004F0449C00C00000013000000CA0200003C0000000600000002000000000000C0FF3F8FC0000000E0D82238C0000000004F0449C00000000000408F40000000E0D8
310
2238C0000000004F0449C00C00000013000000D20200003C0000000600000002000000000000C0FF3F8FC0000000400A5C36C000000000FE3349C0000000C0FF3F8FC0000000E0D82238C0000000004F0449C00C00000013000000DA0200003C00000006000000020000000000002000408F4000000060BED339C0000000C0
310
D8AF48C00000000000408F40000000E0D82238C0000000004F0449C00C00000013000000E20200003C00000006000000020000000000002000408F4000000060BED339C0000000C0D8AF48C0000000C0FF3F8FC000000060BED339C0000000C0D8AF48C00C00000013000000EA0200003C0000000600000002000000000000
310
C0FF3F8FC0000000E0D82238C0000000004F0449C0000000C0FF3F8FC000000060BED339C0000000C0D8AF48C00C00000013000000F20200003C00000006000000020000000000002000408F4000000060BED339C0000000C0D8AF48C00000000000408F40000000C0EC623BC000000000EA3848C00C00000013000000FA02
310
00003C0000000600000002000000000000C0FF3F8FC0000000C0EC623BC000000000EA3848C00000000000408F40000000C0EC623BC000000000EA3848C00C00000013000000020300003C0000000600000002000000000000C0FF3F8FC0000000C0EC623BC000000000EA3848C0000000C0FF3F8FC000000060BED339C000
310
0000C0D8AF48C00C000000130000000A0300003C00000006000000020000000000002000408F400000004082C53CC000000040C1A247C00000000000408F40000000C0EC623BC000000000EA3848C00C00000013000000120300003C00000006000000020000000000002000408F400000004082C53CC000000040C1A247C0
310
000000C0FF3F8FC00000004082C53CC000000040C1A247C00C000000130000001A0300003C0000000600000002000000000000C0FF3F8FC0000000C0EC623BC000000000EA3848C0000000C0FF3F8FC00000004082C53CC000000040C1A247C00C00000013000000220300003C00000006000000020000000000002000408F
310
400000004082C53CC000000040C1A247C00000000000408F4000000000D4F13DC00000006076F146C00C000000130000002A0300003C00000006000000020000000000000000408F4000000000D4F13DC00000006076F146C0000000C0FF3F8FC000000000D4F13DC00000006076F146C00C00000013000000320300003C00
310
00000600000002000000000000C0FF3F8FC00000004082C53CC000000040C1A247C0000000C0FF3F8FC000000000D4F13DC00000006076F146C00C000000130000003A0300003C00000006000000020000000000002000408F4000000080B1DF3EC000000040DF2946C00000000000408F4000000000D4F13DC00000006076
310
F146C00C00000013000000420300003C00000006000000020000000000002000408F4000000080B1DF3EC000000040DF2946C0000000C0FF3F8FC000000080B1DF3EC000000040DF2946C00C000000130000004A0300003C0000000600000002000000000000C0FF3F8FC000000000D4F13DC00000006076F146C0000000C0
310
FF3F8FC000000080B1DF3EC000000040DF2946C00C00000013000000520300003C00000006000000020000000000002000408F4000000080B1DF3EC000000040DF2946C00000000000408F40000000C09D883FC0000000806C5145C00C000000130000005A0300003C0000000600000002000000000000C0FF3F8FC0000000
310
C09D883FC0000000806C5145C00000000000408F40000000C09D883FC0000000806C5145C00C00000013000000620300003C0000000600000002000000000000C0FF3F8FC0000000C09D883FC0000000806C5145C0000000C0FF3F8FC000000080B1DF3EC000000040DF2946C00C000000130000006A0300003C0000000600
310
0000020000000000002000408F40000000E0FBE73FC000000000056E44C00000000000408F40000000C09D883FC0000000806C5145C00C00000013000000720300003C00000006000000020000000000002000408F40000000E0FBE73FC000000000056E44C0000000C0FF3F8FC0000000E0FBE73FC000000000056E44C00C
310
000000130000007A0300003C0000000600000002000000000000C0FF3F8FC0000000C09D883FC0000000806C5145C0000000C0FF3F8FC0000000E0FBE73FC000000000056E44C00C00000013000000820300003C00000006000000020000000000002000408F40000000E0FBE73FC000000000056E44C00000000000408F40
310
000000A030FB3FC000000040DC8543C00C000000130000008A0300003C00000006000000020000000000000000408F40000000A030FB3FC000000040DC8543C0000000C0FF3F8FC0000000A030FB3FC000000040DC8543C00C00000013000000920300003C0000000600000002000000000000C0FF3F8FC0000000E0FBE73F
310
C000000000056E44C0000000C0FF3F8FC0000000A030FB3FC000000040DC8543C00C000000130000009A0300003C00000006000000020000000000002000408F40000000A0B4C13FC0000000804A9F42C00000000000408F40000000A030FB3FC000000040DC8543C00C00000013000000A20300003C000000060000000200
310
00000000002000408F40000000A0B4C13FC0000000804A9F42C0000000C0FF3F8FC0000000A0B4C13FC0000000804A9F42C00C00000013000000AA0300003C0000000600000002000000000000C0FF3F8FC0000000A030FB3FC000000040DC8543C0000000C0FF3F8FC0000000A0B4C13FC0000000804A9F42C00C00000013
310
000000B20300003C00000006000000020000000000002000408F40000000A0B4C13FC0000000804A9F42C00000000000408F40000000601B3D3FC0000000C09AC041C00C00000013000000BA0300003C00000006000000020000000000000000408F40000000601B3D3FC0000000C09AC041C0000000C0FF3F8FC000000060
310
1B3D3FC0000000C09AC041C00C00000013000000C20300003C0000000600000002000000000000C0FF3F8FC0000000A0B4C13FC0000000804A9F42C0000000C0FF3F8FC0000000601B3D3FC0000000C09AC041C00C00000013000000CA0300003C00000006000000020000000000002000408F40000000E003713EC0000000
310
80DFEF40C00000000000408F40000000601B3D3FC0000000C09AC041C00C00000013000000D20300003C00000006000000020000000000002000408F40000000E003713EC000000080DFEF40C0000000C0FF3F8FC0000000E003713EC000000080DFEF40C00C00000013000000DA0300003C00000006000000020000000000
310
00C0FF3F8FC0000000601B3D3FC0000000C09AC041C0000000C0FF3F8FC0000000E003713EC000000080DFEF40C00C00000013000000E20300003C00000006000000020000000000002000408F40000000E003713EC000000080DFEF40C00000000000408F400000002000633DC000000040C93240C00C00000013000000EA
310
0300003C00000006000000020000000000000000408F400000002000633DC000000040C93240C0000000C0FF3F8FC00000002000633DC000000040C93240C00C00000013000000F20300003C0000000600000002000000000000C0FF3F8FC0000000E003713EC000000080DFEF40C0000000C0FF3F8FC00000002000633DC0
310
00000040C93240C00C00000013000000FA0300003C00000006000000020000000000002000408F40000000606D1A3CC000000020001D3FC00000000000408F400000002000633DC000000040C93240C00C00000013000000020400003C00000006000000020000000000002000408F40000000606D1A3CC000000020001D3F
310
C0000000C0FF3F8FC0000000606D1A3CC0000000E0FF1C3FC00C000000130000000A0400003C0000000600000002000000000000C0FF3F8FC00000002000633DC000000040C93240C0000000C0FF3F8FC0000000606D1A3CC0000000E0FF1C3FC00C00000013000000120400003C0000000600000002000000000000200040
310
8F40000000606D1A3CC000000020001D3FC00000000000408F40000000E040A03AC0000000A0FC0E3EC00C000000130000001A0400003C00000006000000020000000000000000408F40000000E040A03AC0000000A0FC0E3EC0000000C0FF3F8FC0000000E040A03AC000000060FC0E3EC00C00000013000000220400003C
310
0000000600000002000000000000C0FF3F8FC0000000606D1A3CC0000000E0FF1C3FC0000000C0FF3F8FC0000000E040A03AC000000060FC0E3EC00C000000130000002A0400003C00000006000000020000000000002000408F4000000020CAFE38C000000040E5423DC00000000000408F40000000E040A03AC0000000A0
310
FC0E3EC00C00000013000000320400003C00000006000000020000000000002000408F4000000020CAFE38C000000040E5423DC0000000C0FF3F8FC000000020CAFE38C000000000E5423DC00C000000130000003A0400003C0000000600000002000000000000C0FF3F8FC0000000E040A03AC000000060FC0E3EC0000000
310
C0FF3F8FC000000020CAFE38C000000000E5423DC00C00000013000000420400003C00000006000000020000000000002000408F4000000020CAFE38C000000040E5423DC00000000000408F40000000E06A4137C0000000E04BBE3CC00C000000130000004A0400003C0000000600000002000000000000C0FF3F8FC00000
310
00E06A4137C0000000A04BBE3CC00000000000408F40000000E06A4137C0000000E04BBE3CC00C00000013000000520400003C0000000600000002000000000000C0FF3F8FC0000000E06A4137C0000000A04BBE3CC0000000C0FF3F8FC000000020CAFE38C000000000E5423DC00C000000130000005A0400003C00000006
310
000000020000000000002000408F40000000208FE835C0000000409F893CC00000000000408F40000000E06A4137C0000000E04BBE3CC00C00000013000000620400003C00000006000000020000000000002000408F40000000208FE835C0000000409F893CC0000000C0FF3F8FC0000000208FE835C0000000009F893CC0
310
0C000000130000006A0400003C0000000600000002000000000000C0FF3F8FC0000000E06A4137C0000000A04BBE3CC0000000C0FF3F8FC0000000208FE835C0000000009F893CC00C00000013000000720400003C00000006000000020000000000002000408F40000000208FE835C0000000409F893CC00000000000408F
310
40000000E0FFFF34C00000000000803CC00C000000130000007A0400003C0000000600000002000000000000C0FF3F8FC0000000E0FFFF34C00000000000803CC00000000000408F40000000E0FFFF34C00000000000803CC00C00000013000000820400003C0000000600000002000000000000C0FF3F8FC0000000E0FFFF
310
34C00000000000803CC0000000C0FF3F8FC0000000208FE835C0000000009F893CC00C000000130000008A0400003C00000006000000020000000000002000408F40000000E0FFFF34C000000000008038C00000000000408F40000000E0FFFF34C00000000000803CC00C00000013000000920400003C0000000600000002
310
0000000000002000408F40000000E0FFFF34C000000000008038C0000000C0FF3F8FC0000000E0FFFF34C000000000008038C00C000000130000009A0400003C0000000600000002000000000000C0FF3F8FC0000000E0FFFF34C00000000000803CC0000000C0FF3F8FC0000000E0FFFF34C000000000008038C00C000000
310
13000000A20400003C00000006000000020000000000002000408F40000000E0FFFF34C000000000008038C00000000000408F40000000E0FFFF37C0000000A0008038C00C00000013000000AA0400003C0000000600000002000000000000C0FF3F8FC0000000E0FFFF37C000000060008038C00000000000408F40000000
310
E0FFFF37C0000000A0008038C00C00000013000000B20400003C0000000600000002000000000000C0FF3F8FC0000000E0FFFF37C000000060008038C0000000C0FF3F8FC0000000E0FFFF34C000000000008038C00C00000013000000BA0400003C00000006000000020000000000002000408F4000000000000038C00000
310
00A0008034C00000000000408F40000000E0FFFF37C0000000A0008038C00C00000013000000C20400003C00000006000000020000000000002000408F4000000000000038C0000000A0008034C0000000C0FF3F8FC000000000000038C000000060008034C00C00000013000000CA0400003C000000060000000200000000
310
0000C0FF3F8FC0000000E0FFFF37C000000060008038C0000000C0FF3F8FC000000000000038C000000060008034C00C00000013000000D20400003C00000006000000020000000000002000408F4000000000000038C0000000A0008034C00000000000408F40000000807EF038C000000060FA7334C00C00000013000000
310
DA0400003C0000000600000002000000000000C0FF3F8FC0000000807EF038C000000020FA7334C00000000000408F40000000807EF038C000000060FA7334C00C00000013000000E20400003C0000000600000002000000000000C0FF3F8FC0000000807EF038C000000020FA7334C0000000C0FF3F8FC000000000000038
310
C000000060008034C00C00000013000000EA0400003C00000006000000020000000000002000408F40000000400FA63AC000000000F02C34C00000000000408F40000000807EF038C000000060FA7334C00C00000013000000F20400003C00000006000000020000000000002000408F40000000400FA63AC000000000F02C
310
34C0000000C0FF3F8FC0000000400FA63AC0000000C0EF2C34C00C00000013000000FA0400003C0000000600000002000000000000C0FF3F8FC0000000807EF038C000000020FA7334C0000000C0FF3F8FC0000000400FA63AC0000000C0EF2C34C00C00000013000000020500003C00000006000000020000000000002000
310
408F40000000400FA63AC000000000F02C34C00000000000408F400000008059423CC0000000801DA733C00C000000130000000A0500003C0000000600000002000000000000C0FF3F8FC00000008059423CC0000000401DA733C00000000000408F400000008059423CC0000000801DA733C00C0000001300000012050000
310
3C0000000600000002000000000000C0FF3F8FC00000008059423CC0000000401DA733C0000000C0FF3F8FC0000000400FA63AC0000000C0EF2C34C00C000000130000001A0500003C00000006000000020000000000002000408F40000000805AB53DC000000080D9E532C00000000000408F400000008059423CC0000000
310
801DA733C00C00000013000000220500003C00000006000000020000000000002000408F40000000805AB53DC000000080D9E532C0000000C0FF3F8FC0000000805AB53DC000000040D9E532C00C000000130000002A0500003C0000000600000002000000000000C0FF3F8FC00000008059423CC0000000401DA733C00000
310
00C0FF3F8FC0000000805AB53DC000000040D9E532C00C00000013000000320500003C00000006000000020000000000002000408F40000000805AB53DC000000080D9E532C00000000000408F4000000080DB043FC000000000DBE731C00C000000130000003A0500003C0000000600000002000000000000C0FF3F8FC000
310
000080DB043FC0000000C0DAE731C00000000000408F4000000080DB043FC000000000DBE731C00C00000013000000420500003C0000000600000002000000000000C0FF3F8FC000000080DB043FC0000000C0DAE731C0000000C0FF3F8FC0000000805AB53DC000000040D9E532C00C000000130000004A0500003C000000
310
06000000020000000000002000408F4000000040FE0F40C0000000C0FCC130C00000000000408F4000000080DB043FC000000000DBE731C00C00000013000000520500003C00000006000000020000000000002000408F4000000040FE0F40C0000000C0FCC130C0000000C0FF3F8FC000000040FE0F40C000000080FCC130
310
C00C000000130000005A0500003C0000000600000002000000000000C0FF3F8FC000000080DB043FC0000000C0DAE731C0000000C0FF3F8FC000000040FE0F40C000000080FCC130C00C00000013000000620500003C00000006000000020000000000002000408F4000000040FE0F40C0000000C0FCC130C0000000000040
310
8F4000000080678940C0000000C095B62EC00C000000130000006A0500003C00000006000000020000000000000000408F4000000080678940C0000000C095B62EC0000000C0FF3F8FC000000080678940C00000004095B62EC00C00000013000000720500003C0000000600000002000000000000C0FF3F8FC00000008067
310
8940C00000004095B62EC0000000C0FF3F8FC000000040FE0F40C000000080FCC130C00C000000130000007A0500003C00000006000000020000000000002000408F4000000080E8DF40C0000000C0176C2BC00000000000408F4000000080678940C0000000C095B62EC00C00000013000000820500003C00000006000000
310
020000000000002000408F4000000080E8DF40C0000000C0176C2BC0000000C0FF3F8FC000000080E8DF40C000000040176C2BC00C000000130000008A0500003C0000000600000002000000000000C0FF3F8FC000000080678940C00000004095B62EC0000000C0FF3F8FC000000080E8DF40C000000040176C2BC00C0000
310
0013000000920500003C00000006000000020000000000002000408F4000000080E8DF40C0000000C0176C2BC00000000000408F4000000040A20141C0000000C0EC0F28C00C000000130000009A0500003C0000000600000002000000000000C0FF3F8FC000000040A20141C000000040EC0F28C00000000000408F400000
310
0040A20141C0000000C0EC0F28C00C00000013000000A20500003C0000000600000002000000000000C0FF3F8FC000000040A20141C000000040EC0F28C0000000C0FF3F8FC000000080E8DF40C000000040176C2BC00C00000013000000AA0500003C00000006000000020000000000002000408F40000000E06AEB40C000
310
0000801BC624C00000000000408F4000000040A20141C0000000C0EC0F28C00C00000013000000B20500003C00000006000000020000000000002000408F40000000E06AEB40C0000000801BC624C0000000C0FF3F8FC0000000E06AEB40C0000000001BC624C00C00000013000000BA0500003C0000000600000002000000
310
000000C0FF3F8FC000000040A20141C000000040EC0F28C0000000C0FF3F8FC0000000E06AEB40C0000000001BC624C00C00000013000000C20500003C00000006000000020000000000002000408F40000000E06AEB40C0000000801BC624C00000000000408F40000000E0F59E40C000000000487921C00C000000130000
310
00CA0500003C0000000600000002000000000000C0FF3F8FC0000000E0F59E40C0000000C0477921C00000000000408F40000000E0F59E40C000000000487921C00C00000013000000D20500003C0000000600000002000000000000C0FF3F8FC0000000E0F59E40C0000000C0477921C0000000C0FF3F8FC0000000E06AEB
310
40C0000000001BC624C00C00000013000000DA0500003C00000006000000020000000000002000408F40000000C01D1D40C00000006009AD1CC00000000000408F40000000E0F59E40C000000000487921C00C00000013000000E20500003C00000006000000020000000000002000408F40000000C01D1D40C00000006009
310
AD1CC0000000C0FF3F8FC0000000C01D1D40C00000006009AD1CC00C00000013000000EA0500003C0000000600000002000000000000C0FF3F8FC0000000E0F59E40C0000000C0477921C0000000C0FF3F8FC0000000C01D1D40C00000006009AD1CC00C00000013000000F20500003C000000060000000200000000000020
310
00408F40000000C01D1D40C00000006009AD1CC00000002000408F40000000A0BFE63EC000000060A88617C00C00000013000000FA0500003C00000006000000020000000000002000408F40000000A0BFE63EC000000060A88617C0000000C0FF3F8FC0000000A0BFE63EC000000060A88617C00C00000013000000020600
310
003C0000000600000002000000000000C0FF3F8FC0000000C01D1D40C00000006009AD1CC0000000C0FF3F8FC0000000A0BFE63EC000000060A88617C00C000000130000000A0600003C00000006000000020000000000002000408F40000000A0BFE63EC000000060A88617C00000000000408F4000000000B5793DC00000
310
0060B01314C00C00000013000000120600003C00000006000000020000000000000000408F4000000000B5793DC000000060B01314C0000000C0FF3F8FC000000000B5793DC000000060B01314C00C000000130000001A0600003C0000000600000002000000000000C0FF3F8FC0000000A0BFE63EC000000060A88617C000
310
0000C0FF3F8FC000000000B5793DC000000060B01314C00C00000013000000220600003C00000006000000020000000000002000408F400000000047083CC000000060FB4812C00000000000408F4000000000B5793DC000000060B01314C00C000000130000002A0600003C00000006000000020000000000002000408F40
310
0000000047083CC000000060FB4812C0000000C0FF3F8FC00000000047083CC000000060FB4812C00C00000013000000320600003C0000000600000002000000000000C0FF3F8FC00000000047083CC000000060FB4812C0000000C0FF3F8FC000000000B5793DC000000060B01314C00C000000130000003A0600003C0000
310
0006000000020000000000002000408F400000000047083CC000000060FB4812C00000000000408F400000000000803BC000000060000012C00C00000013000000420600003C00000006000000020000000000000000408F400000000000803BC000000060000012C0000000C0FF3F8FC00000000000803BC0000000600000
310
12C00C000000130000004A0600003C0000000600000002000000000000C0FF3F8FC00000000047083CC000000060FB4812C0000000C0FF3F8FC00000000000803BC000000060000012C00C00000013000000520600003C00000006000000020000000000002000408F400000000000803BC000000080D22AB4BE0000000000
310
408F400000000000803BC000000060000012C00C000000130000005A0600003C0000000600000002000000000000C0FF3F8FC00000000000803BC000000080D22AB4BE0000002000408F400000000000803BC000000080D22AB4BE0C00000013000000620600003C0000000600000002000000000000C0FF3F8FC000000000
310
00803BC000000080D22AB4BE000000C0FF3F8FC00000000000803BC000000060000012C00C000000130000006A0600003C00000006000000020000000000002000408F4000000000000033C0000000E014DEABBE0000002000408F400000000000803BC000000080D22AB4BE0C00000013000000720600003C000000060000
310
00020000000000002000408F4000000000000033C0000000E014DEABBE000000C0FF3F8FC000000000000033C0000000E014DEABBE0C000000130000007A0600003C0000000600000002000000000000C0FF3F8FC00000000000803BC000000080D22AB4BE000000C0FF3F8FC000000000000033C0000000E014DEABBE0C00
310
000013000000820600003C00000006000000020000000000002000408F4000000000000033C0000000E014DEABBE0000000000408F4000000000000033C000000020000028C00C000000130000008A0600003C00000006000000020000000000000000408F4000000000000033C000000020000028C0000000C0FF3F8FC000
310
000000000033C000000020000028C00C00000013000000920600003C0000000600000002000000000000C0FF3F8FC000000000000033C0000000E014DEABBE000000C0FF3F8FC000000000000033C000000020000028C00C000000130000009A0600003C00000006000000020000000000002000408F400000006045F732C0
310
000000A0898428C00000000000408F4000000000000033C000000020000028C00C00000013000000A20600003C00000006000000020000000000002000408F400000006045F732C0000000A0898428C0000000C0FF3F8FC00000006045F732C0000000A0898428C00C00000013000000AA0600003C00000006000000020000
310
00000000C0FF3F8FC00000006045F732C0000000A0898428C0000000C0FF3F8FC000000000000033C000000020000028C00C00000013000000B20600003C00000006000000020000000000002000408F400000006045F732C0000000A0898428C00000000000408F40000000C0B4DD32C000000020FAFF28C00C0000001300
310
0000BA0600003C0000000600000002000000000000C0FF3F8FC0000000C0B4DD32C000000020FAFF28C00000000000408F40000000C0B4DD32C000000020FAFF28C00C00000013000000C20600003C0000000600000002000000000000C0FF3F8FC00000006045F732C0000000A0898428C0000000C0FF3F8FC0000000C0B4
310
DD32C000000020FAFF28C00C00000013000000CA0600003C00000006000000020000000000002000408F400000000005B532C0000000200A6A29C00000000000408F40000000C0B4DD32C000000020FAFF28C00C00000013000000D20600003C00000006000000020000000000002000408F400000000005B532C000000020
310
0A6A29C0000000C0FF3F8FC00000000005B532C0000000200A6A29C00C00000013000000DA0600003C0000000600000002000000000000C0FF3F8FC0000000C0B4DD32C000000020FAFF28C0000000C0FF3F8FC00000000005B532C0000000200A6A29C00C00000013000000E20600003C0000000600000002000000000000
310
2000408F400000000005B532C0000000200A6A29C00000000000408F40000000E0FC7F32C0000000206ABB29C00C00000013000000EA0600003C00000006000000020000000000000000408F40000000E0FC7F32C0000000206ABB29C0000000C0FF3F8FC0000000E0FC7F32C0000000206ABB29C00C00000013000000F206
310
00003C0000000600000002000000000000C0FF3F8FC00000000005B532C0000000200A6A29C0000000C0FF3F8FC0000000E0FC7F32C0000000206ABB29C00C00000013000000FA0600003C00000006000000020000000000002000408F40000000C0444232C0000000208BEE29C00000000000408F40000000E0FC7F32C000
310
0000206ABB29C00C00000013000000020700003C00000006000000020000000000002000408F40000000C0444232C0000000208BEE29C0000000C0FF3F8FC0000000C0444232C0000000208BEE29C00C000000130000000A0700003C0000000600000002000000000000C0FF3F8FC0000000C0444232C0000000208BEE29C0
310
000000C0FF3F8FC0000000E0FC7F32C0000000206ABB29C00C00000013000000120700003C00000006000000020000000000002000408F40000000C0444232C0000000208BEE29C00000000000408F4000000000000032C00000002000002AC00C000000130000001A0700003C00000006000000020000000000000000408F
310
4000000000000032C00000002000002AC0000000C0FF3F8FC000000000000032C00000002000002AC00C00000013000000220700003C0000000600000002000000000000C0FF3F8FC0000000C0444232C0000000208BEE29C0000000C0FF3F8FC000000000000032C00000002000002AC00C000000130000002A0700003C00
310
000006000000020000000000002000408F40000000A03611A33E0000000000002AC00000000000408F4000000000000032C00000002000002AC00C00000013000000320700003C00000006000000020000000000002000408F40000000A03611A33E0000000000002AC0000000C0FF3F8FC0000000A03611A33E0000000000
310
002AC00C000000130000003A0700003C0000000600000002000000000000C0FF3F8FC0000000A03611A33E0000000000002AC0000000C0FF3F8FC000000000000032C00000002000002AC00C00000013000000420700003C00000006000000020000000000002000408F40000000A03611A33E0000000000002AC000000000
310
00408F40000000C0A334A83E000000C0DA8030C00C000000130000004A0700003C00000006000000020000000000000000408F40000000C0A334A83E000000C0DA8030C0000000C0FF3F8FC0000000C0A334A83E000000C0DA8030C00C00000013000000520700003C0000000600000002000000000000C0FF3F8FC0000000
310
A03611A33E0000000000002AC0000000C0FF3F8FC0000000C0A334A83E000000C0DA8030C00C000000130000005A0700003C00000006000000020000000000002000408F40000000E0E49ED8BF0000008013DD30C00000000000408F40000000C0A334A83E000000C0DA8030C00C00000013000000620700003C0000000600
310
0000020000000000002000408F40000000E0E49ED8BF0000008013DD30C0000000C0FF3F8FC0000000E0E49ED8BF0000008013DD30C00C000000130000006A0700003C0000000600000002000000000000C0FF3F8FC0000000E0E49ED8BF0000008013DD30C0000000C0FF3F8FC0000000C0A334A83E000000C0DA8030C00C
310
00000013000000720700003C00000006000000020000000000002000408F40000000E0E49ED8BF0000008013DD30C00000002000408F4000000060A0DAE6BF00000000E17A31C00C000000130000007A0700003C00000006000000020000000000002000408F4000000060A0DAE6BF00000000E17A31C0000000C0FF3F8FC0
310
00000060A0DAE6BF00000000E17A31C00C00000013000000820700003C0000000600000002000000000000C0FF3F8FC0000000E0E49ED8BF0000008013DD30C0000000C0FF3F8FC000000060A0DAE6BF00000000E17A31C00C000000130000008A0700003C00000006000000020000000000002000408F4000000060A0DAE6
310
BF00000000E17A31C00000000000408F4000000060DE0BE9BF00000020F32C32C00C00000013000000920700003C0000000600000002000000000000C0FF3F8FC000000060DE0BE9BF00000020F32C32C00000000000408F4000000060DE0BE9BF00000020F32C32C00C000000130000009A0700003C000000060000000200
310
0000000000C0FF3F8FC000000060DE0BE9BF00000020F32C32C0000000C0FF3F8FC000000060A0DAE6BF00000000E17A31C00C00000013000000A20700003C00000006000000020000000000002000408F4000000040B68DE2BF000000402DD832C00000000000408F4000000060DE0BE9BF00000020F32C32C00C00000013
310
000000AA0700003C00000006000000020000000000002000408F4000000040B68DE2BF000000402DD832C0000000C0FF3F8FC000000040B68DE2BF000000402DD832C00C00000013000000B20700003C0000000600000002000000000000C0FF3F8FC000000060DE0BE9BF00000020F32C32C0000000C0FF3F8FC000000040
310
B68DE2BF000000402DD832C00C00000013000000BA0700003C00000006000000020000000000002000408F4000000040B68DE2BF000000402DD832C00000000000408F4000000080F474D1BF00000040D64533C00C00000013000000C20700003C0000000600000002000000000000C0FF3F8FC000000080F474D1BF000000
310
40D64533C00000000000408F4000000080F474D1BF00000040D64533C00C00000013000000CA0700003C0000000600000002000000000000C0FF3F8FC000000040B68DE2BF000000402DD832C0000000C0FF3F8FC000000080F474D1BF00000040D64533C00C00000013000000D20700003C00000006000000020000000000
310
002000408F4000000080B7B3B1BE00000040257F33C00000000000408F4000000080F474D1BF00000040D64533C00C00000013000000DA0700003C00000006000000020000000000002000408F4000000080B7B3B1BE00000040257F33C0000000C0FF3F8FC000000080B7B3B1BE00000040257F33C00C00000013000000E2
310
0700003C0000000600000002000000000000C0FF3F8FC000000080F474D1BF00000040D64533C0000000C0FF3F8FC000000080B7B3B1BE00000040257F33C00C00000013000000EA0700003C00000006000000020000000000002000408F4000000080B7B3B1BE00000040257F33C00000000000408F4000000060A2F6B03E
310
00000080982137C00C00000013000000F20700003C0000000600000002000000000000C0FF3F8FC000000060A2F6B03E00000080982137C00000000000408F4000000060A2F6B03E00000080982137C00C00000013000000FA0700003C0000000600000002000000000000C0FF3F8FC000000060A2F6B03E00000080982137
310
C0000000C0FF3F8FC000000080B7B3B1BE00000040257F33C00C00000013000000020800003C00000006000000020000000000002000408F40000000203F5926C000000020DE1B38C00000000000408F4000000060A2F6B03E00000080982137C00C000000130000000A0800003C0000000600000002000000000000200040
310
8F40000000203F5926C000000020DE1B38C0000000C0FF3F8FC0000000203F5926C000000020DE1B38C00C00000013000000120800003C0000000600000002000000000000C0FF3F8FC000000060A2F6B03E00000080982137C0000000C0FF3F8FC0000000203F5926C000000020DE1B38C00C000000130000001A0800003C
310
00000006000000020000000000002000408F40000000203F5926C000000020DE1B38C00000000000408F40000000405A6C27C000000020C83D38C00C00000013000000220800003C00000006000000020000000000000000408F40000000405A6C27C000000020C83D38C0000000C0FF3F8FC0000000405A6C27C000000020
310
C83D38C00C000000130000002A0800003C0000000600000002000000000000C0FF3F8FC0000000203F5926C000000020DE1B38C0000000C0FF3F8FC0000000405A6C27C000000020C83D38C00C00000013000000320800003C00000006000000020000000000002000408F4000000060B8AC28C0000000002FA038C0000000
310
0000408F40000000405A6C27C000000020C83D38C00C000000130000003A0800003C00000006000000020000000000002000408F4000000060B8AC28C0000000002FA038C0000000C0FF3F8FC000000060B8AC28C0000000002FA038C00C00000013000000420800003C0000000600000002000000000000C0FF3F8FC00000
310
00405A6C27C000000020C83D38C0000000C0FF3F8FC000000060B8AC28C0000000002FA038C00C000000130000004A0800003C00000006000000020000000000002000408F4000000060B8AC28C0000000002FA038C00000000000408F4000000000FA8F29C000000060F33539C00C00000013000000520800003C00000006
310
00000002000000000000C0FF3F8FC000000000FA8F29C000000060F33539C00000000000408F4000000000FA8F29C000000060F33539C00C000000130000005A0800003C0000000600000002000000000000C0FF3F8FC000000000FA8F29C000000060F33539C0000000C0FF3F8FC000000060B8AC28C0000000002FA038C0
310
0C00000013000000620800003C00000006000000020000000000002000408F400000000038F729C000000000B8EA39C00000000000408F4000000000FA8F29C000000060F33539C00C000000130000006A0800003C00000006000000020000000000002000408F400000000038F729C000000000B8EA39C0000000C0FF3F8F
310
C00000000038F729C000000000B8EA39C00C00000013000000720800003C0000000600000002000000000000C0FF3F8FC00000000038F729C000000000B8EA39C0000000C0FF3F8FC000000000FA8F29C000000060F33539C00C000000130000007A0800003C00000006000000020000000000002000408F400000000038F7
310
29C000000000B8EA39C00000000000408F4000000020D9092AC0000000C093DE3CC00C00000013000000820800003C0000000600000002000000000000C0FF3F8FC000000020D9092AC0000000C093DE3CC00000000000408F4000000020D9092AC0000000C093DE3CC00C000000130000008A0800003C0000000600000002
310
000000000000C0FF3F8FC000000020D9092AC0000000C093DE3CC0000000C0FF3F8FC00000000038F729C000000000B8EA39C00C00000013000000920800003C00000006000000020000000000002000408F40000000A0607F2AC000000080FC6A3EC00000000000408F4000000020D9092AC0000000C093DE3CC00C000000
310
130000009A0800003C00000006000000020000000000002000408F40000000A0607F2AC000000080FC6A3EC0000000C0FF3F8FC0000000A0607F2AC000000080FC6A3EC00C00000013000000A20800003C0000000600000002000000000000C0FF3F8FC000000020D9092AC0000000C093DE3CC0000000C0FF3F8FC0000000
310
A0607F2AC000000080FC6A3EC00C00000013000000AA0800003C00000006000000020000000000002000408F40000000A0607F2AC000000080FC6A3EC00000000000408F40000000E03E8D2BC0000000405AE43FC00C00000013000000B20800003C00000006000000020000000000000000408F40000000E03E8D2BC00000
310
00405AE43FC0000000C0FF3F8FC0000000E03E8D2BC0000000405AE43FC00C00000013000000BA0800003C0000000600000002000000000000C0FF3F8FC0000000A0607F2AC000000080FC6A3EC0000000C0FF3F8FC0000000E03E8D2BC0000000405AE43FC00C00000013000000C20800003C000000060000000200000000
310
00002000408F40000000401A292DC000000080169E40C00000000000408F40000000E03E8D2BC0000000405AE43FC00C00000013000000CA0800003C00000006000000020000000000002000408F40000000401A292DC000000080169E40C0000000C0FF3F8FC0000000401A292DC000000080169E40C00C00000013000000
310
D20800003C0000000600000002000000000000C0FF3F8FC0000000401A292DC000000080169E40C0000000C0FF3F8FC0000000E03E8D2BC0000000405AE43FC00C00000013000000DA0800003C00000006000000020000000000002000408F40000000401A292DC000000080169E40C00000000000408F40000000A020432F
310
C0000000809F3241C00C00000013000000E20800003C00000006000000020000000000000000408F40000000A020432FC0000000809F3241C0000000C0FF3F8FC0000000A020432FC0000000809F3241C00C00000013000000EA0800003C0000000600000002000000000000C0FF3F8FC0000000401A292DC000000080169E
310
40C0000000C0FF3F8FC0000000A020432FC0000000809F3241C00C00000013000000F20800003C00000006000000020000000000002000408F400000002052E330C00000008013AA41C00000000000408F40000000A020432FC0000000809F3241C00C00000013000000FA0800003C00000006000000020000000000002000
310
408F400000002052E330C00000008013AA41C0000000C0FF3F8FC00000002052E330C00000008013AA41C00C00000013000000020900003C0000000600000002000000000000C0FF3F8FC0000000A020432FC0000000809F3241C0000000C0FF3F8FC00000002052E330C00000008013AA41C00C000000130000000A090000
310
3C00000006000000020000000000002000408F400000002052E330C00000008013AA41C00000000000408F4000000020562E32C000000000BAFE41C00C00000013000000120900003C00000006000000020000000000000000408F4000000020562E32C000000000BAFE41C0000000C0FF3F8FC000000020562E32C0000000
310
00BAFE41C00C000000130000001A0900003C0000000600000002000000000000C0FF3F8FC000000020562E32C000000000BAFE41C0000000C0FF3F8FC00000002052E330C00000008013AA41C00C00000013000000220900003C00000006000000020000000000002000408F4000000020FD1633C000000040834E42C00000
310
000000408F4000000020562E32C000000000BAFE41C00C000000130000002A0900003C00000006000000020000000000002000408F4000000020FD1633C000000040834E42C0000000C0FF3F8FC000000020FD1633C000000040834E42C00C00000013000000320900003C0000000600000002000000000000C0FF3F8FC000
310
000020FD1633C000000040834E42C0000000C0FF3F8FC000000020562E32C000000000BAFE41C00C000000130000003A0900003C00000006000000020000000000002000408F4000000020FD1633C000000040834E42C00000002000408F40000000401CCB33C0000000C00EBB42C00C00000013000000420900003C000000
310
06000000020000000000002000408F40000000401CCB33C0000000C00EBB42C0000000C0FF3F8FC0000000401CCB33C0000000C00EBB42C00C000000130000004A0900003C0000000600000002000000000000C0FF3F8FC000000020FD1633C000000040834E42C0000000C0FF3F8FC0000000401CCB33C0000000C00EBB42
310
C00C00000013000000520900003C00000006000000020000000000002000408F40000000401CCB33C0000000C00EBB42C00000000000408F40000000A0FD3C34C0000000401B3C43C00C000000130000005A0900003C00000006000000020000000000000000408F40000000A0FD3C34C0000000401B3C43C0000000C0FF3F
310
8FC0000000A0FD3C34C0000000401B3C43C00C00000013000000620900003C0000000600000002000000000000C0FF3F8FC0000000401CCB33C0000000C00EBB42C0000000C0FF3F8FC0000000A0FD3C34C0000000401B3C43C00C000000130000006A0900003C00000006000000020000000000002000408F4000000000F2
310
6334C000000080CDC743C00000000000408F40000000A0FD3C34C0000000401B3C43C00C00000013000000720900003C00000006000000020000000000002000408F4000000000F26334C000000080CDC743C0000000C0FF3F8FC000000000F26334C000000080CDC743C00C000000130000007A0900003C00000006000000
310
02000000000000C0FF3F8FC000000000F26334C000000080CDC743C0000000C0FF3F8FC0000000A0FD3C34C0000000401B3C43C00C00000013000000820900003C00000006000000020000000000002000408F4000000000F26334C000000080CDC743C00000000000408F40000000A0FD3C34C0000000C07F5344C00C0000
310
00130000008A0900003C0000000600000002000000000000C0FF3F8FC0000000A0FD3C34C0000000C07F5344C00000000000408F40000000A0FD3C34C0000000C07F5344C00C00000013000000920900003C0000000600000002000000000000C0FF3F8FC000000000F26334C000000080CDC743C0000000C0FF3F8FC00000
310
00A0FD3C34C0000000C07F5344C00C000000130000009A0900003C00000006000000020000000000002000408F40000000401CCB33C0000000808CD444C00000000000408F40000000A0FD3C34C0000000C07F5344C00C00000013000000A20900003C00000006000000020000000000002000408F40000000401CCB33C000
310
0000808CD444C0000000C0FF3F8FC0000000401CCB33C0000000808CD444C00C00000013000000AA0900003C0000000600000002000000000000C0FF3F8FC0000000A0FD3C34C0000000C07F5344C0000000C0FF3F8FC0000000401CCB33C0000000808CD444C00C00000013000000B20900003C0000000600000002000000
310
0000002000408F40000000401CCB33C0000000808CD444C00000000000408F4000000020FD1633C0000000C0174145C00C00000013000000BA0900003C00000006000000020000000000000000408F4000000020FD1633C0000000C0174145C0000000C0FF3F8FC000000020FD1633C0000000C0174145C00C000000130000
310
00C20900003C0000000600000002000000000000C0FF3F8FC0000000401CCB33C0000000808CD444C0000000C0FF3F8FC000000020FD1633C0000000C0174145C00C00000013000000CA0900003C00000006000000020000000000002000408F4000000020562E32C000000020E19045C00000000000408F4000000020FD16
310
33C0000000C0174145C00C00000013000000D20900003C00000006000000020000000000002000408F4000000020562E32C000000020E19045C0000000C0FF3F8FC000000020562E32C000000020E19045C00C00000013000000DA0900003C0000000600000002000000000000C0FF3F8FC000000020562E32C000000020E1
310
9045C0000000C0FF3F8FC000000020FD1633C0000000C0174145C00C00000013000000E20900003C00000006000000020000000000002000408F4000000020562E32C000000020E19045C00000000000408F4000000040A4E830C000000040E1E345C00C00000013000000EA0900003C000000060000000200000000000000
310
00408F4000000040A4E830C000000040E1E345C0000000C0FF3F8FC000000040A4E830C000000040E1E345C00C00000013000000F20900003C0000000600000002000000000000C0FF3F8FC000000020562E32C000000020E19045C0000000C0FF3F8FC000000040A4E830C000000040E1E345C00C00000013000000FA0900
310
003C00000006000000020000000000002000408F40000000C0AA582FC000000080105846C00000000000408F4000000040A4E830C000000040E1E345C00C00000013000000020A00003C00000006000000020000000000002000408F40000000C0AA582FC000000080105846C0000000C0FF3F8FC0000000C0AA582FC00000
310
0080105846C00C000000130000000A0A00003C0000000600000002000000000000C0FF3F8FC000000040A4E830C000000040E1E345C0000000C0FF3F8FC0000000C0AA582FC000000080105846C00C00000013000000120A00003C00000006000000020000000000002000408F40000000C0AA582FC000000080105846C000
310
00000000408F40000000C078442DC0000000004EE846C00C000000130000001A0A00003C00000006000000020000000000000000408F40000000C078442DC0000000004EE846C0000000C0FF3F8FC0000000C078442DC0000000004EE846C00C00000013000000220A00003C0000000600000002000000000000C0FF3F8FC0
310
000000C0AA582FC000000080105846C0000000C0FF3F8FC0000000C078442DC0000000004EE846C00C000000130000002A0A00003C00000006000000020000000000002000408F400000004049B42BC0000000809A6347C00000000000408F40000000C078442DC0000000004EE846C00C00000013000000320A00003C0000
310
0006000000020000000000002000408F400000004049B42BC0000000809A6347C0000000C0FF3F8FC00000004049B42BC0000000809A6347C00C000000130000003A0A00003C0000000600000002000000000000C0FF3F8FC0000000C078442DC0000000004EE846C0000000C0FF3F8FC00000004049B42BC0000000809A63
310
47C00C00000013000000420A00003C00000006000000020000000000002000408F400000004049B42BC0000000809A6347C00000000000408F4000000020ABEF29C000000080CDBF47C00C000000130000004A0A00003C00000006000000020000000000000000408F4000000020ABEF29C000000080CDBF47C0000000C0FF
310
3F8FC000000020ABEF29C000000080CDBF47C00C00000013000000520A00003C0000000600000002000000000000C0FF3F8FC00000004049B42BC0000000809A6347C0000000C0FF3F8FC000000020ABEF29C000000080CDBF47C00C000000130000005A0A00003C00000006000000020000000000002000408F4000000040
310
456D28C000000000B1F347C00000000000408F4000000020ABEF29C000000080CDBF47C00C00000013000000620A00003C00000006000000020000000000002000408F4000000040456D28C000000000B1F347C0000000C0FF3F8FC000000040456D28C000000000B1F347C00C000000130000006A0A00003C000000060000
310
0002000000000000C0FF3F8FC000000040456D28C000000000B1F347C0000000C0FF3F8FC000000020ABEF29C000000080CDBF47C00C00000013000000720A00003C00000006000000020000000000002000408F4000000040456D28C000000000B1F347C00000000000408F4000000080C06B25C000000040675048C00C00
310
0000130000007A0A00003C0000000600000002000000000000C0FF3F8FC000000080C06B25C000000040675048C00000000000408F4000000080C06B25C000000040675048C00C00000013000000820A00003C0000000600000002000000000000C0FF3F8FC000000080C06B25C000000040675048C0000000C0FF3F8FC000
310
000040456D28C000000000B1F347C00C000000130000008A0A00003C00000006000000020000000000002000408F4000000080A9A221C0000000C0A6E548C00000000000408F4000000080C06B25C000000040675048C00C00000013000000920A00003C00000006000000020000000000002000408F4000000080A9A221C0
310
000000C0A6E548C0000000C0FF3F8FC000000080A9A221C0000000C0A6E548C00C000000130000009A0A00003C0000000600000002000000000000C0FF3F8FC000000080C06B25C000000040675048C0000000C0FF3F8FC000000080A9A221C0000000C0A6E548C00C00000013000000A20A00003C00000006000000020000
310
000000002000408F4000000080A9A221C0000000C0A6E548C00000000000408F40000000E02F551CC000000040A39749C00C00000013000000AA0A00003C0000000600000002000000000000C0FF3F8FC0000000E02F551CC000000040A39749C00000000000408F40000000E02F551CC000000040A39749C00C0000001300
310
0000B20A00003C0000000600000002000000000000C0FF3F8FC000000080A9A221C0000000C0A6E548C0000000C0FF3F8FC0000000E02F551CC000000040A39749C00C00000013000000BA0A00003C00000006000000020000000000002000408F4000000020152216C000000040AA634AC00000000000408F40000000E02F
310
551CC000000040A39749C00C00000013000000C20A00003C00000006000000020000000000002000408F4000000020152216C000000040AA634AC0000000C0FF3F8FC000000020152216C000000040AA634AC00C00000013000000CA0A00003C0000000600000002000000000000C0FF3F8FC0000000E02F551CC000000040
310
A39749C0000000C0FF3F8FC000000020152216C000000040AA634AC00C00000013000000D20A00003C00000006000000020000000000002000408F4000000020152216C000000040AA634AC00000000000408F40000000206AC410C0000000809A464BC00C00000013000000DA0A00003C0000000600000002000000000000
310
0000408F40000000206AC410C0000000809A464BC0000000C0FF3F8FC0000000206AC410C0000000809A464BC00C00000013000000E20A00003C0000000600000002000000000000C0FF3F8FC000000020152216C000000040AA634AC0000000C0FF3F8FC0000000206AC410C0000000809A464BC00C00000013000000EA0A
310
00003C00000006000000020000000000002000408F40000000C07EA208C000000020F73C4CC00000000000408F40000000206AC410C0000000809A464BC00C00000013000000F20A00003C00000006000000020000000000002000408F40000000C07EA208C000000020F73C4CC0000000C0FF3F8FC0000000407FA208C000
310
000020F73C4CC00C00000013000000FA0A00003C0000000600000002000000000000C0FF3F8FC0000000206AC410C0000000809A464BC0000000C0FF3F8FC0000000407FA208C000000020F73C4CC00C00000013000000020B00003C00000006000000020000000000002000408F40000000C07EA208C000000020F73C4CC0
310
0000000000408F40000000A0A8B301C0000000C001434DC00C000000130000000A0B00003C0000000600000002000000000000C0FF3F8FC0000000A0A8B301C0000000C001434DC00000000000408F40000000A0A8B301C0000000C001434DC00C00000013000000120B00003C0000000600000002000000000000C0FF3F8F
310
C0000000A0A8B301C0000000C001434DC0000000C0FF3F8FC0000000407FA208C000000020F73C4CC00C000000130000001A0B00003C00000006000000020000000000002000408F4000000040AECAF8BF000000C080604EC00000000000408F40000000A0A8B301C0000000C001434DC00C00000013000000220B00003C00
310
000006000000020000000000002000408F4000000040AECAF8BF000000C080604EC0000000C0FF3F8FC000000040AECAF8BF000000C080604EC00C000000130000002A0B00003C0000000600000002000000000000C0FF3F8FC000000040AECAF8BF000000C080604EC0000000C0FF3F8FC0000000A0A8B301C0000000C001
310
434DC00C00000013000000320B00003C00000006000000020000000000002000408F4000000040AECAF8BF000000C080604EC00000000000408F400000004042BDE7BF000000004BA14FC00C000000130000003A0B00003C00000006000000020000000000000000408F400000004042BDE7BF000000004BA14FC0000000C0
310
FF3F8FC00000004040BDE7BF000000004BA14FC00C00000013000000420B00003C0000000600000002000000000000C0FF3F8FC000000040AECAF8BF000000C080604EC0000000C0FF3F8FC00000004040BDE7BF000000004BA14FC00C000000130000004A0B00003C00000006000000020000000000002000408F40000000
310
60F610D4BE000000C0D54550C00000000000408F400000004042BDE7BF000000004BA14FC00C00000013000000520B00003C0000000600000002000000000000C0FF3F8FC000000080D943B0BE000000C0D54550C00000002000408F4000000060F610D4BE000000C0D54550C00C000000130000005A0B00003C0000000600
310
000002000000000000C0FF3F8FC000000080D943B0BE000000C0D54550C0000000C0FF3F8FC00000004040BDE7BF000000004BA14FC00C00000013000000620B00003C00000006000000020000000000002000408F4000000060F610D4BE000000C0D54550C00000000000408F40000000402822CA3E0000006055D151C00C
310
000000130000006A0B00003C0000000600000002000000000000C0FF3F8FC0000000402822CA3E0000006055D151C00000000000408F40000000402822CA3E0000006055D151C00C00000013000000720B00003C0000000600000002000000000000C0FF3F8FC000000080D943B0BE000000C0D54550C0000000C0FF3F8FC0
310
000000402822CA3E0000006055D151C00C000000130000007A0B00003C00000006000000020000000000002000408F40000000E05ABADEBF000000800DE051C00000000000408F40000000402822CA3E0000006055D151C00C00000013000000820B00003C00000006000000020000000000002000408F40000000E05ABADE
310
BF000000800DE051C0000000C0FF3F8FC0000000E05ABADEBF000000800DE051C00C000000130000008A0B00003C0000000600000002000000000000C0FF3F8FC0000000402822CA3E0000006055D151C0000000C0FF3F8FC0000000E05ABADEBF000000800DE051C00C00000013000000920B00003C000000060000000200
310
00000000002000408F40000000E05ABADEBF000000800DE051C00000000000408F4000000060EB76EFBF000000C0BDFF51C00C000000130000009A0B00003C00000006000000020000000000000000408F4000000060EB76EFBF000000C0BDFF51C0000000C0FF3F8FC000000060EB76EFBF000000C0BDFF51C00C00000013
310
000000A20B00003C0000000600000002000000000000C0FF3F8FC0000000E05ABADEBF000000800DE051C0000000C0FF3F8FC000000060EB76EFBF000000C0BDFF51C00C00000013000000AA0B00003C00000006000000020000000000002000408F40000000A0A418F4BF00000040692952C00000000000408F4000000060
310
EB76EFBF000000C0BDFF51C00C00000013000000B20B00003C00000006000000020000000000002000408F40000000A0A418F4BF00000040692952C0000000C0FF3F8FC0000000A0A418F4BF00000040692952C00C00000013000000BA0B00003C0000000600000002000000000000C0FF3F8FC0000000A0A418F4BF000000
310
40692952C0000000C0FF3F8FC000000060EB76EFBF000000C0BDFF51C00C00000013000000C20B00003C00000006000000020000000000002000408F40000000A0A418F4BF00000040692952C00000000000408F40000000A0A518F4BF000000C0965652C00C00000013000000CA0B00003C00000006000000020000000000
310
000000408F40000000A0A518F4BF000000C0965652C0000000C0FF3F8FC0000000A0A418F4BF000000C0965652C00C00000013000000D20B00003C0000000600000002000000000000C0FF3F8FC0000000A0A418F4BF00000040692952C0000000C0FF3F8FC0000000A0A418F4BF000000C0965652C00C00000013000000DA
310
0B00003C00000006000000020000000000002000408F4000000040ED76EFBF00000040428052C00000000000408F40000000A0A518F4BF000000C0965652C00C00000013000000E20B00003C00000006000000020000000000002000408F4000000040ED76EFBF00000040428052C0000000C0FF3F8FC000000040ED76EFBF
310
00000040428052C00C00000013000000EA0B00003C0000000600000002000000000000C0FF3F8FC000000040ED76EFBF00000040428052C0000000C0FF3F8FC0000000A0A418F4BF000000C0965652C00C00000013000000F20B00003C00000006000000020000000000002000408F4000000040ED76EFBF00000040428052
310
C00000000000408F40000000605EBADEBF00000080F29F52C00C00000013000000FA0B00003C00000006000000020000000000000000408F40000000605EBADEBF00000080F29F52C0000000C0FF3F8FC0000000605ABADEBF00000080F29F52C00C00000013000000020C00003C0000000600000002000000000000C0FF3F
310
8FC000000040ED76EFBF00000040428052C0000000C0FF3F8FC0000000605ABADEBF00000080F29F52C00C000000130000000A0C00003C00000006000000020000000000002000408F40000000E0C966CB3E000000A0AAAE52C00000000000408F40000000605EBADEBF00000080F29F52C00C00000013000000120C00003C
310
00000006000000020000000000002000408F40000000E0C966CB3E000000A0AAAE52C0000000C0FF3F8FC0000000E0C966CB3E000000A0AAAE52C00C000000130000001A0C00003C0000000600000002000000000000C0FF3F8FC0000000605ABADEBF00000080F29F52C0000000C0FF3F8FC0000000E0C966CB3E000000A0
310
AAAE52C00C00000013000000220C00003C00000006000000020000000000002000408F40000000E0C966CB3E000000A0AAAE52C00000000000408F40000000002B6FCE3E0000000000C054C00C000000130000002A0C00003C0000000600000002000000000000C0FF3F8FC0000000002B6FCE3E0000000000C054C0000000
310
C0FF3F8FC0000000E0C966CB3E000000A0AAAE52C00C00000013000000320C00003C0000000600000002000000000000C0FF3F8FC00000000000803BC000000060000012C0000000C0FF3F8FC000000000000033C000000020000028C00C000000130000003A0C00003C0000000600000002000000000000C0FF3F8FC00000
310
00A0607F2AC000000080FC6A3EC0000000C0FF3F8FC0000000208FE835C0000000009F893CC00C00000013000000420C00003C0000000600000002000000000000C0FF3F8FC0000000E0FFFF34C00000000000803CC0000000C0FF3F8FC000000020D9092AC0000000C093DE3CC00C000000130000004A0C00003C00000006
310
00000002000000000000C0FF3F8FC0000000E0E49ED8BF0000008013DD30C0000000C0FF3F8FC000000000000032C00000002000002AC00C00000013000000520C00003C0000000600000002000000000000C0FF3F8FC000000060A0DAE6BF00000000E17A31C0000000C0FF3F8FC000000000000038C000000060008034C0
310
0C000000130000005A0C00003C0000000600000002000000000000C0FF3F8FC000000000000032C00000002000002AC0000000C0FF3F8FC000000000000038C000000060008034C00C00000013000000620C00003C0000000600000002000000000000C0FF3F8FC00000000047083CC000000060FB4812C0000000C0FF3F8F
310
C00000006045F732C0000000A0898428C00C000000130000006A0C00003C0000000600000002000000000000C0FF3F8FC0000000807EF038C000000020FA7334C0000000C0FF3F8FC0000000C0444232C0000000208BEE29C00C00000013000000720C00003C0000000600000002000000000000C0FF3F8FC0000000C04442
310
32C0000000208BEE29C0000000C0FF3F8FC0000000400FA63AC0000000C0EF2C34C00C000000130000007A0C00003C0000000600000002000000000000C0FF3F8FC00000008059423CC0000000401DA733C0000000C0FF3F8FC0000000C0444232C0000000208BEE29C00C00000013000000820C00003C0000000600000002
310
000000000000C0FF3F8FC00000006045F732C0000000A0898428C0000000C0FF3F8FC000000000B5793DC000000060B01314C00C000000130000008A0C00003C0000000600000002000000000000C0FF3F8FC0000000A0BFE63EC000000060A88617C0000000C0FF3F8FC00000006045F732C0000000A0898428C00C000000
310
13000000920C00003C0000000600000002000000000000C0FF3F8FC0000000C01D1D40C00000006009AD1CC0000000C0FF3F8FC0000000C0B4DD32C000000020FAFF28C00C000000130000009A0C00003C0000000600000002000000000000C0FF3F8FC0000000C0B4DD32C000000020FAFF28C0000000C0FF3F8FC0000000
310
E06AEB40C0000000001BC624C00C00000013000000A20C00003C0000000600000002000000000000C0FF3F8FC0000000E0F59E40C0000000C0477921C0000000C0FF3F8FC0000000C0B4DD32C000000020FAFF28C00C00000013000000AA0C00003C0000000600000002000000000000C0FF3F8FC000000040A20141C00000
310
0040EC0F28C0000000C0FF3F8FC00000000005B532C0000000200A6A29C00C00000013000000B20C00003C0000000600000002000000000000C0FF3F8FC000000080E8DF40C000000040176C2BC0000000C0FF3F8FC00000000005B532C0000000200A6A29C00C00000013000000BA0C00003C000000060000000200000000
310
0000C0FF3F8FC000000080678940C00000004095B62EC0000000C0FF3F8FC00000000005B532C0000000200A6A29C00C00000013000000C20C00003C0000000600000002000000000000C0FF3F8FC0000000E0FC7F32C0000000206ABB29C0000000C0FF3F8FC000000040FE0F40C000000080FCC130C00C00000013000000
310
CA0C00003C0000000600000002000000000000C0FF3F8FC0000000805AB53DC000000040D9E532C0000000C0FF3F8FC0000000E0FC7F32C0000000206ABB29C00C00000013000000D20C00003C0000000600000002000000000000C0FF3F8FC000000080DB043FC0000000C0DAE731C0000000C0FF3F8FC0000000E0FC7F32
310
C0000000206ABB29C00C00000013000000DA0C00003C0000000600000002000000000000C0FF3F8FC000000080F474D1BF00000040D64533C0000000C0FF3F8FC0000000203F5926C000000020DE1B38C00C00000013000000E20C00003C0000000600000002000000000000C0FF3F8FC000000060DE0BE9BF00000020F32C
310
32C0000000C0FF3F8FC0000000E0FFFF37C000000060008038C00C00000013000000EA0C00003C0000000600000002000000000000C0FF3F8FC000000040B68DE2BF000000402DD832C0000000C0FF3F8FC0000000E0FFFF34C000000000008038C00C00000013000000F20C00003C0000000600000002000000000000C0FF
310
3F8FC0000000E0FFFF34C000000000008038C0000000C0FF3F8FC0000000405A6C27C000000020C83D38C00C00000013000000FA0C00003C0000000600000002000000000000C0FF3F8FC0000000E0FFFF34C000000000008038C0000000C0FF3F8FC000000060B8AC28C0000000002FA038C00C00000013000000020D0000
310
3C0000000600000002000000000000C0FF3F8FC000000000FA8F29C000000060F33539C0000000C0FF3F8FC0000000E0FFFF34C000000000008038C00C000000130000000A0D00003C0000000600000002000000000000C0FF3F8FC00000000038F729C000000000B8EA39C0000000C0FF3F8FC0000000E0FFFF34C0000000
310
00008038C00C00000013000000120D00003C0000000600000002000000000000C0FF3F8FC0000000E06A4137C0000000A04BBE3CC0000000C0FF3F8FC0000000E03E8D2BC0000000405AE43FC00C000000130000001A0D00003C0000000600000002000000000000C0FF3F8FC0000000401A292DC000000080169E40C00000
310
00C0FF3F8FC000000020CAFE38C000000000E5423DC00C00000013000000220D00003C0000000600000002000000000000C0FF3F8FC0000000E040A03AC000000060FC0E3EC0000000C0FF3F8FC0000000A020432FC0000000809F3241C00C000000130000002A0D00003C0000000600000002000000000000C0FF3F8FC000
310
0000606D1A3CC0000000E0FF1C3FC0000000C0FF3F8FC00000002052E330C00000008013AA41C00C00000013000000320D00003C0000000600000002000000000000C0FF3F8FC00000002000633DC000000040C93240C0000000C0FF3F8FC000000020562E32C000000000BAFE41C00C000000130000003A0D00003C000000
310
0600000002000000000000C0FF3F8FC000000020FD1633C000000040834E42C0000000C0FF3F8FC0000000E003713EC000000080DFEF40C00C00000013000000420D00003C0000000600000002000000000000C0FF3F8FC0000000601B3D3FC0000000C09AC041C0000000C0FF3F8FC0000000401CCB33C0000000C00EBB42
310
C00C000000130000004A0D00003C0000000600000002000000000000C0FF3F8FC0000000A0B4C13FC0000000804A9F42C0000000C0FF3F8FC0000000A0FD3C34C0000000401B3C43C00C00000013000000520D00003C0000000600000002000000000000C0FF3F8FC000000000F26334C000000080CDC743C0000000C0FF3F
310
8FC0000000A030FB3FC000000040DC8543C00C000000130000005A0D00003C0000000600000002000000000000C0FF3F8FC0000000A0FD3C34C0000000C07F5344C0000000C0FF3F8FC0000000E0FBE73FC000000000056E44C00C00000013000000620D00003C0000000600000002000000000000C0FF3F8FC0000000C09D
310
883FC0000000806C5145C0000000C0FF3F8FC0000000401CCB33C0000000808CD444C00C000000130000006A0D00003C0000000600000002000000000000C0FF3F8FC000000080B1DF3EC000000040DF2946C0000000C0FF3F8FC000000020FD1633C0000000C0174145C00C00000013000000720D00003C00000006000000
310
02000000000000C0FF3F8FC000000020562E32C000000020E19045C0000000C0FF3F8FC000000000D4F13DC00000006076F146C00C000000130000007A0D00003C0000000600000002000000000000C0FF3F8FC00000004082C53CC000000040C1A247C0000000C0FF3F8FC000000040A4E830C000000040E1E345C00C0000
310
0013000000820D00003C0000000600000002000000000000C0FF3F8FC0000000C0EC623BC000000000EA3848C0000000C0FF3F8FC0000000C0AA582FC000000080105846C00C000000130000008A0D00003C0000000600000002000000000000C0FF3F8FC000000060BED339C0000000C0D8AF48C0000000C0FF3F8FC00000
310
00C078442DC0000000004EE846C00C00000013000000920D00003C0000000600000002000000000000C0FF3F8FC0000000E0D82238C0000000004F0449C0000000C0FF3F8FC00000004049B42BC0000000809A6347C00C000000130000009A0D00003C0000000600000002000000000000C0FF3F8FC0000000400A5C36C000
310
000000FE3349C0000000C0FF3F8FC000000020ABEF29C000000080CDBF47C00C00000013000000A20D00003C0000000600000002000000000000C0FF3F8FC000000040456D28C000000000B1F347C0000000C0FF3F8FC0000000E0FFFF34C000000000004049C00C00000013000000AA0D00003C0000000600000002000000
310
000000C0FF3F8FC000000080C06B25C000000040675048C0000000C0FF3F8FC0000000E0FFFF34C00000000000404BC00C00000013000000B20D00003C0000000600000002000000000000C0FF3F8FC000000080A9A221C0000000C0A6E548C0000000C0FF3F8FC0000000E05FBE32C00000004078424BC00C000000130000
310
00BA0D00003C0000000600000002000000000000C0FF3F8FC0000000205D0131C000000020F85F4BC0000000C0FF3F8FC0000000E02F551CC000000040A39749C00C00000013000000C20D00003C0000000600000002000000000000C0FF3F8FC0000000402822CA3E0000006055D151C0000000C0FF3F8FC0000000C0B85B
310
24C000000040C00D4FC00C00000013000000CA0D00003C0000000600000002000000000000C0FF3F8FC000000080D943B0BE000000C0D54550C0000000C0FF3F8FC0000000A0FFFF22C00000000000004FC00C00000013000000D20D00003C0000000600000002000000000000C0FF3F8FC000000020768323C0000000A077
310
944EC0000000C0FF3F8FC00000004040BDE7BF000000004BA14FC00C00000013000000DA0D00003C0000000600000002000000000000C0FF3F8FC0000000C07C9224C0000000402BFA4DC0000000C0FF3F8FC000000040AECAF8BF000000C080604EC00C00000013000000E20D00003C0000000600000002000000000000C0
310
FF3F8FC0000000600CAB2EC000000040EBA34BC0000000C0FF3F8FC000000020152216C000000040AA634AC00C00000013000000EA0D00003C0000000600000002000000000000C0FF3F8FC00000008012902BC000000080390C4CC0000000C0FF3F8FC0000000206AC410C0000000809A464BC00C00000013000000F20D00
310
003C0000000600000002000000000000C0FF3F8FC0000000C04ACA28C000000040AC954CC0000000C0FF3F8FC0000000407FA208C000000020F73C4CC00C00000013000000FA0D00003C0000000600000002000000000000C0FF3F8FC0000000E0926F26C000000080073C4DC0000000C0FF3F8FC0000000A0A8B301C00000
310
00C001434DC00C00000013000000020E00003C0000000600000002000000000000C0FF3F8FC000000020FFFF17C000000000006053C0000000C0FF3F8FC0000000E0C966CB3E000000A0AAAE52C00C000000130000000A0E00003C0000000600000002000000000000C0FF3F8FC0000000402822CA3E0000006055D151C000
310
0000C0FF3F8FC0000000005C3827C0000000C0584F4FC00C00000013000000120E00003C0000000600000002000000000000C0FF3F8FC000000060F7C419C000000040625F53C0000000C0FF3F8FC0000000E0C966CB3E000000A0AAAE52C00C000000130000001A0E00003C0000000600000002000000000000C0FF3F8FC0
310
000000A07F131FC000000060BA5653C0000000C0FF3F8FC0000000605ABADEBF00000080F29F52C00C00000013000000220E00003C0000000600000002000000000000C0FF3F8FC00000004026ED22C0000000200A3D53C0000000C0FF3F8FC0000000605ABADEBF00000080F29F52C00C000000130000002A0E00003C0000
310
000600000002000000000000C0FF3F8FC0000000C09F1D2AC00000000068CA4FC0000000C0FF3F8FC0000000E05ABADEBF000000800DE051C00C00000013000000320E00003C0000000600000002000000000000C0FF3F8FC00000006040742EC000000080A9A350C0000000C0FF3F8FC000000060EB76EFBF000000C0BDFF
310
51C00C000000130000003A0E00003C0000000600000002000000000000C0FF3F8FC0000000A02AA42CC000000060CA3C50C0000000C0FF3F8FC0000000E05ABADEBF000000800DE051C00C00000013000000420E00003C0000000600000002000000000000C0FF3F8FC0000000C0EE642FC000000080420D51C0000000C0FF
310
3F8FC000000060EB76EFBF000000C0BDFF51C00C000000130000004A0E00003C0000000600000002000000000000C0FF3F8FC0000000A0A418F4BF00000040692952C0000000C0FF3F8FC000000040A9762FC000000080C47651C00C00000013000000520E00003C0000000600000002000000000000C0FF3F8FC0000000A0
310
A418F4BF00000040692952C0000000C0FF3F8FC0000000A0BF9C2EC0000000E01DE351C00C000000130000005A0E00003C0000000600000002000000000000C0FF3F8FC0000000A0A418F4BF000000C0965652C0000000C0FF3F8FC0000000E0C80C2DC000000040694552C00C00000013000000620E00003C000000060000
310
0002000000000000C0FF3F8FC0000000A018212BC000000040909352C0000000C0FF3F8FC0000000A0A418F4BF000000C0965652C00C000000130000006A0E00003C0000000600000002000000000000C0FF3F8FC0000000E0F2B328C000000000F6DA52C0000000C0FF3F8FC000000040ED76EFBF00000040428052C00C00
310
000013000000720E00003C0000000600000002000000000000C0FF3F8FC00000006019F725C000000040C31353C0000000C0FF3F8FC000000040ED76EFBF00000040428052C00C000000130000007A0E00003C00000006000000020000000000000000408F4000000000000033C0000000E014DEABBE0000000000408F4000
310
000000000033C000000020000028C00C00000013000000820E00003C00000006000000020000000000000000408F4000000000000033C000000020000028C00000000000408F400000000000803BC000000060000012C00C000000130000008A0E00003C00000006000000020000000000000000408F400000000000803BC0
310
00000060000012C00000000000408F400000000000803BC000000080D22AB4BE0C00000013000000920E00003C00000006000000020000000000000000408F4000000000000033C0000000E014DEABBE0000000000408F400000000000803BC000000080D22AB4BE0C000000130000009A0E00003C00000006000000020000
310
000000000000408F4000000020D9092AC0000000C093DE3CC00000000000408F40000000A0607F2AC000000080FC6A3EC00C00000013000000A20E00003C00000006000000020000000000000000408F40000000A0607F2AC000000080FC6A3EC00000000000408F40000000208FE835C0000000409F893CC00C0000001300
310
0000AA0E00003C00000006000000020000000000000000408F40000000208FE835C0000000409F893CC00000000000408F40000000E0FFFF34C00000000000803CC00C00000013000000B20E00003C00000006000000020000000000000000408F4000000020D9092AC0000000C093DE3CC00000000000408F40000000E0FF
310
FF34C00000000000803CC00C00000013000000BA0E00003C00000006000000020000000000000000408F4000000000000032C00000002000002AC00000000000408F40000000E0E49ED8BF0000008013DD30C00C00000013000000C20E00003C00000006000000020000000000000000408F40000000E0E49ED8BF00000080
310
13DD30C00000000000408F4000000060A0DAE6BF00000000E17A31C00C00000013000000CA0E00003C00000006000000020000000000000000408F4000000060A0DAE6BF00000000E17A31C00000000000408F4000000000000038C0000000A0008034C00C00000013000000D20E00003C0000000600000002000000000000
310
0000408F4000000000000032C00000002000002AC00000000000408F4000000000000038C0000000A0008034C00C00000013000000DA0E00003C00000006000000020000000000000000408F4000000000000033C000000020000028C00000000000408F400000006045F732C0000000A0898428C00C00000013000000E20E
310
00003C00000006000000020000000000000000408F400000006045F732C0000000A0898428C00000000000408F400000000047083CC000000060FB4812C00C00000013000000EA0E00003C00000006000000020000000000000000408F400000000000803BC000000060000012C00000000000408F400000000047083CC000
310
000060FB4812C00C00000013000000F20E00003C00000006000000020000000000000000408F4000000000000032C00000002000002AC00000000000408F40000000C0444232C0000000208BEE29C00C00000013000000FA0E00003C00000006000000020000000000000000408F4000000000000038C0000000A0008034C0
310
0000000000408F40000000807EF038C000000060FA7334C00C00000013000000020F00003C00000006000000020000000000000000408F40000000C0444232C0000000208BEE29C00000000000408F40000000807EF038C000000060FA7334C00C000000130000000A0F00003C00000006000000020000000000000000408F
310
40000000807EF038C000000060FA7334C00000000000408F40000000400FA63AC000000000F02C34C00C00000013000000120F00003C00000006000000020000000000000000408F40000000C0444232C0000000208BEE29C00000000000408F40000000400FA63AC000000000F02C34C00C000000130000001A0F00003C00
310
000006000000020000000000000000408F40000000400FA63AC000000000F02C34C00000000000408F400000008059423CC0000000801DA733C00C00000013000000220F00003C00000006000000020000000000000000408F40000000C0444232C0000000208BEE29C00000000000408F400000008059423CC0000000801D
310
A733C00C000000130000002A0F00003C00000006000000020000000000000000408F400000006045F732C0000000A0898428C00000000000408F4000000000B5793DC000000060B01314C00C00000013000000320F00003C00000006000000020000000000000000408F400000000047083CC000000060FB4812C000000000
310
00408F4000000000B5793DC000000060B01314C00C000000130000003A0F00003C00000006000000020000000000000000408F400000006045F732C0000000A0898428C00000000000408F40000000A0BFE63EC000000060A88617C00C00000013000000420F00003C00000006000000020000000000000000408F40000000
310
00B5793DC000000060B01314C00000000000408F40000000A0BFE63EC000000060A88617C00C000000130000004A0F00003C00000006000000020000000000000000408F400000006045F732C0000000A0898428C00000000000408F40000000C0B4DD32C000000020FAFF28C00C00000013000000520F00003C0000000600
310
0000020000000000000000408F40000000C0B4DD32C000000020FAFF28C00000000000408F40000000C01D1D40C00000006009AD1CC00C000000130000005A0F00003C00000006000000020000000000000000408F40000000A0BFE63EC000000060A88617C00000000000408F40000000C01D1D40C00000006009AD1CC00C
310
00000013000000620F00003C00000006000000020000000000000000408F40000000C0B4DD32C000000020FAFF28C00000000000408F40000000E06AEB40C0000000801BC624C00C000000130000006A0F00003C00000006000000020000000000000000408F40000000E06AEB40C0000000801BC624C00000000000408F40
310
000000E0F59E40C000000000487921C00C00000013000000720F00003C00000006000000020000000000000000408F40000000C0B4DD32C000000020FAFF28C00000000000408F40000000E0F59E40C000000000487921C00C000000130000007A0F00003C00000006000000020000000000000000408F40000000C01D1D40
310
C00000006009AD1CC00000000000408F40000000E0F59E40C000000000487921C00C00000013000000820F00003C00000006000000020000000000000000408F40000000C0B4DD32C000000020FAFF28C00000000000408F400000000005B532C0000000200A6A29C00C000000130000008A0F00003C000000060000000200
310
00000000000000408F400000000005B532C0000000200A6A29C00000000000408F4000000040A20141C0000000C0EC0F28C00C00000013000000920F00003C00000006000000020000000000000000408F40000000E06AEB40C0000000801BC624C00000000000408F4000000040A20141C0000000C0EC0F28C00C00000013
310
0000009A0F00003C00000006000000020000000000000000408F400000000005B532C0000000200A6A29C00000000000408F4000000080E8DF40C0000000C0176C2BC00C00000013000000A20F00003C00000006000000020000000000000000408F4000000040A20141C0000000C0EC0F28C00000000000408F4000000080
310
E8DF40C0000000C0176C2BC00C00000013000000AA0F00003C00000006000000020000000000000000408F400000000005B532C0000000200A6A29C00000000000408F4000000080678940C0000000C095B62EC00C00000013000000B20F00003C00000006000000020000000000000000408F4000000080E8DF40C0000000
310
C0176C2BC00000000000408F4000000080678940C0000000C095B62EC00C00000013000000BA0F00003C00000006000000020000000000000000408F400000000005B532C0000000200A6A29C00000000000408F40000000E0FC7F32C0000000206ABB29C00C00000013000000C20F00003C00000006000000020000000000
310
000000408F40000000E0FC7F32C0000000206ABB29C00000000000408F4000000040FE0F40C0000000C0FCC130C00C00000013000000CA0F00003C00000006000000020000000000000000408F4000000080678940C0000000C095B62EC00000000000408F4000000040FE0F40C0000000C0FCC130C00C00000013000000D2
310
0F00003C00000006000000020000000000000000408F40000000E0FC7F32C0000000206ABB29C00000000000408F40000000805AB53DC000000080D9E532C00C00000013000000DA0F00003C00000006000000020000000000000000408F40000000805AB53DC000000080D9E532C00000000000408F4000000080DB043FC0
310
00000000DBE731C00C00000013000000E20F00003C00000006000000020000000000000000408F40000000E0FC7F32C0000000206ABB29C00000000000408F4000000080DB043FC000000000DBE731C00C00000013000000EA0F00003C00000006000000020000000000000000408F4000000040FE0F40C0000000C0FCC130
310
C00000000000408F4000000080DB043FC000000000DBE731C00C00000013000000F20F00003C00000006000000020000000000000000408F40000000C0444232C0000000208BEE29C00000000000408F40000000E0FC7F32C0000000206ABB29C00C00000013000000FA0F00003C0000000600000002000000000000000040
310
8F400000008059423CC0000000801DA733C00000000000408F40000000805AB53DC000000080D9E532C00C00000013000000021000003C00000006000000020000000000000000408F4000000080F474D1BF00000040D64533C00000000000408F40000000E0ED6CD4BE00000040257F33C00C000000130000000A1000003C
310
00000006000000020000000000000000408F40000000E0ED6CD4BE00000040257F33C00000000000408F4000000060A2F6B03E00000080982137C00C00000013000000121000003C00000006000000020000000000000000408F4000000060A2F6B03E00000080982137C00000000000408F40000000203F5926C000000020
310
DE1B38C00C000000130000001A1000003C00000006000000020000000000000000408F4000000080F474D1BF00000040D64533C00000000000408F40000000203F5926C000000020DE1B38C00C00000013000000221000003C00000006000000020000000000000000408F4000000000000032C00000002000002AC0000000
310
0000408F40000000A03611A33E0000000000002AC00C000000130000002A1000003C00000006000000020000000000000000408F40000000A03611A33E0000000000002AC00000000000408F40000000C0A334A83E000000C0DA8030C00C00000013000000321000003C00000006000000020000000000000000408F400000
310
00E0E49ED8BF0000008013DD30C00000000000408F40000000C0A334A83E000000C0DA8030C00C000000130000003A1000003C00000006000000020000000000000000408F4000000060A0DAE6BF00000000E17A31C00000000000408F4000000060DE0BE9BF00000020F32C32C00C00000013000000421000003C00000006
310
000000020000000000000000408F4000000060DE0BE9BF00000020F32C32C00000000000408F40000000E0FFFF37C0000000A0008038C00C000000130000004A1000003C00000006000000020000000000000000408F4000000000000038C0000000A0008034C00000000000408F40000000E0FFFF37C0000000A0008038C0
310
0C00000013000000521000003C00000006000000020000000000000000408F4000000060DE0BE9BF00000020F32C32C00000000000408F4000000040B68DE2BF000000402DD832C00C000000130000005A1000003C00000006000000020000000000000000408F4000000040B68DE2BF000000402DD832C00000000000408F
310
40000000E0FFFF34C000000000008038C00C00000013000000621000003C00000006000000020000000000000000408F40000000E0FFFF37C0000000A0008038C00000000000408F40000000E0FFFF34C000000000008038C00C000000130000006A1000003C00000006000000020000000000000000408F4000000080F474
310
D1BF00000040D64533C00000000000408F4000000040B68DE2BF000000402DD832C00C00000013000000721000003C00000006000000020000000000000000408F40000000203F5926C000000020DE1B38C00000000000408F40000000405A6C27C000000020C83D38C00C000000130000007A1000003C0000000600000002
310
0000000000000000408F40000000E0FFFF34C000000000008038C00000000000408F40000000405A6C27C000000020C83D38C00C00000013000000821000003C00000006000000020000000000000000408F40000000405A6C27C000000020C83D38C00000000000408F4000000060B8AC28C0000000002FA038C00C000000
310
130000008A1000003C00000006000000020000000000000000408F40000000E0FFFF34C000000000008038C00000000000408F4000000060B8AC28C0000000002FA038C00C00000013000000921000003C00000006000000020000000000000000408F4000000060B8AC28C0000000002FA038C00000000000408F40000000
310
00FA8F29C000000060F33539C00C000000130000009A1000003C00000006000000020000000000000000408F40000000E0FFFF34C000000000008038C00000000000408F4000000000FA8F29C000000060F33539C00C00000013000000A21000003C00000006000000020000000000000000408F4000000000FA8F29C00000
310
0060F33539C00000000000408F400000000038F729C000000000B8EA39C00C00000013000000AA1000003C00000006000000020000000000000000408F40000000E0FFFF34C000000000008038C00000000000408F400000000038F729C000000000B8EA39C00C00000013000000B21000003C000000060000000200000000
310
00000000408F4000000020D9092AC0000000C093DE3CC00000000000408F400000000038F729C000000000B8EA39C00C00000013000000BA1000003C00000006000000020000000000000000408F40000000E0FFFF34C00000000000803CC00000000000408F40000000E0FFFF34C000000000008038C00C00000013000000
310
C21000003C00000006000000020000000000000000408F40000000A0607F2AC000000080FC6A3EC00000000000408F40000000E03E8D2BC0000000405AE43FC00C00000013000000CA1000003C00000006000000020000000000000000408F40000000E03E8D2BC0000000405AE43FC00000000000408F40000000E06A4137
310
C0000000E04BBE3CC00C00000013000000D21000003C00000006000000020000000000000000408F40000000208FE835C0000000409F893CC00000000000408F40000000E06A4137C0000000E04BBE3CC00C00000013000000DA1000003C00000006000000020000000000000000408F40000000E03E8D2BC0000000405AE4
310
3FC00000000000408F40000000401A292DC000000080169E40C00C00000013000000E21000003C00000006000000020000000000000000408F40000000401A292DC000000080169E40C00000000000408F4000000020CAFE38C000000040E5423DC00C00000013000000EA1000003C00000006000000020000000000000000
310
408F40000000E06A4137C0000000E04BBE3CC00000000000408F4000000020CAFE38C000000040E5423DC00C00000013000000F21000003C00000006000000020000000000000000408F40000000401A292DC000000080169E40C00000000000408F40000000A020432FC0000000809F3241C00C00000013000000FA100000
310
3C00000006000000020000000000000000408F40000000A020432FC0000000809F3241C00000000000408F40000000E040A03AC0000000A0FC0E3EC00C00000013000000021100003C00000006000000020000000000000000408F4000000020CAFE38C000000040E5423DC00000000000408F40000000E040A03AC0000000
310
A0FC0E3EC00C000000130000000A1100003C00000006000000020000000000000000408F40000000A020432FC0000000809F3241C00000000000408F400000002052E330C00000008013AA41C00C00000013000000121100003C00000006000000020000000000000000408F400000002052E330C00000008013AA41C00000
310
000000408F40000000606D1A3CC0000000E0FF1C3FC00C000000130000001A1100003C00000006000000020000000000000000408F40000000E040A03AC0000000A0FC0E3EC00000000000408F40000000606D1A3CC0000000E0FF1C3FC00C00000013000000221100003C00000006000000020000000000000000408F4000
310
00002052E330C00000008013AA41C00000000000408F4000000020562E32C000000000BAFE41C00C000000130000002A1100003C00000006000000020000000000000000408F4000000020562E32C000000000BAFE41C00000000000408F400000002000633DC000000040C93240C00C00000013000000321100003C000000
310
06000000020000000000000000408F40000000606D1A3CC0000000E0FF1C3FC00000000000408F400000002000633DC000000040C93240C00C000000130000003A1100003C00000006000000020000000000000000408F4000000020562E32C000000000BAFE41C00000000000408F4000000020FD1633C000000040834E42
310
C00C00000013000000421100003C00000006000000020000000000000000408F4000000020FD1633C000000040834E42C00000000000408F40000000E003713EC000000080DFEF40C00C000000130000004A1100003C00000006000000020000000000000000408F400000002000633DC000000040C93240C0000000000040
310
8F40000000E003713EC000000080DFEF40C00C00000013000000521100003C00000006000000020000000000000000408F4000000020FD1633C000000040834E42C00000000000408F40000000401CCB33C0000000C00EBB42C00C000000130000005A1100003C00000006000000020000000000000000408F40000000401C
310
CB33C0000000C00EBB42C00000000000408F40000000601B3D3FC0000000C09AC041C00C00000013000000621100003C00000006000000020000000000000000408F40000000E003713EC000000080DFEF40C00000000000408F40000000601B3D3FC0000000C09AC041C00C000000130000006A1100003C00000006000000
310
020000000000000000408F40000000401CCB33C0000000C00EBB42C00000000000408F40000000A0FD3C34C0000000401B3C43C00C00000013000000721100003C00000006000000020000000000000000408F40000000A0FD3C34C0000000401B3C43C00000000000408F40000000A0B4C13FC0000000804A9F42C00C0000
310
00130000007A1100003C00000006000000020000000000000000408F40000000601B3D3FC0000000C09AC041C00000000000408F40000000A0B4C13FC0000000804A9F42C00C00000013000000821100003C00000006000000020000000000000000408F40000000A0FD3C34C0000000401B3C43C00000000000408F400000
310
0000F26334C000000080CDC743C00C000000130000008A1100003C00000006000000020000000000000000408F4000000000F26334C000000080CDC743C00000000000408F40000000A030FB3FC000000040DC8543C00C00000013000000921100003C00000006000000020000000000000000408F40000000A0B4C13FC000
310
0000804A9F42C00000000000408F40000000A030FB3FC000000040DC8543C00C000000130000009A1100003C00000006000000020000000000000000408F4000000000F26334C000000080CDC743C00000000000408F40000000A0FD3C34C0000000C07F5344C00C00000013000000A21100003C0000000600000002000000
310
0000000000408F40000000A0FD3C34C0000000C07F5344C00000000000408F40000000E0FBE73FC000000000056E44C00C00000013000000AA1100003C00000006000000020000000000000000408F40000000A030FB3FC000000040DC8543C00000000000408F40000000E0FBE73FC000000000056E44C00C000000130000
310
00B21100003C00000006000000020000000000000000408F40000000A0FD3C34C0000000C07F5344C00000000000408F40000000401CCB33C0000000808CD444C00C00000013000000BA1100003C00000006000000020000000000000000408F40000000401CCB33C0000000808CD444C00000000000408F40000000C09D88
310
3FC0000000806C5145C00C00000013000000C21100003C00000006000000020000000000000000408F40000000E0FBE73FC000000000056E44C00000000000408F40000000C09D883FC0000000806C5145C00C00000013000000CA1100003C00000006000000020000000000000000408F40000000401CCB33C0000000808C
310
D444C00000000000408F4000000020FD1633C0000000C0174145C00C00000013000000D21100003C00000006000000020000000000000000408F4000000020FD1633C0000000C0174145C00000000000408F4000000080B1DF3EC000000040DF2946C00C00000013000000DA1100003C000000060000000200000000000000
310
00408F40000000C09D883FC0000000806C5145C00000000000408F4000000080B1DF3EC000000040DF2946C00C00000013000000E21100003C00000006000000020000000000000000408F4000000020FD1633C0000000C0174145C00000000000408F4000000020562E32C000000020E19045C00C00000013000000EA1100
310
003C00000006000000020000000000000000408F4000000020562E32C000000020E19045C00000000000408F4000000000D4F13DC00000006076F146C00C00000013000000F21100003C00000006000000020000000000000000408F4000000080B1DF3EC000000040DF2946C00000000000408F4000000000D4F13DC00000
310
006076F146C00C00000013000000FA1100003C00000006000000020000000000000000408F4000000020562E32C000000020E19045C00000000000408F4000000040A4E830C000000040E1E345C00C00000013000000021200003C00000006000000020000000000000000408F4000000040A4E830C000000040E1E345C000
310
00000000408F400000004082C53CC000000040C1A247C00C000000130000000A1200003C00000006000000020000000000000000408F4000000000D4F13DC00000006076F146C00000000000408F400000004082C53CC000000040C1A247C00C00000013000000121200003C00000006000000020000000000000000408F40
310
00000040A4E830C000000040E1E345C00000000000408F40000000C0AA582FC000000080105846C00C000000130000001A1200003C00000006000000020000000000000000408F40000000C0AA582FC000000080105846C00000000000408F40000000C0EC623BC000000000EA3848C00C00000013000000221200003C0000
310
0006000000020000000000000000408F400000004082C53CC000000040C1A247C00000000000408F40000000C0EC623BC000000000EA3848C00C000000130000002A1200003C00000006000000020000000000000000408F40000000C0AA582FC000000080105846C00000000000408F40000000C078442DC0000000004EE8
310
46C00C00000013000000321200003C00000006000000020000000000000000408F40000000C078442DC0000000004EE846C00000000000408F4000000060BED339C0000000C0D8AF48C00C000000130000003A1200003C00000006000000020000000000000000408F40000000C0EC623BC000000000EA3848C00000000000
310
408F4000000060BED339C0000000C0D8AF48C00C00000013000000421200003C00000006000000020000000000000000408F40000000C078442DC0000000004EE846C00000000000408F400000004049B42BC0000000809A6347C00C000000130000004A1200003C00000006000000020000000000000000408F4000000040
310
49B42BC0000000809A6347C00000000000408F40000000E0D82238C0000000004F0449C00C00000013000000521200003C00000006000000020000000000000000408F4000000060BED339C0000000C0D8AF48C00000000000408F40000000E0D82238C0000000004F0449C00C000000130000005A1200003C000000060000
310
00020000000000000000408F400000004049B42BC0000000809A6347C00000000000408F4000000020ABEF29C000000080CDBF47C00C00000013000000621200003C00000006000000020000000000000000408F4000000020ABEF29C000000080CDBF47C00000000000408F40000000400A5C36C000000000FE3349C00C00
310
0000130000006A1200003C00000006000000020000000000000000408F40000000E0D82238C0000000004F0449C00000000000408F40000000400A5C36C000000000FE3349C00C00000013000000721200003C00000006000000020000000000000000408F4000000020ABEF29C000000080CDBF47C00000000000408F4000
310
000040456D28C000000000B1F347C00C000000130000007A1200003C00000006000000020000000000000000408F4000000040456D28C000000000B1F347C00000000000408F40000000E0FFFF34C000000000004049C00C00000013000000821200003C00000006000000020000000000000000408F40000000400A5C36C0
310
00000000FE3349C00000000000408F40000000E0FFFF34C000000000004049C00C000000130000008A1200003C00000006000000020000000000000000408F4000000040456D28C000000000B1F347C00000000000408F4000000080C06B25C000000040675048C00C00000013000000921200003C00000006000000020000
310
000000000000408F4000000080C06B25C000000040675048C00000000000408F40000000E0FFFF34C00000000000404BC00C000000130000009A1200003C00000006000000020000000000000000408F40000000E0FFFF34C000000000004049C00000000000408F40000000E0FFFF34C00000000000404BC00C0000001300
310
0000A21200003C00000006000000020000000000000000408F4000000080C06B25C000000040675048C00000000000408F4000000080A9A221C0000000C0A6E548C00C00000013000000AA1200003C00000006000000020000000000000000408F4000000080A9A221C0000000C0A6E548C00000000000408F40000000E05F
310
BE32C00000004078424BC00C00000013000000B21200003C00000006000000020000000000000000408F40000000E0FFFF34C00000000000404BC00000000000408F40000000E05FBE32C00000004078424BC00C00000013000000BA1200003C00000006000000020000000000000000408F4000000080A9A221C0000000C0
310
A6E548C00000000000408F40000000E02F551CC000000040A39749C00C00000013000000C21200003C00000006000000020000000000000000408F40000000E02F551CC000000040A39749C00000000000408F40000000205D0131C000000020F85F4BC00C00000013000000CA1200003C0000000600000002000000000000
310
0000408F40000000E05FBE32C00000004078424BC00000000000408F40000000205D0131C000000020F85F4BC00C00000013000000D21200003C00000006000000020000000000000000408F4000000060F610D4BE000000C0D54550C00000000000408F40000000402822CA3E0000006055D151C00C00000013000000DA12
310
00003C00000006000000020000000000000000408F40000000402822CA3E0000006055D151C00000000000408F40000000C0B85B24C000000040C00D4FC00C00000013000000E21200003C00000006000000020000000000000000408F40000000C0B85B24C000000040C00D4FC00000000000408F40000000A0FFFF22C000
310
00000000004FC00C00000013000000EA1200003C00000006000000020000000000000000408F4000000060F610D4BE000000C0D54550C00000000000408F40000000A0FFFF22C00000000000004FC00C00000013000000F21200003C00000006000000020000000000000000408F4000000060F610D4BE000000C0D54550C0
310
0000000000408F400000004042BDE7BF000000004BA14FC00C00000013000000FA1200003C00000006000000020000000000000000408F40000000A0FFFF22C00000000000004FC00000000000408F4000000020768323C0000000A077944EC00C00000013000000021300003C00000006000000020000000000000000408F
310
400000004042BDE7BF000000004BA14FC00000000000408F4000000020768323C0000000A077944EC00C000000130000000A1300003C00000006000000020000000000000000408F400000004042BDE7BF000000004BA14FC00000000000408F4000000040AECAF8BF000000C080604EC00C00000013000000121300003C00
310
000006000000020000000000000000408F4000000020768323C0000000A077944EC00000000000408F40000000C07C9224C0000000402BFA4DC00C000000130000001A1300003C00000006000000020000000000000000408F4000000040AECAF8BF000000C080604EC00000000000408F40000000C07C9224C0000000402B
310
FA4DC00C00000013000000221300003C00000006000000020000000000000000408F40000000E02F551CC000000040A39749C00000000000408F4000000020152216C000000040AA634AC00C000000130000002A1300003C00000006000000020000000000000000408F4000000020152216C000000040AA634AC000000000
310
00408F40000000600CAB2EC000000040EBA34BC00C00000013000000321300003C00000006000000020000000000000000408F40000000205D0131C000000020F85F4BC00000000000408F40000000600CAB2EC000000040EBA34BC00C000000130000003A1300003C00000006000000020000000000000000408F40000000
310
20152216C000000040AA634AC00000000000408F40000000206AC410C0000000809A464BC00C00000013000000421300003C00000006000000020000000000000000408F40000000206AC410C0000000809A464BC00000000000408F400000008012902BC000000080390C4CC00C000000130000004A1300003C0000000600
310
0000020000000000000000408F40000000600CAB2EC000000040EBA34BC00000000000408F400000008012902BC000000080390C4CC00C00000013000000521300003C00000006000000020000000000000000408F40000000206AC410C0000000809A464BC00000000000408F40000000407FA208C000000020F73C4CC00C
310
000000130000005A1300003C00000006000000020000000000000000408F40000000407FA208C000000020F73C4CC00000000000408F40000000C04ACA28C000000040AC954CC00C00000013000000621300003C00000006000000020000000000000000408F400000008012902BC000000080390C4CC00000000000408F40
310
000000C04ACA28C000000040AC954CC00C000000130000006A1300003C00000006000000020000000000000000408F40000000407FA208C000000020F73C4CC00000000000408F40000000A0A8B301C0000000C001434DC00C00000013000000721300003C00000006000000020000000000000000408F40000000A0A8B301
310
C0000000C001434DC00000000000408F40000000E0926F26C000000080073C4DC00C000000130000007A1300003C00000006000000020000000000000000408F40000000C04ACA28C000000040AC954CC00000000000408F40000000E0926F26C000000080073C4DC00C00000013000000821300003C000000060000000200
310
00000000000000408F4000000040AECAF8BF000000C080604EC00000000000408F40000000A0A8B301C0000000C001434DC00C000000130000008A1300003C00000006000000020000000000000000408F40000000C07C9224C0000000402BFA4DC00000000000408F40000000E0926F26C000000080073C4DC00C00000013
310
000000921300003C00000006000000020000000000000000408F40000000E0C966CB3E000000A0AAAE52C00000000000408F40000000002B6FCE3E0000000000C054C00C000000130000009A1300003C00000006000000020000000000000000408F40000000002B6FCE3E0000000000C054C00000000000408F4000000000
310
FFFF17C00000000000C054C00C00000013000000A21300003C00000006000000020000000000000000408F4000000000FFFF17C00000000000C054C00000000000408F4000000020FFFF17C000000000006053C00C00000013000000AA1300003C00000006000000020000000000000000408F40000000E0C966CB3E000000
310
A0AAAE52C00000000000408F4000000020FFFF17C000000000006053C00C00000013000000B21300003C00000006000000020000000000000000408F40000000402822CA3E0000006055D151C00000000000408F40000000005C3827C0000000C0584F4FC00C00000013000000BA1300003C00000006000000020000000000
310
000000408F40000000C0B85B24C000000040C00D4FC00000000000408F40000000005C3827C0000000C0584F4FC00C00000013000000C21300003C00000006000000020000000000000000408F4000000020FFFF17C000000000006053C00000000000408F40000000A0F7C419C000000040625F53C00C00000013000000CA
310
1300003C00000006000000020000000000000000408F40000000E0C966CB3E000000A0AAAE52C00000000000408F40000000A0F7C419C000000040625F53C00C00000013000000D21300003C00000006000000020000000000000000408F40000000E0C966CB3E000000A0AAAE52C00000000000408F40000000605EBADEBF
310
00000080F29F52C00C00000013000000DA1300003C00000006000000020000000000000000408F40000000A0F7C419C000000040625F53C00000000000408F40000000A07F131FC000000060BA5653C00C00000013000000E21300003C00000006000000020000000000000000408F40000000605EBADEBF00000080F29F52
310
C00000000000408F40000000A07F131FC000000060BA5653C00C00000013000000EA1300003C00000006000000020000000000000000408F40000000A07F131FC000000060BA5653C00000000000408F400000004026ED22C0000000200A3D53C00C00000013000000F21300003C0000000600000002000000000000000040
310
8F40000000605EBADEBF00000080F29F52C00000000000408F400000004026ED22C0000000200A3D53C00C00000013000000FA1300003C00000006000000020000000000000000408F40000000402822CA3E0000006055D151C00000000000408F40000000E05ABADEBF000000800DE051C00C00000013000000021400003C
310
00000006000000020000000000000000408F40000000E05ABADEBF000000800DE051C00000000000408F40000000C09F1D2AC00000000068CA4FC00C000000130000000A1400003C00000006000000020000000000000000408F40000000005C3827C0000000C0584F4FC00000000000408F40000000C09F1D2AC000000000
310
68CA4FC00C00000013000000121400003C00000006000000020000000000000000408F40000000E05ABADEBF000000800DE051C00000000000408F4000000060EB76EFBF000000C0BDFF51C00C000000130000001A1400003C00000006000000020000000000000000408F4000000060EB76EFBF000000C0BDFF51C0000000
310
0000408F400000006040742EC000000080A9A350C00C00000013000000221400003C00000006000000020000000000000000408F400000006040742EC000000080A9A350C00000000000408F40000000A02AA42CC000000060CA3C50C00C000000130000002A1400003C00000006000000020000000000000000408F400000
310
00E05ABADEBF000000800DE051C00000000000408F40000000A02AA42CC000000060CA3C50C00C00000013000000321400003C00000006000000020000000000000000408F40000000C09F1D2AC00000000068CA4FC00000000000408F40000000A02AA42CC000000060CA3C50C00C000000130000003A1400003C00000006
310
000000020000000000000000408F4000000060EB76EFBF000000C0BDFF51C00000000000408F40000000C0EE642FC000000080420D51C00C00000013000000421400003C00000006000000020000000000000000408F400000006040742EC000000080A9A350C00000000000408F40000000C0EE642FC000000080420D51C0
310
0C000000130000004A1400003C00000006000000020000000000000000408F4000000060EB76EFBF000000C0BDFF51C00000000000408F40000000A0A418F4BF00000040692952C00C00000013000000521400003C00000006000000020000000000000000408F40000000A0A418F4BF00000040692952C00000000000408F
310
4000000040A9762FC000000080C47651C00C000000130000005A1400003C00000006000000020000000000000000408F40000000C0EE642FC000000080420D51C00000000000408F4000000040A9762FC000000080C47651C00C00000013000000621400003C00000006000000020000000000000000408F40000000A0A418
310
F4BF00000040692952C00000000000408F40000000A0BF9C2EC0000000E01DE351C00C000000130000006A1400003C00000006000000020000000000000000408F4000000040A9762FC000000080C47651C00000000000408F40000000A0BF9C2EC0000000E01DE351C00C00000013000000721400003C0000000600000002
310
0000000000000000408F40000000A0A418F4BF00000040692952C00000000000408F40000000A0A518F4BF000000C0965652C00C000000130000007A1400003C00000006000000020000000000000000408F40000000A0A518F4BF000000C0965652C00000000000408F40000000E0C80C2DC000000040694552C00C000000
310
13000000821400003C00000006000000020000000000000000408F40000000A0BF9C2EC0000000E01DE351C00000000000408F40000000E0C80C2DC000000040694552C00C000000130000008A1400003C00000006000000020000000000000000408F40000000A0A518F4BF000000C0965652C00000000000408F40000000
310
A018212BC000000040909352C00C00000013000000921400003C00000006000000020000000000000000408F40000000E0C80C2DC000000040694552C00000000000408F40000000A018212BC000000040909352C00C000000130000009A1400003C00000006000000020000000000000000408F40000000A0A518F4BF0000
310
00C0965652C00000000000408F4000000040F176EFBF00000040428052C00C00000013000000A21400003C00000006000000020000000000000000408F4000000040F176EFBF00000040428052C00000000000408F40000000E0F2B328C000000000F6DA52C00C00000013000000AA1400003C000000060000000200000000
310
00000000408F40000000A018212BC000000040909352C00000000000408F40000000E0F2B328C000000000F6DA52C00C00000013000000B21400003C00000006000000020000000000000000408F4000000040F176EFBF00000040428052C00000000000408F400000006019F725C000000040C31353C00C00000013000000
310
BA1400003C00000006000000020000000000000000408F40000000E0F2B328C000000000F6DA52C00000000000408F400000006019F725C000000040C31353C00C00000013000000C21400003C00000006000000020000000000000000408F40000000605EBADEBF00000080F29F52C00000000000408F4000000040F176EF
310
BF00000040428052C00C00000013000000CA1400003C00000006000000020000000000000000408F400000004026ED22C0000000200A3D53C00000000000408F400000006019F725C000000040C31353C0
100
AcDbSubDMesh
 71
     2
 72
     0
 91
        0
 92
      327
 10
1000.000061035156
 20
-18.96590232849121
 30
-12.25886249542236
 10
1000.000061035156
 20
-18.70710754394531
 30
-12.70710849761963
 10
1000.000061035156
 20
0.0000005682480264
 30
-13.0
 10
1000.000061035156
 20
-0.3846981227397919
 30
-16.86357879638672
 10
1000.000061035156
 20
-0.7141878008842469
 30
-17.47999572753906
 10
1000.000061035156
 20
-0.5797988176345826
 30
-18.84444046020508
 10
1000.000061035156
 20
-12.3373441696167
 30
-24.62571716308594
 10
1000.000061035156
 20
-12.98284912109375
 30
-25.9168701171875
 10
1000.000061035156
 20
-13.24878406524658
 30
-30.41791534423828
 10
1000.000061035156
 20
-14.58027839660644
 30
-33.23506164550781
 10
1000.000061035156
 20
-16.88797187805176
 30
-35.32872009277344
 10
1000.000061035156
 20
-19.08979988098144
 30
-36.61338043212891
 10
1000.000061035156
 20
-19.79339981079101
 30
-37.46138763427734
 10
1000.000061035156
 20
-20.39041137695313
 30
-39.56095886230469
 10
1000.000061035156
 20
-19.79339981079101
 30
-41.66053771972656
 10
1000.000061035156
 20
-18.18100166320801
 30
-43.13187026977539
 10
1000.000061035156
 20
-15.67317771911621
 30
-44.68800354003906
 10
1000.000061035156
 20
-13.85212135314941
 30
-46.77815246582031
 10
1000.000061035156
 20
-12.21341896057129
 30
-47.90383911132813
 10
1000.000061035156
 20
-8.817699432373046
 30
-49.79415130615234
 10
1000.000061035156
 20
-5.533283710479736
 30
-52.77863311767578
 10
1000.000061035156
 20
-3.079343318939208
 30
-56.47629165649414
 10
1000.000061035156
 20
-1.549482583999633
 30
-60.75392913818359
 10
1000.000061035156
 20
-0.4801242053508759
 30
-71.50082397460938
 10
1000.000061035156
 20
-1.256016373634338
 30
-72.64704895019531
 10
1000.000061035156
 20
-0.9832674264907836
 30
-74.00404357910156
 10
1000.000061035156
 20
-9.46318244934082
 30
-76.95374298095703
 10
1000.000061035156
 20
-12.35146236419678
 30
-75.4212646484375
 10
1000.000061035156
 20
-15.73176002502441
 30
-69.85574340820313
 10
1000.000061035156
 20
-15.22705364227295
 30
-66.55722045898437
 10
1000.000061035156
 20
-13.05785942077636
 30
-63.581298828125
 10
1000.000061035156
 20
-10.17914390563965
 30
-62.10742950439453
 10
1000.000061035156
 20
-9.756760597229003
 30
-61.1599006652832
 10
1000.000061035156
 20
-11.21791744232178
 30
-58.46897888183594
 10
1000.000061035156
 20
-13.78139114379883
 30
-56.09550476074218
 10
1000.000061035156
 20
-17.00532722473144
 30
-54.74975967407226
 10
1000.000061035156
 20
-20.99999809265137
 30
-54.5
 10
1000.000061035156
 20
-22.35953140258789
 30
-50.40618896484375
 10
1000.000061035156
 20
-25.82712364196777
 30
-49.37380218505859
 10
1000.000061035156
 20
-28.77151870727539
 30
-47.27152252197265
 10
1000.000061035156
 20
-30.8738021850586
 30
-44.3271255493164
 10
1000.000061035156
 20
-31.90618705749512
 30
-40.85952758789062
 10
1000.000061035156
 20
-31.75666236877442
 30
-37.24446105957031
 10
1000.000061035156
 20
-30.44146537780762
 30
-33.87400817871094
 10
1000.000061035156
 20
-28.10323143005371
 30
-31.11328315734863
 10
1000.000061035156
 20
-24.99527168273926
 30
-29.26131057739258
 10
1000.000061035156
 20
-21.90843391418457
 30
-28.53758621215821
 10
1000.000061035156
 20
-20.99999809265137
 30
-24.5
 10
1000.000061035156
 20
-24.0
 30
-20.50000953674317
 10
1000.000061035156
 20
-26.6486701965332
 30
-20.175537109375
 10
1000.000061035156
 20
-29.70841217041016
 30
-18.89785003662109
 10
1000.000061035156
 20
-33.74928283691406
 30
-13.71111869812011
 10
1000.000061035156
 20
-33.83919906616211
 30
-10.38692855834961
 10
1000.000061035156
 20
-32.22747039794922
 30
-7.168981075286865
 10
1000.000061035156
 20
-30.9013614654541
 30
-5.881501674652099
 10
1000.000061035156
 20
-28.03233337402344
 30
-4.571271419525146
 10
1000.000061035156
 20
-19.0
 30
-0.0000008305163988
 10
-999.9998779296875
 20
-27.5
 30
-0.0000012020632312
 10
-999.9998779296875
 20
-24.93943023681641
 30
-20.45303535461426
 10
-999.9998779296875
 20
-28.25917816162109
 30
-19.65279006958008
 10
-999.9998779296875
 20
-31.01897430419922
 30
-17.90568161010742
 10
-999.9998779296875
 20
-34.01276397705078
 30
-12.03109931945801
 10
-999.9998779296875
 20
-33.24187850952148
 30
-8.736875534057617
 10
-999.9998779296875
 20
-32.22747039794922
 30
-7.168981075286865
 10
-999.9998779296875
 20
-30.9013614654541
 30
-5.881501674652099
 10
-999.9998779296875
 20
-28.03233337402344
 30
-4.571271419525146
 10
-999.9998779296875
 20
-20.99999809265137
 30
-28.5
 10
-999.9998779296875
 20
-22.35953140258789
 30
-50.40618896484375
 10
-999.9998779296875
 20
-24.13612174987793
 30
-50.03366088867188
 10
-999.9998779296875
 20
-27.38642501831055
 30
-48.44464111328125
 10
-999.9998779296875
 20
-31.53365707397461
 30
-42.63612365722656
 10
-999.9998779296875
 20
-23.25553703308106
 30
-28.74334144592285
 10
-999.9998779296875
 20
-9.756760597229003
 30
-61.1599006652832
 10
-999.9998779296875
 20
-10.28610801696777
 30
-59.9544448852539
 10
-999.9998779296875
 20
-11.21791744232178
 30
-58.46897888183594
 10
-999.9998779296875
 20
-12.39510154724121
 30
-57.16931915283203
 10
-999.9998779296875
 20
-15.33407878875732
 30
-55.28061676025391
 10
-999.9998779296875
 20
-17.00532722473144
 30
-54.74975967407226
 10
-999.9998779296875
 20
-9.46318244934082
 30
-76.95374298095703
 10
-999.9998779296875
 20
-10.98261547088623
 30
-76.30879211425781
 10
-999.9998779296875
 20
-12.35146236419678
 30
-75.4212646484375
 10
-999.9998779296875
 20
-13.56464099884033
 30
-74.30567932128906
 10
-999.9998779296875
 20
0.000003628045306
 30
-83.0
 10
-999.9998779296875
 20
-1.549482583999633
 30
-60.75392913818359
 10
-999.9998779296875
 20
-0.0000009694717846
 30
-65.09117126464843
 10
-999.9998779296875
 20
-10.71045303344726
 30
-48.6281509399414
 10
-999.9998779296875
 20
-8.817699432373046
 30
-49.79415130615234
 10
-999.9998779296875
 20
-7.083190441131591
 30
-51.18466949462891
 10
-999.9998779296875
 20
-5.533283710479736
 30
-52.77863311767578
 10
-999.9998779296875
 20
-2.212723970413208
 30
-58.52349090576172
 10
-999.9998779296875
 20
-18.18100166320801
 30
-43.13187026977539
 10
-999.9998779296875
 20
-19.08979988098144
 30
-36.61338043212891
 10
-999.9998779296875
 20
-20.39041137695313
 30
-39.56095886230469
 10
-999.9998779296875
 20
-20.23824501037598
 30
-40.65233612060547
 10
-999.9998779296875
 20
-13.0192346572876
 30
-28.86944198608399
 10
-999.9998779296875
 20
-14.58027839660644
 30
-33.23506164550781
 10
-999.9998779296875
 20
-12.98284912109375
 30
-25.9168701171875
 10
-999.9998779296875
 20
-12.78120422363281
 30
-25.21074485778809
 10
-999.9998779296875
 20
-0.3846981227397919
 30
-16.86357879638672
 10
-999.9998779296875
 20
-0.7826988101005555
 30
-18.17558479309082
 10
-999.9998779296875
 20
-0.5797988176345826
 30
-18.84444046020508
 10
-999.9998779296875
 20
-1.256016373634338
 30
-72.64704895019531
 10
-999.9998779296875
 20
-0.9832674264907836
 30
-74.00404357910156
 10
-999.9998779296875
 20
0.0000005682480264
 30
-13.0
 10
1000.000061035156
 20
-18.25886154174805
 30
-12.96590518951416
 10
1000.000061035156
 20
-0.0000010551225387
 30
-19.49666213989258
 10
1000.000061035156
 20
-11.17430973052978
 30
-24.10885810852051
 10
1000.000061035156
 20
-0.0000047841690503
 30
-65.09117126464843
 10
1000.000061035156
 20
0.0000032665154777
 30
-74.72916412353516
 10
1000.000061035156
 20
-5.999996185302734
 30
-83.0
 10
1000.000061035156
 20
-6.4423508644104
 30
-77.49037170410156
 10
1000.000061035156
 20
-14.52497005462646
 30
-73.08454895019531
 10
1000.000061035156
 20
-32.12494659423828
 30
-16.75776290893554
 10
1000.000061035156
 20
-27.5
 30
-0.0000012020632312
 10
-999.9998779296875
 20
-19.0
 30
-0.0000008305163988
 10
-999.9998779296875
 20
-23.99999809265137
 30
-24.5000057220459
 10
-999.9998779296875
 20
-20.99999809265137
 30
-24.5
 10
-999.9998779296875
 20
-20.99999809265137
 30
-54.5
 10
-999.9998779296875
 20
-9.49999713897705
 30
-62.0
 10
-999.9998779296875
 20
-18.96590232849121
 30
-12.25886249542236
 10
-999.9998779296875
 20
-18.86603927612305
 30
-12.49995517730713
 10
-999.9998779296875
 20
-18.25886154174805
 30
-12.96590518951416
 10
-999.9998779296875
 20
-0.2727633714675903
 30
-19.27280044555664
 10
-999.9998779296875
 20
0.0000031153472264
 30
-71.27083587646485
 10
-999.9998779296875
 20
0.0000010110983339
 30
-23.13123321533203
 10
1000.0
 20
-19.0
 30
-0.0000008305163988
 10
1000.0
 20
-19.0
 30
-12.00000095367431
 10
1000.0
 20
-27.5
 30
-4.500001430511474
 10
1000.0
 20
-27.5
 30
-0.0000012020632312
 10
1000.0
 20
-13.0192346572876
 30
-28.86944198608399
 10
1000.0
 20
-13.24878406524658
 30
-30.41791534423828
 10
1000.0
 20
-21.90843391418457
 30
-28.53758621215821
 10
1000.0
 20
-20.99999809265137
 30
-28.5
 10
1000.0
 20
-18.0
 30
-13.00000095367431
 10
1000.0
 20
-0.3846981227397919
 30
-16.86357879638672
 10
1000.0
 20
-0.7141878008842469
 30
-17.47999572753906
 10
1000.0
 20
-24.0
 30
-20.50000953674317
 10
1000.0
 20
-18.96590232849121
 30
-12.25886249542236
 10
1000.0
 20
-28.03233337402344
 30
-4.571271419525146
 10
1000.0
 20
-18.25886154174805
 30
-12.96590518951416
 10
1000.0
 20
-24.93943023681641
 30
-20.45303916931152
 10
1000.0
 20
-26.6486701965332
 30
-20.175537109375
 10
1000.0
 20
-28.25917816162109
 30
-19.65279388427734
 10
1000.0
 20
-29.47541809082031
 30
-5.019227504730224
 10
1000.0
 20
-30.9013614654541
 30
-5.881501674652099
 10
1000.0
 20
-18.86603927612305
 30
-12.49995517730713
 10
1000.0
 20
-32.22747039794922
 30
-7.168981075286865
 10
1000.0
 20
-33.83919906616211
 30
-10.38692855834961
 10
1000.0
 20
-33.24187850952148
 30
-8.73687744140625
 10
1000.0
 20
-18.70710754394531
 30
-12.70710849761963
 10
1000.0
 20
-34.01276397705078
 30
-12.03110313415527
 10
1000.0
 20
-33.74928283691406
 30
-13.71111869812011
 10
1000.0
 20
-33.07347106933594
 30
-15.35661125183105
 10
1000.0
 20
-18.49995231628418
 30
-12.86604404449463
 10
1000.0
 20
-32.12494659423828
 30
-16.75776290893554
 10
1000.0
 20
-29.70841217041016
 30
-18.89785003662109
 10
1000.0
 20
-31.01897430419922
 30
-17.90568542480469
 10
1000.0
 20
-0.2727633714675903
 30
-19.27280044555664
 10
1000.0
 20
-0.0000048698198043
 30
-19.49666213989258
 10
1000.0
 20
0.0000010110983339
 30
-23.13123321533203
 10
1000.0
 20
-11.17430973052978
 30
-24.10885810852051
 10
1000.0
 20
0.0000005682480264
 30
-13.0
 10
1000.0
 20
0.0000007213837989
 30
-16.50333786010742
 10
1000.0
 20
-0.7826988101005555
 30
-18.17558479309082
 10
1000.0
 20
-23.99999809265137
 30
-24.50000953674317
 10
1000.0
 20
-0.5797988176345826
 30
-18.84444046020508
 10
1000.0
 20
-20.99999809265137
 30
-24.5
 10
1000.0
 20
-11.71162605285644
 30
-24.24133491516113
 10
1000.0
 20
-12.3373441696167
 30
-24.62571716308594
 10
1000.0
 20
-12.78120422363281
 30
-25.21074485778809
 10
1000.0
 20
-12.98284912109375
 30
-25.9168701171875
 10
1000.0
 20
-13.77587032318115
 30
-31.89200210571289
 10
1000.0
 20
-23.25553703308106
 30
-28.74334526062012
 10
1000.0
 20
-14.58027839660644
 30
-33.23506164550781
 10
1000.0
 20
-24.99527168273926
 30
-29.26131057739258
 10
1000.0
 20
-15.63110828399658
 30
-34.39549255371094
 10
1000.0
 20
-26.62598991394043
 30
-30.05854225158691
 10
1000.0
 20
-16.88797187805176
 30
-35.32872009277344
 10
1000.0
 20
-28.10323143005371
 30
-31.11327934265137
 10
1000.0
 20
-18.18100166320801
 30
-35.99005126953125
 10
1000.0
 20
-29.38672065734863
 30
-32.39676666259766
 10
1000.0
 20
-19.08979988098144
 30
-36.61338043212891
 10
1000.0
 20
-30.44146537780762
 30
-33.87400817871094
 10
1000.0
 20
-19.79339981079101
 30
-37.46138763427734
 10
1000.0
 20
-31.23869895935059
 30
-35.50472259521484
 10
1000.0
 20
-20.23824501037598
 30
-38.4695816040039
 10
1000.0
 20
-31.75666236877442
 30
-37.24446105957031
 10
1000.0
 20
-20.39041137695313
 30
-39.56095886230469
 10
1000.0
 20
-31.98121070861816
 30
-39.04578399658203
 10
1000.0
 20
-20.23824501037598
 30
-40.65233612060547
 10
1000.0
 20
-31.90618705749512
 30
-40.85952758789062
 10
1000.0
 20
-19.79339981079101
 30
-41.66053771972656
 10
1000.0
 20
-31.53365707397461
 30
-42.63612365722656
 10
1000.0
 20
-19.08979988098144
 30
-42.50853729248047
 10
1000.0
 20
-30.8738021850586
 30
-44.3271255493164
 10
1000.0
 20
-18.18100166320801
 30
-43.13187026977539
 10
1000.0
 20
-29.94464111328125
 30
-45.88642501831055
 10
1000.0
 20
-16.90875625610351
 30
-43.78031158447265
 10
1000.0
 20
-28.77151870727539
 30
-47.27152252197265
 10
1000.0
 20
-15.67317771911621
 30
-44.68800354003906
 10
1000.0
 20
-27.38642501831055
 30
-48.44464111328125
 10
1000.0
 20
-14.63373374938965
 30
-45.81488037109375
 10
1000.0
 20
-25.82712364196777
 30
-49.37380218505859
 10
1000.0
 20
-13.85212135314941
 30
-46.77815246582031
 10
1000.0
 20
-24.13612174987793
 30
-50.03366088867188
 10
1000.0
 20
-12.96810245513916
 30
-47.49845886230469
 10
1000.0
 20
-22.35953140258789
 30
-50.40618896484375
 10
1000.0
 20
-12.21341896057129
 30
-47.90383911132813
 10
1000.0
 20
-20.99999809265137
 30
-50.5
 10
1000.0
 20
-10.71045303344726
 30
-48.6281509399414
 10
1000.0
 20
-20.99999809265137
 30
-54.5
 10
1000.0
 20
-8.817699432373046
 30
-49.79415130615234
 10
1000.0
 20
-18.74365043640137
 30
-54.51929473876953
 10
1000.0
 20
-7.083190441131591
 30
-51.18466949462891
 10
1000.0
 20
-17.00532722473144
 30
-54.74975967407226
 10
1000.0
 20
-0.0000047841690503
 30
-65.09117126464843
 10
1000.0
 20
0.0000031153472264
 30
-71.27083587646485
 10
1000.0
 20
-10.17914390563965
 30
-62.10742950439453
 10
1000.0
 20
-9.49999713897705
 30
-62.0
 10
1000.0
 20
-0.741852879524231
 30
-63.26010131835937
 10
1000.0
 20
-9.756760597229003
 30
-61.1599006652832
 10
1000.0
 20
-1.549482583999633
 30
-60.75392913818359
 10
1000.0
 20
-10.28610801696777
 30
-59.9544448852539
 10
1000.0
 20
-5.533283710479736
 30
-52.77863311767578
 10
1000.0
 20
-15.33407878875732
 30
-55.28061676025391
 10
1000.0
 20
-4.191811084747314
 30
-54.55158996582031
 10
1000.0
 20
-13.78139114379883
 30
-56.09550476074218
 10
1000.0
 20
-3.079344272613525
 30
-56.47629165649414
 10
1000.0
 20
-12.39510154724121
 30
-57.16931915283203
 10
1000.0
 20
-2.212723970413208
 30
-58.52349090576172
 10
1000.0
 20
-11.21791744232178
 30
-58.46897888183594
 10
1000.0
 20
0.0000032665154777
 30
-74.72916412353516
 10
1000.0
 20
0.000003628045306
 30
-83.0
 10
1000.0
 20
-5.999996185302734
 30
-83.0
 10
1000.0
 20
-5.999996662139892
 30
-77.5
 10
1000.0
 20
-11.61007690429687
 30
-62.61989593505859
 10
1000.0
 20
-6.4423508644104
 30
-77.49037170410156
 10
1000.0
 20
-0.4801250398159027
 30
-74.49917602539063
 10
1000.0
 20
-7.769041538238525
 30
-77.3551254272461
 10
1000.0
 20
-9.46318244934082
 30
-76.95374298095703
 10
1000.0
 20
-0.4801242053508759
 30
-71.50082397460938
 10
1000.0
 20
-13.05785942077636
 30
-63.581298828125
 10
1000.0
 20
-0.983266532421112
 30
-71.99595642089843
 10
1000.0
 20
-15.22705364227295
 30
-66.55722045898437
 10
1000.0
 20
-14.32063770294189
 30
-64.94985198974609
 10
1000.0
 20
-15.69713401794433
 30
-68.20718383789063
 10
1000.0
 20
-1.256016373634338
 30
-72.64704895019531
 10
1000.0
 20
-15.73176002502441
 30
-69.85574340820313
 10
1000.0
 20
-15.30614948272705
 30
-71.54869842529297
 10
1000.0
 20
-1.256017327308654
 30
-73.35295104980469
 10
1000.0
 20
-14.52497005462646
 30
-73.08454895019531
 10
1000.0
 20
-13.56464099884033
 30
-74.30567932128906
 10
1000.0
 20
-0.9832693338394165
 30
-74.00404357910156
 10
1000.0
 20
-12.35146236419678
 30
-75.4212646484375
 10
1000.0
 20
-10.98261547088623
 30
-76.30879211425781
 10
-999.9998779296875
 20
-27.5
 30
-4.500001430511474
 10
-999.9998779296875
 20
-26.6486701965332
 30
-20.17553329467773
 10
-999.9998779296875
 20
-29.70841217041016
 30
-18.89784622192383
 10
-999.9998779296875
 20
-33.07347106933594
 30
-15.35660743713379
 10
-999.9998779296875
 20
-33.74928283691406
 30
-13.71111488342285
 10
-999.9998779296875
 20
-33.83919906616211
 30
-10.38692474365234
 10
-999.9998779296875
 20
-29.47541809082031
 30
-5.019227504730224
 10
-999.9998779296875
 20
-25.82712364196777
 30
-49.37380218505859
 10
-999.9998779296875
 20
-28.77151870727539
 30
-47.27152252197265
 10
-999.9998779296875
 20
-29.94464111328125
 30
-45.88642501831055
 10
-999.9998779296875
 20
-30.8738021850586
 30
-44.3271255493164
 10
-999.9998779296875
 20
-31.90618705749512
 30
-40.85952758789062
 10
-999.9998779296875
 20
-31.98121070861816
 30
-39.04578399658203
 10
-999.9998779296875
 20
-31.75666236877442
 30
-37.24446105957031
 10
-999.9998779296875
 20
-31.23869895935059
 30
-35.50472259521484
 10
-999.9998779296875
 20
-30.44146537780762
 30
-33.87400817871094
 10
-999.9998779296875
 20
-29.38672065734863
 30
-32.39676666259766
 10
-999.9998779296875
 20
-28.10323143005371
 30
-31.11327934265137
 10
-999.9998779296875
 20
-26.62598991394043
 30
-30.05853843688965
 10
-999.9998779296875
 20
-24.99527168273926
 30
-29.26130676269531
 10
-999.9998779296875
 20
-18.74365043640137
 30
-54.51929473876953
 10
-999.9998779296875
 20
-13.78139114379883
 30
-56.09550476074218
 10
-999.9998779296875
 20
-7.769041538238525
 30
-77.3551254272461
 10
-999.9998779296875
 20
-15.30614948272705
 30
-71.54869842529297
 10
-999.9998779296875
 20
-15.73176002502441
 30
-69.85574340820313
 10
-999.9998779296875
 20
-15.69713401794433
 30
-68.20718383789063
 10
-999.9998779296875
 20
-15.22705364227295
 30
-66.55722045898437
 10
-999.9998779296875
 20
-14.32063770294189
 30
-64.94985198974609
 10
-999.9998779296875
 20
-13.05785942077636
 30
-63.581298828125
 10
-999.9998779296875
 20
-11.61007690429687
 30
-62.61989593505859
 10
-999.9998779296875
 20
-10.17914390563965
 30
-62.10742950439453
 10
-999.9998779296875
 20
-19.0
 30
-12.00000095367431
 10
-999.9998779296875
 20
-18.70710754394531
 30
-12.70710849761963
 10
-999.9998779296875
 20
-18.49995231628418
 30
-12.86604404449463
 10
-999.9998779296875
 20
-18.0
 30
-13.00000095367431
 10
-999.9998779296875
 20
-0.7418519258499146
 30
-63.26010131835937
 10
-999.9998779296875
 20
-12.21341896057129
 30
-47.90383911132813
 10
-999.9998779296875
 20
-4.191811084747314
 30
-54.55158996582031
 10
-999.9998779296875
 20
-3.079344272613525
 30
-56.47629165649414
 10
-999.9998779296875
 20
-16.90875625610351
 30
-43.78031158447265
 10
-999.9998779296875
 20
-15.67317771911621
 30
-44.68800354003906
 10
-999.9998779296875
 20
-14.63373374938965
 30
-45.81488037109375
 10
-999.9998779296875
 20
-18.18100166320801
 30
-35.99005126953125
 10
-999.9998779296875
 20
-19.79339981079101
 30
-37.46138763427734
 10
-999.9998779296875
 20
-20.23824501037598
 30
-38.4695816040039
 10
-999.9998779296875
 20
-19.79339981079101
 30
-41.66053771972656
 10
-999.9998779296875
 20
-19.08979988098144
 30
-42.50853729248047
 10
-999.9998779296875
 20
-13.24878406524658
 30
-30.41791534423828
 10
-999.9998779296875
 20
-13.77587032318115
 30
-31.89200210571289
 10
-999.9998779296875
 20
-15.63110828399658
 30
-34.39549255371094
 10
-999.9998779296875
 20
-16.88797187805176
 30
-35.32872009277344
 10
-999.9998779296875
 20
-11.17430973052978
 30
-24.10885810852051
 10
-999.9998779296875
 20
-11.71162605285644
 30
-24.24133491516113
 10
-999.9998779296875
 20
-12.3373441696167
 30
-24.62571716308594
 10
-999.9998779296875
 20
-13.85212135314941
 30
-46.77815246582031
 10
-999.9998779296875
 20
-12.96810245513916
 30
-47.49845886230469
 10
-999.9998779296875
 20
-0.7141878008842469
 30
-17.47999572753906
 10
-999.9998779296875
 20
-0.4801242053508759
 30
-71.50082397460938
 10
-999.9998779296875
 20
-0.983266532421112
 30
-71.99595642089843
 10
-999.9998779296875
 20
-1.256016373634338
 30
-73.35295104980469
 10
-999.9998779296875
 20
-0.4801240861415863
 30
-74.49917602539063
 10
-999.9998779296875
 20
-24.0
 30
-20.5000057220459
 10
-999.9998779296875
 20
-32.12494659423828
 30
-16.75775909423828
 10
-999.9998779296875
 20
-20.99999809265137
 30
-50.5
 10
-999.9998779296875
 20
-21.90843391418457
 30
-28.53758239746094
 10
-999.9998779296875
 20
-5.999996662139892
 30
-77.5
 10
-999.9998779296875
 20
-6.442349910736083
 30
-77.49037170410156
 10
-999.9998779296875
 20
-14.52497005462646
 30
-73.08454895019531
 10
-999.9998779296875
 20
-5.999996185302734
 30
-83.0
 10
-999.9998779296875
 20
0.0000007213837989
 30
-16.50333786010742
 10
-999.9998779296875
 20
-0.0000010551225387
 30
-19.49666213989258
 10
-999.9998779296875
 20
0.0000032665154777
 30
-74.72916412353516
 93
     1350
 90
        4
 90
      232
 90
      109
 90
      323
 90
       82
 90
        4
 90
      109
 90
      234
 90
      320
 90
      323
 90
        4
 90
      234
 90
      110
 90
      321
 90
      320
 90
        4
 90
      110
 90
      238
 90
      277
 90
      321
 90
        4
 90
      238
 90
       26
 90
       78
 90
      277
 90
        4
 90
       26
 90
      254
 90
       79
 90
       78
 90
        4
 90
      254
 90
       27
 90
       80
 90
       79
 90
        4
 90
       27
 90
      251
 90
       81
 90
       80
 90
        4
 90
      251
 90
      111
 90
      322
 90
       81
 90
        4
 90
      111
 90
      248
 90
      278
 90
      322
 90
        4
 90
      248
 90
       28
 90
      279
 90
      278
 90
        4
 90
       28
 90
      245
 90
      280
 90
      279
 90
        4
 90
      245
 90
       29
 90
      281
 90
      280
 90
        4
 90
       29
 90
      244
 90
      282
 90
      281
 90
        4
 90
      244
 90
       30
 90
      283
 90
      282
 90
        4
 90
       30
 90
      235
 90
      284
 90
      283
 90
        4
 90
      235
 90
       31
 90
      285
 90
      284
 90
        4
 90
       31
 90
      218
 90
      118
 90
      285
 90
        4
 90
      218
 90
       32
 90
       72
 90
      118
 90
        4
 90
       32
 90
      222
 90
       73
 90
       72
 90
        4
 90
      222
 90
       33
 90
       74
 90
       73
 90
        4
 90
       33
 90
      228
 90
       75
 90
       74
 90
        4
 90
      228
 90
       34
 90
      276
 90
       75
 90
        4
 90
       34
 90
      224
 90
       76
 90
      276
 90
        4
 90
      224
 90
       35
 90
       77
 90
       76
 90
        4
 90
       35
 90
      212
 90
      275
 90
       77
 90
        4
 90
      212
 90
       36
 90
      117
 90
      275
 90
        4
 90
       36
 90
      208
 90
      318
 90
      117
 90
        4
 90
      208
 90
       37
 90
       67
 90
      318
 90
        4
 90
       37
 90
      204
 90
       68
 90
       67
 90
        4
 90
      204
 90
       38
 90
      262
 90
       68
 90
        4
 90
       38
 90
      200
 90
       69
 90
      262
 90
        4
 90
      200
 90
       39
 90
      263
 90
       69
 90
        4
 90
       39
 90
      196
 90
      264
 90
      263
 90
        4
 90
      196
 90
       40
 90
      265
 90
      264
 90
        4
 90
       40
 90
      192
 90
       70
 90
      265
 90
        4
 90
      192
 90
       41
 90
      266
 90
       70
 90
        4
 90
       41
 90
      188
 90
      267
 90
      266
 90
        4
 90
      188
 90
       42
 90
      268
 90
      267
 90
        4
 90
       42
 90
      184
 90
      269
 90
      268
 90
        4
 90
      184
 90
       43
 90
      270
 90
      269
 90
        4
 90
       43
 90
      180
 90
      271
 90
      270
 90
        4
 90
      180
 90
       44
 90
      272
 90
      271
 90
        4
 90
       44
 90
      176
 90
      273
 90
      272
 90
        4
 90
      176
 90
       45
 90
      274
 90
      273
 90
        4
 90
       45
 90
      172
 90
       71
 90
      274
 90
        4
 90
      172
 90
       46
 90
      319
 90
       71
 90
        4
 90
       46
 90
      132
 90
       66
 90
      319
 90
        4
 90
      132
 90
       47
 90
      116
 90
       66
 90
        4
 90
       47
 90
      164
 90
      115
 90
      116
 90
        4
 90
      164
 90
       48
 90
      316
 90
      115
 90
        4
 90
       48
 90
      140
 90
       58
 90
      316
 90
        4
 90
      140
 90
       49
 90
      256
 90
       58
 90
        4
 90
       49
 90
      142
 90
       59
 90
      256
 90
        4
 90
      142
 90
       50
 90
      257
 90
       59
 90
        4
 90
       50
 90
      156
 90
       60
 90
      257
 90
        4
 90
      156
 90
      112
 90
      317
 90
       60
 90
        4
 90
      112
 90
      152
 90
      258
 90
      317
 90
        4
 90
      152
 90
       51
 90
      259
 90
      258
 90
        4
 90
       51
 90
      150
 90
       61
 90
      259
 90
        4
 90
      150
 90
       52
 90
      260
 90
       61
 90
        4
 90
       52
 90
      148
 90
       62
 90
      260
 90
        4
 90
      148
 90
       53
 90
       63
 90
       62
 90
        4
 90
       53
 90
       54
 90
       64
 90
       63
 90
        4
 90
       54
 90
      143
 90
      261
 90
       64
 90
        4
 90
      143
 90
       55
 90
       65
 90
      261
 90
        4
 90
       55
 90
      127
 90
      255
 90
       65
 90
        4
 90
      127
 90
      113
 90
       57
 90
      255
 90
        4
 90
      113
 90
       56
 90
      114
 90
       57
 90
        4
 90
       56
 90
      126
 90
      286
 90
      114
 90
        4
 90
      126
 90
        0
 90
      119
 90
      286
 90
        4
 90
        0
 90
      145
 90
      120
 90
      119
 90
        4
 90
      145
 90
        1
 90
      287
 90
      120
 90
        4
 90
        1
 90
      153
 90
      288
 90
      287
 90
        4
 90
      153
 90
      104
 90
      121
 90
      288
 90
        4
 90
      104
 90
      133
 90
      289
 90
      121
 90
        4
 90
      133
 90
        2
 90
      103
 90
      289
 90
        4
 90
        2
 90
      162
 90
      324
 90
      103
 90
        4
 90
      162
 90
        3
 90
       98
 90
      324
 90
        4
 90
        3
 90
        4
 90
      311
 90
       98
 90
        4
 90
        4
 90
      163
 90
       99
 90
      311
 90
        4
 90
      163
 90
        5
 90
      100
 90
       99
 90
        4
 90
        5
 90
      157
 90
      122
 90
      100
 90
        4
 90
      157
 90
      105
 90
      325
 90
      122
 90
        4
 90
      105
 90
      159
 90
      124
 90
      325
 90
        4
 90
      159
 90
      106
 90
      306
 90
      124
 90
        4
 90
      106
 90
      167
 90
      307
 90
      306
 90
        4
 90
      167
 90
        6
 90
      308
 90
      307
 90
        4
 90
        6
 90
      169
 90
       97
 90
      308
 90
        4
 90
      169
 90
        7
 90
       96
 90
       97
 90
        4
 90
        7
 90
      129
 90
       94
 90
       96
 90
        4
 90
      129
 90
        8
 90
      302
 90
       94
 90
        4
 90
        8
 90
      171
 90
      303
 90
      302
 90
        4
 90
      171
 90
        9
 90
       95
 90
      303
 90
        4
 90
        9
 90
      175
 90
      304
 90
       95
 90
        4
 90
      175
 90
       10
 90
      305
 90
      304
 90
        4
 90
       10
 90
      179
 90
      297
 90
      305
 90
        4
 90
      179
 90
       11
 90
       91
 90
      297
 90
        4
 90
       11
 90
       12
 90
      298
 90
       91
 90
        4
 90
       12
 90
      185
 90
      299
 90
      298
 90
        4
 90
      185
 90
       13
 90
       92
 90
      299
 90
        4
 90
       13
 90
      189
 90
       93
 90
       92
 90
        4
 90
      189
 90
       14
 90
      300
 90
       93
 90
        4
 90
       14
 90
      193
 90
      301
 90
      300
 90
        4
 90
      193
 90
       15
 90
       90
 90
      301
 90
        4
 90
       15
 90
      197
 90
      294
 90
       90
 90
        4
 90
      197
 90
       16
 90
      295
 90
      294
 90
        4
 90
       16
 90
      201
 90
      296
 90
      295
 90
        4
 90
      201
 90
       17
 90
      309
 90
      296
 90
        4
 90
       17
 90
      205
 90
      310
 90
      309
 90
        4
 90
      205
 90
       18
 90
      291
 90
      310
 90
        4
 90
       18
 90
      209
 90
       85
 90
      291
 90
        4
 90
      209
 90
       19
 90
       86
 90
       85
 90
        4
 90
       19
 90
      213
 90
       87
 90
       86
 90
        4
 90
      213
 90
       20
 90
       88
 90
       87
 90
        4
 90
       20
 90
      225
 90
      292
 90
       88
 90
        4
 90
      225
 90
       21
 90
      293
 90
      292
 90
        4
 90
       21
 90
      229
 90
       89
 90
      293
 90
        4
 90
      229
 90
       22
 90
       83
 90
       89
 90
        4
 90
       22
 90
      219
 90
      290
 90
       83
 90
        4
 90
      219
 90
      107
 90
       84
 90
      290
 90
        4
 90
      107
 90
      216
 90
      123
 90
       84
 90
        4
 90
      216
 90
       23
 90
      312
 90
      123
 90
        4
 90
       23
 90
      242
 90
      313
 90
      312
 90
        4
 90
      242
 90
       24
 90
      101
 90
      313
 90
        4
 90
       24
 90
      249
 90
      314
 90
      101
 90
        4
 90
      249
 90
       25
 90
      102
 90
      314
 90
        4
 90
       25
 90
      237
 90
      315
 90
      102
 90
        4
 90
      237
 90
      108
 90
      326
 90
      315
 90
        4
 90
      108
 90
      232
 90
       82
 90
      326
 90
        4
 90
      114
 90
      286
 90
      255
 90
       57
 90
        4
 90
       94
 90
      302
 90
      319
 90
       66
 90
        4
 90
      289
 90
       98
 90
      311
 90
      316
 90
        4
 90
      286
 90
      119
 90
       65
 90
      255
 90
        4
 90
      121
 90
      289
 90
      316
 90
       58
 90
        3
 90
      121
 90
       58
 90
      256
 90
        3
 90
      121
 90
      256
 90
       59
 90
        3
 90
      119
 90
      261
 90
       65
 90
        3
 90
      119
 90
       64
 90
      261
 90
        4
 90
      119
 90
      120
 90
       63
 90
       64
 90
        3
 90
      120
 90
      260
 90
       62
 90
        3
 90
      120
 90
       62
 90
       63
 90
        4
 90
      120
 90
      287
 90
       61
 90
      260
 90
        3
 90
      287
 90
      259
 90
       61
 90
        3
 90
      287
 90
      258
 90
      259
 90
        4
 90
      287
 90
      288
 90
      317
 90
      258
 90
        3
 90
      288
 90
      257
 90
       60
 90
        3
 90
      288
 90
       60
 90
      317
 90
        4
 90
      288
 90
      121
 90
       59
 90
      257
 90
        4
 90
      122
 90
      325
 90
      124
 90
      306
 90
        4
 90
      289
 90
      103
 90
      324
 90
       98
 90
        4
 90
      311
 90
       99
 90
      115
 90
      316
 90
        4
 90
       99
 90
      100
 90
      116
 90
      115
 90
        5
 90
      100
 90
      122
 90
      306
 90
      307
 90
      116
 90
        3
 90
      307
 90
      308
 90
      116
 90
        3
 90
      308
 90
       97
 90
      116
 90
        3
 90
       97
 90
       96
 90
      116
 90
        4
 90
       96
 90
       94
 90
       66
 90
      116
 90
        4
 90
      302
 90
      303
 90
       71
 90
      319
 90
        4
 90
      303
 90
       95
 90
      274
 90
       71
 90
        4
 90
       95
 90
      304
 90
      273
 90
      274
 90
        4
 90
      304
 90
      305
 90
      272
 90
      273
 90
        4
 90
      305
 90
      297
 90
      271
 90
      272
 90
        4
 90
      297
 90
       91
 90
      270
 90
      271
 90
        4
 90
       91
 90
      298
 90
      269
 90
      270
 90
        4
 90
      298
 90
      299
 90
      268
 90
      269
 90
        4
 90
      299
 90
       92
 90
      267
 90
      268
 90
        4
 90
       92
 90
       93
 90
      266
 90
      267
 90
        4
 90
       93
 90
      300
 90
       70
 90
      266
 90
        4
 90
      300
 90
      301
 90
      265
 90
       70
 90
        4
 90
      301
 90
       90
 90
      264
 90
      265
 90
        4
 90
       90
 90
      294
 90
      263
 90
      264
 90
        4
 90
      294
 90
      295
 90
       69
 90
      263
 90
        4
 90
      295
 90
      296
 90
      262
 90
       69
 90
        4
 90
      296
 90
      309
 90
       68
 90
      262
 90
        4
 90
      309
 90
      310
 90
       67
 90
       68
 90
        4
 90
      310
 90
      291
 90
      318
 90
       67
 90
        4
 90
      291
 90
       85
 90
      117
 90
      318
 90
        4
 90
       85
 90
       86
 90
      275
 90
      117
 90
        4
 90
       86
 90
       87
 90
       77
 90
      275
 90
        4
 90
       84
 90
      123
 90
      285
 90
      118
 90
        4
 90
      290
 90
       84
 90
      118
 90
       72
 90
        4
 90
       83
 90
      290
 90
       72
 90
       73
 90
        4
 90
       87
 90
       88
 90
       76
 90
       77
 90
        4
 90
       88
 90
      292
 90
      276
 90
       76
 90
        4
 90
      292
 90
      293
 90
       75
 90
      276
 90
        4
 90
      293
 90
       89
 90
       74
 90
       75
 90
        4
 90
       89
 90
       83
 90
       73
 90
       74
 90
        4
 90
      326
 90
       82
 90
      323
 90
      320
 90
        3
 90
      123
 90
      284
 90
      285
 90
        3
 90
      326
 90
      320
 90
      321
 90
        4
 90
      315
 90
      326
 90
      321
 90
      277
 90
        3
 90
      315
 90
      277
 90
       78
 90
        4
 90
      123
 90
      312
 90
      283
 90
      284
 90
        4
 90
      312
 90
      313
 90
      281
 90
      282
 90
        3
 90
      312
 90
      282
 90
      283
 90
        3
 90
      313
 90
      280
 90
      281
 90
        4
 90
      313
 90
      101
 90
      279
 90
      280
 90
        3
 90
      101
 90
      278
 90
      279
 90
        4
 90
      101
 90
      314
 90
      322
 90
      278
 90
        3
 90
      314
 90
       81
 90
      322
 90
        4
 90
      314
 90
      102
 90
       80
 90
       81
 90
        3
 90
      102
 90
       79
 90
       80
 90
        4
 90
      102
 90
      315
 90
       78
 90
       79
 90
        4
 90
      125
 90
      126
 90
      127
 90
      128
 90
        4
 90
      129
 90
      130
 90
      131
 90
      132
 90
        4
 90
      133
 90
      134
 90
      135
 90
      136
 90
        4
 90
      126
 90
      137
 90
      138
 90
      127
 90
        4
 90
      139
 90
      133
 90
      136
 90
      140
 90
        3
 90
      139
 90
      140
 90
      141
 90
        3
 90
      139
 90
      141
 90
      142
 90
        3
 90
      137
 90
      143
 90
      138
 90
        3
 90
      137
 90
      144
 90
      143
 90
        4
 90
      137
 90
      145
 90
      146
 90
      144
 90
        3
 90
      145
 90
      147
 90
      148
 90
        3
 90
      145
 90
      148
 90
      146
 90
        4
 90
      145
 90
      149
 90
      150
 90
      147
 90
        3
 90
      149
 90
      151
 90
      150
 90
        3
 90
      149
 90
      152
 90
      151
 90
        4
 90
      149
 90
      153
 90
      154
 90
      152
 90
        3
 90
      153
 90
      155
 90
      156
 90
        3
 90
      153
 90
      156
 90
      154
 90
        4
 90
      153
 90
      139
 90
      142
 90
      155
 90
        4
 90
      157
 90
      158
 90
      159
 90
      160
 90
        4
 90
      133
 90
      161
 90
      162
 90
      134
 90
        4
 90
      135
 90
      163
 90
      164
 90
      136
 90
        4
 90
      163
 90
      165
 90
      166
 90
      164
 90
        5
 90
      165
 90
      157
 90
      160
 90
      167
 90
      166
 90
        3
 90
      167
 90
      168
 90
      166
 90
        3
 90
      168
 90
      169
 90
      166
 90
        3
 90
      169
 90
      170
 90
      166
 90
        4
 90
      170
 90
      129
 90
      132
 90
      166
 90
        4
 90
      130
 90
      171
 90
      172
 90
      131
 90
        4
 90
      171
 90
      173
 90
      174
 90
      172
 90
        4
 90
      173
 90
      175
 90
      176
 90
      174
 90
        4
 90
      175
 90
      177
 90
      178
 90
      176
 90
        4
 90
      177
 90
      179
 90
      180
 90
      178
 90
        4
 90
      179
 90
      181
 90
      182
 90
      180
 90
        4
 90
      181
 90
      183
 90
      184
 90
      182
 90
        4
 90
      183
 90
      185
 90
      186
 90
      184
 90
        4
 90
      185
 90
      187
 90
      188
 90
      186
 90
        4
 90
      187
 90
      189
 90
      190
 90
      188
 90
        4
 90
      189
 90
      191
 90
      192
 90
      190
 90
        4
 90
      191
 90
      193
 90
      194
 90
      192
 90
        4
 90
      193
 90
      195
 90
      196
 90
      194
 90
        4
 90
      195
 90
      197
 90
      198
 90
      196
 90
        4
 90
      197
 90
      199
 90
      200
 90
      198
 90
        4
 90
      199
 90
      201
 90
      202
 90
      200
 90
        4
 90
      201
 90
      203
 90
      204
 90
      202
 90
        4
 90
      203
 90
      205
 90
      206
 90
      204
 90
        4
 90
      205
 90
      207
 90
      208
 90
      206
 90
        4
 90
      207
 90
      209
 90
      210
 90
      208
 90
        4
 90
      209
 90
      211
 90
      212
 90
      210
 90
        4
 90
      211
 90
      213
 90
      214
 90
      212
 90
        4
 90
      215
 90
      216
 90
      217
 90
      218
 90
        4
 90
      219
 90
      215
 90
      218
 90
      220
 90
        4
 90
      221
 90
      219
 90
      220
 90
      222
 90
        4
 90
      213
 90
      223
 90
      224
 90
      214
 90
        4
 90
      223
 90
      225
 90
      226
 90
      224
 90
        4
 90
      225
 90
      227
 90
      228
 90
      226
 90
        4
 90
      227
 90
      229
 90
      230
 90
      228
 90
        4
 90
      229
 90
      221
 90
      222
 90
      230
 90
        4
 90
      231
 90
      232
 90
      233
 90
      234
 90
        3
 90
      216
 90
      235
 90
      217
 90
        3
 90
      231
 90
      234
 90
      236
 90
        4
 90
      237
 90
      231
 90
      236
 90
      238
 90
        3
 90
      237
 90
      238
 90
      239
 90
        4
 90
      216
 90
      240
 90
      241
 90
      235
 90
        4
 90
      240
 90
      242
 90
      243
 90
      244
 90
        3
 90
      240
 90
      244
 90
      241
 90
        3
 90
      242
 90
      245
 90
      243
 90
        4
 90
      242
 90
      246
 90
      247
 90
      245
 90
        3
 90
      246
 90
      248
 90
      247
 90
        4
 90
      246
 90
      249
 90
      250
 90
      248
 90
        3
 90
      249
 90
      251
 90
      250
 90
        4
 90
      249
 90
      252
 90
      253
 90
      251
 90
        3
 90
      252
 90
      254
 90
      253
 90
        4
 90
      252
 90
      237
 90
      239
 90
      254
 94
      666
 90
      109
 90
      232
 90
      109
 90
      323
 90
       82
 90
      323
 90
       82
 90
      232
 90
      109
 90
      234
 90
      234
 90
      320
 90
      320
 90
      323
 90
      110
 90
      234
 90
      110
 90
      321
 90
      320
 90
      321
 90
      110
 90
      238
 90
      238
 90
      277
 90
      277
 90
      321
 90
       26
 90
      238
 90
       26
 90
       78
 90
       78
 90
      277
 90
       26
 90
      254
 90
       79
 90
      254
 90
       78
 90
       79
 90
       27
 90
      254
 90
       27
 90
       80
 90
       79
 90
       80
 90
       27
 90
      251
 90
       81
 90
      251
 90
       80
 90
       81
 90
      111
 90
      251
 90
      111
 90
      322
 90
       81
 90
      322
 90
      111
 90
      248
 90
      248
 90
      278
 90
      278
 90
      322
 90
       28
 90
      248
 90
       28
 90
      279
 90
      278
 90
      279
 90
       28
 90
      245
 90
      245
 90
      280
 90
      279
 90
      280
 90
       29
 90
      245
 90
       29
 90
      281
 90
      280
 90
      281
 90
       29
 90
      244
 90
      244
 90
      282
 90
      281
 90
      282
 90
       30
 90
      244
 90
       30
 90
      283
 90
      282
 90
      283
 90
       30
 90
      235
 90
      235
 90
      284
 90
      283
 90
      284
 90
       31
 90
      235
 90
       31
 90
      285
 90
      284
 90
      285
 90
       31
 90
      218
 90
      118
 90
      218
 90
      118
 90
      285
 90
       32
 90
      218
 90
       32
 90
       72
 90
       72
 90
      118
 90
       32
 90
      222
 90
       73
 90
      222
 90
       72
 90
       73
 90
       33
 90
      222
 90
       33
 90
       74
 90
       73
 90
       74
 90
       33
 90
      228
 90
       75
 90
      228
 90
       74
 90
       75
 90
       34
 90
      228
 90
       34
 90
      276
 90
       75
 90
      276
 90
       34
 90
      224
 90
       76
 90
      224
 90
       76
 90
      276
 90
       35
 90
      224
 90
       35
 90
       77
 90
       76
 90
       77
 90
       35
 90
      212
 90
      212
 90
      275
 90
       77
 90
      275
 90
       36
 90
      212
 90
       36
 90
      117
 90
      117
 90
      275
 90
       36
 90
      208
 90
      208
 90
      318
 90
      117
 90
      318
 90
       37
 90
      208
 90
       37
 90
       67
 90
       67
 90
      318
 90
       37
 90
      204
 90
       68
 90
      204
 90
       67
 90
       68
 90
       38
 90
      204
 90
       38
 90
      262
 90
       68
 90
      262
 90
       38
 90
      200
 90
       69
 90
      200
 90
       69
 90
      262
 90
       39
 90
      200
 90
       39
 90
      263
 90
       69
 90
      263
 90
       39
 90
      196
 90
      196
 90
      264
 90
      263
 90
      264
 90
       40
 90
      196
 90
       40
 90
      265
 90
      264
 90
      265
 90
       40
 90
      192
 90
       70
 90
      192
 90
       70
 90
      265
 90
       41
 90
      192
 90
       41
 90
      266
 90
       70
 90
      266
 90
       41
 90
      188
 90
      188
 90
      267
 90
      266
 90
      267
 90
       42
 90
      188
 90
       42
 90
      268
 90
      267
 90
      268
 90
       42
 90
      184
 90
      184
 90
      269
 90
      268
 90
      269
 90
       43
 90
      184
 90
       43
 90
      270
 90
      269
 90
      270
 90
       43
 90
      180
 90
      180
 90
      271
 90
      270
 90
      271
 90
       44
 90
      180
 90
       44
 90
      272
 90
      271
 90
      272
 90
       44
 90
      176
 90
      176
 90
      273
 90
      272
 90
      273
 90
       45
 90
      176
 90
       45
 90
      274
 90
      273
 90
      274
 90
       45
 90
      172
 90
       71
 90
      172
 90
       71
 90
      274
 90
       46
 90
      172
 90
       46
 90
      319
 90
       71
 90
      319
 90
       46
 90
      132
 90
       66
 90
      132
 90
       66
 90
      319
 90
       47
 90
      132
 90
       47
 90
      116
 90
       66
 90
      116
 90
       47
 90
      164
 90
      115
 90
      164
 90
      115
 90
      116
 90
       48
 90
      164
 90
       48
 90
      316
 90
      115
 90
      316
 90
       48
 90
      140
 90
       58
 90
      140
 90
       58
 90
      316
 90
       49
 90
      140
 90
       49
 90
      256
 90
       58
 90
      256
 90
       49
 90
      142
 90
       59
 90
      142
 90
       59
 90
      256
 90
       50
 90
      142
 90
       50
 90
      257
 90
       59
 90
      257
 90
       50
 90
      156
 90
       60
 90
      156
 90
       60
 90
      257
 90
      112
 90
      156
 90
      112
 90
      317
 90
       60
 90
      317
 90
      112
 90
      152
 90
      152
 90
      258
 90
      258
 90
      317
 90
       51
 90
      152
 90
       51
 90
      259
 90
      258
 90
      259
 90
       51
 90
      150
 90
       61
 90
      150
 90
       61
 90
      259
 90
       52
 90
      150
 90
       52
 90
      260
 90
       61
 90
      260
 90
       52
 90
      148
 90
       62
 90
      148
 90
       62
 90
      260
 90
       53
 90
      148
 90
       53
 90
       63
 90
       62
 90
       63
 90
       53
 90
       54
 90
       54
 90
       64
 90
       63
 90
       64
 90
       54
 90
      143
 90
      143
 90
      261
 90
       64
 90
      261
 90
       55
 90
      143
 90
       55
 90
       65
 90
       65
 90
      261
 90
       55
 90
      127
 90
      127
 90
      255
 90
       65
 90
      255
 90
      113
 90
      127
 90
       57
 90
      113
 90
       57
 90
      255
 90
       56
 90
      113
 90
       56
 90
      114
 90
       57
 90
      114
 90
       56
 90
      126
 90
      126
 90
      286
 90
      114
 90
      286
 90
        0
 90
      126
 90
        0
 90
      119
 90
      119
 90
      286
 90
        0
 90
      145
 90
      120
 90
      145
 90
      119
 90
      120
 90
        1
 90
      145
 90
        1
 90
      287
 90
      120
 90
      287
 90
        1
 90
      153
 90
      153
 90
      288
 90
      287
 90
      288
 90
      104
 90
      153
 90
      104
 90
      121
 90
      121
 90
      288
 90
      104
 90
      133
 90
      133
 90
      289
 90
      121
 90
      289
 90
        2
 90
      133
 90
        2
 90
      103
 90
      103
 90
      289
 90
        2
 90
      162
 90
      162
 90
      324
 90
      103
 90
      324
 90
        3
 90
      162
 90
        3
 90
       98
 90
       98
 90
      324
 90
        3
 90
        4
 90
        4
 90
      311
 90
       98
 90
      311
 90
        4
 90
      163
 90
       99
 90
      163
 90
       99
 90
      311
 90
        5
 90
      163
 90
        5
 90
      100
 90
       99
 90
      100
 90
        5
 90
      157
 90
      122
 90
      157
 90
      100
 90
      122
 90
      105
 90
      157
 90
      105
 90
      325
 90
      122
 90
      325
 90
      105
 90
      159
 90
      124
 90
      159
 90
      124
 90
      325
 90
      106
 90
      159
 90
      106
 90
      306
 90
      124
 90
      306
 90
      106
 90
      167
 90
      167
 90
      307
 90
      306
 90
      307
 90
        6
 90
      167
 90
        6
 90
      308
 90
      307
 90
      308
 90
        6
 90
      169
 90
       97
 90
      169
 90
       97
 90
      308
 90
        7
 90
      169
 90
        7
 90
       96
 90
       96
 90
       97
 90
        7
 90
      129
 90
       94
 90
      129
 90
       94
 90
       96
 90
        8
 90
      129
 90
        8
 90
      302
 90
       94
 90
      302
 90
        8
 90
      171
 90
      171
 90
      303
 90
      302
 90
      303
 90
        9
 90
      171
 90
        9
 90
       95
 90
       95
 90
      303
 90
        9
 90
      175
 90
      175
 90
      304
 90
       95
 90
      304
 90
       10
 90
      175
 90
       10
 90
      305
 90
      304
 90
      305
 90
       10
 90
      179
 90
      179
 90
      297
 90
      297
 90
      305
 90
       11
 90
      179
 90
       11
 90
       91
 90
       91
 90
      297
 90
       11
 90
       12
 90
       12
 90
      298
 90
       91
 90
      298
 90
       12
 90
      185
 90
      185
 90
      299
 90
      298
 90
      299
 90
       13
 90
      185
 90
       13
 90
       92
 90
       92
 90
      299
 90
       13
 90
      189
 90
       93
 90
      189
 90
       92
 90
       93
 90
       14
 90
      189
 90
       14
 90
      300
 90
       93
 90
      300
 90
       14
 90
      193
 90
      193
 90
      301
 90
      300
 90
      301
 90
       15
 90
      193
 90
       15
 90
       90
 90
       90
 90
      301
 90
       15
 90
      197
 90
      197
 90
      294
 90
       90
 90
      294
 90
       16
 90
      197
 90
       16
 90
      295
 90
      294
 90
      295
 90
       16
 90
      201
 90
      201
 90
      296
 90
      295
 90
      296
 90
       17
 90
      201
 90
       17
 90
      309
 90
      296
 90
      309
 90
       17
 90
      205
 90
      205
 90
      310
 90
      309
 90
      310
 90
       18
 90
      205
 90
       18
 90
      291
 90
      291
 90
      310
 90
       18
 90
      209
 90
       85
 90
      209
 90
       85
 90
      291
 90
       19
 90
      209
 90
       19
 90
       86
 90
       85
 90
       86
 90
       19
 90
      213
 90
       87
 90
      213
 90
       86
 90
       87
 90
       20
 90
      213
 90
       20
 90
       88
 90
       87
 90
       88
 90
       20
 90
      225
 90
      225
 90
      292
 90
       88
 90
      292
 90
       21
 90
      225
 90
       21
 90
      293
 90
      292
 90
      293
 90
       21
 90
      229
 90
       89
 90
      229
 90
       89
 90
      293
 90
       22
 90
      229
 90
       22
 90
       83
 90
       83
 90
       89
 90
       22
 90
      219
 90
      219
 90
      290
 90
       83
 90
      290
 90
      107
 90
      219
 90
       84
 90
      107
 90
       84
 90
      290
 90
      107
 90
      216
 90
      123
 90
      216
 90
       84
 90
      123
 90
       23
 90
      216
 90
       23
 90
      312
 90
      123
 90
      312
 90
       23
 90
      242
 90
      242
 90
      313
 90
      312
 90
      313
 90
       24
 90
      242
 90
       24
 90
      101
 90
      101
 90
      313
 90
       24
 90
      249
 90
      249
 90
      314
 90
      101
 90
      314
 90
       25
 90
      249
 90
       25
 90
      102
 90
      102
 90
      314
 90
       25
 90
      237
 90
      237
 90
      315
 90
      102
 90
      315
 90
      108
 90
      237
 90
      108
 90
      326
 90
      315
 90
      326
 90
      108
 90
      232
 90
       82
 90
      326
 90
      255
 90
      286
 90
      302
 90
      319
 90
       66
 90
       94
 90
       98
 90
      289
 90
      311
 90
      316
 90
      289
 90
      316
 90
       65
 90
      119
 90
       58
 90
      121
 90
      121
 90
      256
 90
       59
 90
      121
 90
      119
 90
      261
 90
       64
 90
      119
 90
       63
 90
      120
 90
      120
 90
      260
 90
       62
 90
      120
 90
       61
 90
      287
 90
      259
 90
      287
 90
      258
 90
      287
 90
      288
 90
      317
 90
      257
 90
      288
 90
       60
 90
      288
 90
      122
 90
      306
 90
       99
 90
      115
 90
      100
 90
      116
 90
      116
 90
      307
 90
      116
 90
      308
 90
       97
 90
      116
 90
       96
 90
      116
 90
       71
 90
      303
 90
       95
 90
      274
 90
      273
 90
      304
 90
      272
 90
      305
 90
      271
 90
      297
 90
       91
 90
      270
 90
      269
 90
      298
 90
      268
 90
      299
 90
       92
 90
      267
 90
       93
 90
      266
 90
       70
 90
      300
 90
      265
 90
      301
 90
       90
 90
      264
 90
      263
 90
      294
 90
       69
 90
      295
 90
      262
 90
      296
 90
       68
 90
      309
 90
       67
 90
      310
 90
      291
 90
      318
 90
       85
 90
      117
 90
       86
 90
      275
 90
       77
 90
       87
 90
      123
 90
      285
 90
       84
 90
      118
 90
       72
 90
      290
 90
       73
 90
       83
 90
       76
 90
       88
 90
      276
 90
      292
 90
       75
 90
      293
 90
       74
 90
       89
 90
      320
 90
      326
 90
      123
 90
      284
 90
      321
 90
      326
 90
      277
 90
      315
 90
       78
 90
      315
 90
      283
 90
      312
 90
      281
 90
      313
 90
      282
 90
      312
 90
      280
 90
      313
 90
      101
 90
      279
 90
      101
 90
      278
 90
      314
 90
      322
 90
       81
 90
      314
 90
       80
 90
      102
 90
       79
 90
      102
 90
      125
 90
      126
 90
      126
 90
      127
 90
      127
 90
      128
 90
      125
 90
      128
 90
      129
 90
      130
 90
      130
 90
      131
 90
      131
 90
      132
 90
      129
 90
      132
 90
      133
 90
      134
 90
      134
 90
      135
 90
      135
 90
      136
 90
      133
 90
      136
 90
      126
 90
      137
 90
      137
 90
      138
 90
      127
 90
      138
 90
      133
 90
      139
 90
      136
 90
      140
 90
      139
 90
      140
 90
      140
 90
      141
 90
      139
 90
      141
 90
      141
 90
      142
 90
      139
 90
      142
 90
      137
 90
      143
 90
      138
 90
      143
 90
      137
 90
      144
 90
      143
 90
      144
 90
      137
 90
      145
 90
      145
 90
      146
 90
      144
 90
      146
 90
      145
 90
      147
 90
      147
 90
      148
 90
      145
 90
      148
 90
      146
 90
      148
 90
      145
 90
      149
 90
      149
 90
      150
 90
      147
 90
      150
 90
      149
 90
      151
 90
      150
 90
      151
 90
      149
 90
      152
 90
      151
 90
      152
 90
      149
 90
      153
 90
      153
 90
      154
 90
      152
 90
      154
 90
      153
 90
      155
 90
      155
 90
      156
 90
      153
 90
      156
 90
      154
 90
      156
 90
      139
 90
      153
 90
      142
 90
      155
 90
      157
 90
      158
 90
      158
 90
      159
 90
      159
 90
      160
 90
      157
 90
      160
 90
      133
 90
      161
 90
      161
 90
      162
 90
      134
 90
      162
 90
      135
 90
      163
 90
      163
 90
      164
 90
      136
 90
      164
 90
      163
 90
      165
 90
      165
 90
      166
 90
      164
 90
      166
 90
      157
 90
      165
 90
      160
 90
      167
 90
      166
 90
      167
 90
      167
 90
      168
 90
      166
 90
      168
 90
      168
 90
      169
 90
      166
 90
      169
 90
      169
 90
      170
 90
      166
 90
      170
 90
      129
 90
      170
 90
      132
 90
      166
 90
      130
 90
      171
 90
      171
 90
      172
 90
      131
 90
      172
 90
      171
 90
      173
 90
      173
 90
      174
 90
      172
 90
      174
 90
      173
 90
      175
 90
      175
 90
      176
 90
      174
 90
      176
 90
      175
 90
      177
 90
      177
 90
      178
 90
      176
 90
      178
 90
      177
 90
      179
 90
      179
 90
      180
 90
      178
 90
      180
 90
      179
 90
      181
 90
      181
 90
      182
 90
      180
 90
      182
 90
      181
 90
      183
 90
      183
 90
      184
 90
      182
 90
      184
 90
      183
 90
      185
 90
      185
 90
      186
 90
      184
 90
      186
 90
      185
 90
      187
 90
      187
 90
      188
 90
      186
 90
      188
 90
      187
 90
      189
 90
      189
 90
      190
 90
      188
 90
      190
 90
      189
 90
      191
 90
      191
 90
      192
 90
      190
 90
      192
 90
      191
 90
      193
 90
      193
 90
      194
 90
      192
 90
      194
 90
      193
 90
      195
 90
      195
 90
      196
 90
      194
 90
      196
 90
      195
 90
      197
 90
      197
 90
      198
 90
      196
 90
      198
 90
      197
 90
      199
 90
      199
 90
      200
 90
      198
 90
      200
 90
      199
 90
      201
 90
      201
 90
      202
 90
      200
 90
      202
 90
      201
 90
      203
 90
      203
 90
      204
 90
      202
 90
      204
 90
      203
 90
      205
 90
      205
 90
      206
 90
      204
 90
      206
 90
      205
 90
      207
 90
      207
 90
      208
 90
      206
 90
      208
 90
      207
 90
      209
 90
      209
 90
      210
 90
      208
 90
      210
 90
      209
 90
      211
 90
      211
 90
      212
 90
      210
 90
      212
 90
      211
 90
      213
 90
      213
 90
      214
 90
      212
 90
      214
 90
      215
 90
      216
 90
      216
 90
      217
 90
      217
 90
      218
 90
      215
 90
      218
 90
      215
 90
      219
 90
      218
 90
      220
 90
      219
 90
      220
 90
      219
 90
      221
 90
      220
 90
      222
 90
      221
 90
      222
 90
      213
 90
      223
 90
      223
 90
      224
 90
      214
 90
      224
 90
      223
 90
      225
 90
      225
 90
      226
 90
      224
 90
      226
 90
      225
 90
      227
 90
      227
 90
      228
 90
      226
 90
      228
 90
      227
 90
      229
 90
      229
 90
      230
 90
      228
 90
      230
 90
      221
 90
      229
 90
      222
 90
      230
 90
      231
 90
      232
 90
      232
 90
      233
 90
      233
 90
      234
 90
      231
 90
      234
 90
      216
 90
      235
 90
      217
 90
      235
 90
      234
 90
      236
 90
      231
 90
      236
 90
      231
 90
      237
 90
      236
 90
      238
 90
      237
 90
      238
 90
      238
 90
      239
 90
      237
 90
      239
 90
      216
 90
      240
 90
      240
 90
      241
 90
      235
 90
      241
 90
      240
 90
      242
 90
      242
 90
      243
 90
      243
 90
      244
 90
      240
 90
      244
 90
      241
 90
      244
 90
      242
 90
      245
 90
      243
 90
      245
 90
      242
 90
      246
 90
      246
 90
      247
 90
      245
 90
      247
 90
      246
 90
      248
 90
      247
 90
      248
 90
      246
 90
      249
 90
      249
 90
      250
 90
      248
 90
      250
 90
      249
 90
      251
 90
      250
 90
      251
 90
      249
 90
      252
 90
      252
 90
      253
 90
      251
 90
      253
 90
      252
 90
      254
 90
      253
 90
      254
 90
      237
 90
      252
 90
      239
 90
      254
 95
      666
140
0.0
140
0.0
140
0.0
140
0.0
140
0.0
140
0.0
140
0.0
140
0.0
140
0.0
140
0.0
140
0.0
140
0.0
140
0.0
140
0.0
140
0.0
140
0.0
140
0.0
140
0.0
140
0.0
140
0.0
140
0.0
140
0.0
140
0.0
140
0.0
140
0.0
140
0.0
140
0.0
140
0.0
140
0.0
140
0.0
140
0.0
140
0.0
140
0.0
140
0.0
140
0.0
140
0.0
140
0.0
140
0.0
140
0.0
140
0.0
140
0.0
140
0.0
140
0.0
140
0.0
140
0.0
140
0.0
140
0.0
140
0.0
140
0.0
140
0.0
140
0.0
140
0.0
140
0.0
140
0.0
140
0.0
140
0.0
140
0.0
140
0.0
140
0.0
140
0.0
140
0.0
140
0.0
140
0.0
140
0.0
140
0.0
140
0.0
140
0.0
140
0.0
140
0.0
140
0.0
140
0.0
140
0.0
140
0.0
140
0.0
140
0.0
140
0.0
140
0.0
140
0.0
140
0.0
140
0.0
140
0.0
140
0.0
140
0.0
140
0.0
140
0.0
140
0.0
140
0.0
140
0.0
140
0.0
140
0.0
140
0.0
140
0.0
140
0.0
140
0.0
140
0.0
140
0.0
140
0.0
140
0.0
140
0.0
140
0.0
140
0.0
140
0.0
140
0.0
140
0.0
140
0.0
140
0.0
140
0.0
140
0.0
140
0.0
140
0.0
140
0.0
140
0.0
140
0.0
140
0.0
140
0.0
140
0.0
140
0.0
140
0.0
140
0.0
140
0.0
140
0.0
140
0.0
140
0.0
140
0.0
140
0.0
140
0.0
140
0.0
140
0.0
140
0.0
140
0.0
140
0.0
140
0.0
140
0.0
140
0.0
140
0.0
140
0.0
140
0.0
140
0.0
140
0.0
140
0.0
140
0.0
140
0.0
140
0.0
140
0.0
140
0.0
140
0.0
140
0.0
140
0.0
140
0.0
140
0.0
140
0.0
140
0.0
140
0.0
140
0.0
140
0.0
140
0.0
140
0.0
140
0.0
140
0.0
140
0.0
140
0.0
140
0.0
140
0.0
140
0.0
140
0.0
140
0.0
140
0.0
140
0.0
140
0.0
140
0.0
140
0.0
140
0.0
140
0.0
140
0.0
140
0.0
140
0.0
140
0.0
140
0.0
140
0.0
140
0.0
140
0.0
140
0.0
140
0.0
140
0.0
140
0.0
140
0.0
140
0.0
140
0.0
140
0.0
140
0.0
140
0.0
140
0.0
140
0.0
140
0.0
140
0.0
140
0.0
140
0.0
140
0.0
140
0.0
140
0.0
140
0.0
140
0.0
140
0.0
140
0.0
140
0.0
140
0.0
140
0.0
140
0.0
140
0.0
140
0.0
140
0.0
140
0.0
140
0.0
140
0.0
140
0.0
140
0.0
140
0.0
140
0.0
140
0.0
140
0.0
140
0.0
140
0.0
140
0.0
140
0.0
140
0.0
140
0.0
140
0.0
140
0.0
140
0.0
140
0.0
140
0.0
140
0.0
140
0.0
140
0.0
140
0.0
140
0.0
140
0.0
140
0.0
140
0.0
140
0.0
140
0.0
140
0.0
140
0.0
140
0.0
140
0.0
140
0.0
140
0.0
140
0.0
140
0.0
140
0.0
140
0.0
140
0.0
140
0.0
140
0.0
140
0.0
140
0.0
140
0.0
140
0.0
140
0.0
140
0.0
140
0.0
140
0.0
140
0.0
140
0.0
140
0.0
140
0.0
140
0.0
140
0.0
140
0.0
140
0.0
140
0.0
140
0.0
140
0.0
140
0.0
140
0.0
140
0.0
140
0.0
140
0.0
140
0.0
140
0.0
140
0.0
140
0.0
140
0.0
140
0.0
140
0.0
140
0.0
140
0.0
140
0.0
140
0.0
140
0.0
140
0.0
140
0.0
140
0.0
140
0.0
140
0.0
140
0.0
140
0.0
140
0.0
140
0.0
140
0.0
140
0.0
140
0.0
140
0.0
140
0.0
140
0.0
140
0.0
140
0.0
140
0.0
140
0.0
140
0.0
140
0.0
140
0.0
140
0.0
140
0.0
140
0.0
140
0.0
140
0.0
140
0.0
140
0.0
140
0.0
140
0.0
140
0.0
140
0.0
140
0.0
140
0.0
140
0.0
140
0.0
140
0.0
140
0.0
140
0.0
140
0.0
140
0.0
140
0.0
140
0.0
140
0.0
140
0.0
140
0.0
140
0.0
140
0.0
140
0.0
140
0.0
140
0.0
140
0.0
140
0.0
140
0.0
140
0.0
140
0.0
140
0.0
140
0.0
140
0.0
140
0.0
140
0.0
140
0.0
140
0.0
140
0.0
140
0.0
140
0.0
140
0.0
140
0.0
140
0.0
140
0.0
140
0.0
140
0.0
140
0.0
140
0.0
140
0.0
140
0.0
140
0.0
140
0.0
140
0.0
140
0.0
140
0.0
140
0.0
140
0.0
140
0.0
140
0.0
140
0.0
140
0.0
140
0.0
140
0.0
140
0.0
140
0.0
140
0.0
140
0.0
140
0.0
140
0.0
140
0.0
140
0.0
140
0.0
140
0.0
140
0.0
140
0.0
140
0.0
140
0.0
140
0.0
140
0.0
140
0.0
140
0.0
140
0.0
140
0.0
140
0.0
140
0.0
140
0.0
140
0.0
140
0.0
140
0.0
140
0.0
140
0.0
140
0.0
140
0.0
140
0.0
140
0.0
140
0.0
140
0.0
140
0.0
140
0.0
140
0.0
140
0.0
140
0.0
140
0.0
140
0.0
140
0.0
140
0.0
140
0.0
140
0.0
140
0.0
140
0.0
140
0.0
140
0.0
140
0.0
140
0.0
140
0.0
140
0.0
140
0.0
140
0.0
140
0.0
140
0.0
140
0.0
140
0.0
140
0.0
140
0.0
140
0.0
140
0.0
140
0.0
140
0.0
140
0.0
140
0.0
140
0.0
140
0.0
140
0.0
140
0.0
140
0.0
140
0.0
140
0.0
140
0.0
140
0.0
140
0.0
140
0.0
140
0.0
140
0.0
140
0.0
140
0.0
140
0.0
140
0.0
140
0.0
140
0.0
140
0.0
140
0.0
140
0.0
140
0.0
140
0.0
140
0.0
140
0.0
140
0.0
140
0.0
140
0.0
140
0.0
140
0.0
140
0.0
140
0.0
140
0.0
140
0.0
140
0.0
140
0.0
140
0.0
140
0.0
140
0.0
140
0.0
140
0.0
140
0.0
140
0.0
140
0.0
140
0.0
140
0.0
140
0.0
140
0.0
140
0.0
140
0.0
140
0.0
140
0.0
140
0.0
140
0.0
140
0.0
140
0.0
140
0.0
140
0.0
140
0.0
140
0.0
140
0.0
140
0.0
140
0.0
140
0.0
140
0.0
140
0.0
140
0.0
140
0.0
140
0.0
140
0.0
140
0.0
140
0.0
140
0.0
140
0.0
140
0.0
140
0.0
140
0.0
140
0.0
140
0.0
140
0.0
140
0.0
140
0.0
140
0.0
140
0.0
140
0.0
140
0.0
140
0.0
140
0.0
140
0.0
140
0.0
140
0.0
140
0.0
140
0.0
140
0.0
140
0.0
140
0.0
140
0.0
140
0.0
140
0.0
140
0.0
140
0.0
140
0.0
140
0.0
140
0.0
140
0.0
140
0.0
140
0.0
140
0.0
140
0.0
140
0.0
140
0.0
140
0.0
140
0.0
140
0.0
140
0.0
140
0.0
140
0.0
140
0.0
140
0.0
140
0.0
140
0.0
140
0.0
140
0.0
140
0.0
140
0.0
140
0.0
140
0.0
140
0.0
140
0.0
140
0.0
140
0.0
140
0.0
140
0.0
140
0.0
140
0.0
140
0.0
140
0.0
140
0.0
140
0.0
140
0.0
140
0.0
140
0.0
140
0.0
140
0.0
140
0.0
140
0.0
140
0.0
140
0.0
140
0.0
140
0.0
140
0.0
140
0.0
140
0.0
140
0.0
140
0.0
140
0.0
140
0.0
140
0.0
140
0.0
140
0.0
140
0.0
140
0.0
140
0.0
140
0.0
140
0.0
140
0.0
140
0.0
140
0.0
140
0.0
140
0.0
140
0.0
140
0.0
140
0.0
140
0.0
140
0.0
140
0.0
140
0.0
140
0.0
140
0.0
140
0.0
140
0.0
140
0.0
140
0.0
140
0.0
140
0.0
140
0.0
140
0.0
140
0.0
140
0.0
140
0.0
140
0.0
140
0.0
140
0.0
140
0.0
140
0.0
140
0.0
140
0.0
140
0.0
140
0.0
140
0.0
140
0.0
140
0.0
140
0.0
140
0.0
140
0.0
140
0.0
140
0.0
140
0.0
140
0.0
140
0.0
140
0.0
140
0.0
140
0.0
140
0.0
140
0.0
140
0.0
140
0.0
140
0.0
 90
        0
  0
POLYLINE
  5
FA
330
1F
100
AcDbEntity
  8
OracDecor_cornice_mouldings
 62
   183
420
  9197793
100
AcDb2dPolyline
 66
     1
 10
0.0
 20
0.0
 30
0.0000019630049337
 70
     1
210
-0.9999999999999769
220
0.0000001788139343
230
-0.0000001192092896
  0
VERTEX
  5
FB
330
FA
100
AcDbEntity
  8
OracDecor_cornice_mouldings
 62
   183
420
  9197793
100
AcDbVertex
100
AcDb2dVertex
 10
-19.0
 20
-0.0000019630047063
 30
0.0000019630049337
  0
VERTEX
  5
FC
330
FA
100
AcDbEntity
  8
OracDecor_cornice_mouldings
 62
   183
420
  9197793
100
AcDbVertex
100
AcDb2dVertex
 10
-27.5
 20
-0.0000028411909625
 30
0.0000019630049337
  0
VERTEX
  5
FD
330
FA
100
AcDbEntity
  8
OracDecor_cornice_mouldings
 62
   183
420
  9197793
100
AcDbVertex
100
AcDb2dVertex
 10
-27.5
 20
-4.500002861022949
 30
0.0000019630049337
  0
VERTEX
  5
FE
330
FA
100
AcDbEntity
  8
OracDecor_cornice_mouldings
 62
   183
420
  9197793
100
AcDbVertex
100
AcDb2dVertex
 10
-28.03233337402344
 20
-4.571273326873779
 30
0.0000019630049337
  0
VERTEX
  5
FF
330
FA
100
AcDbEntity
  8
OracDecor_cornice_mouldings
 62
   183
420
  9197793
100
AcDbVertex
100
AcDb2dVertex
 10
-29.47541809082031
 20
-5.019229412078857
 30
0.0000019630049337
  0
VERTEX
  5
100
330
FA
100
AcDbEntity
  8
OracDecor_cornice_mouldings
 62
   183
420
  9197793
100
AcDbVertex
100
AcDb2dVertex
 10
-30.9013614654541
 20
-5.881503582000732
 30
0.0000019630049337
  0
VERTEX
  5
101
330
FA
100
AcDbEntity
  8
OracDecor_cornice_mouldings
 62
   183
420
  9197793
100
AcDbVertex
100
AcDb2dVertex
 10
-32.22747039794922
 20
-7.168982982635498
 30
0.0000019630049337
  0
VERTEX
  5
102
330
FA
100
AcDbEntity
  8
OracDecor_cornice_mouldings
 62
   183
420
  9197793
100
AcDbVertex
100
AcDb2dVertex
 10
-33.24187850952148
 20
-8.73687744140625
 30
0.0000019630049337
  0
VERTEX
  5
103
330
FA
100
AcDbEntity
  8
OracDecor_cornice_mouldings
 62
   183
420
  9197793
100
AcDbVertex
100
AcDb2dVertex
 10
-33.83919906616211
 20
-10.38692665100097
 30
0.0000019630049337
  0
VERTEX
  5
104
330
FA
100
AcDbEntity
  8
OracDecor_cornice_mouldings
 62
   183
420
  9197793
100
AcDbVertex
100
AcDb2dVertex
 10
-34.01276397705078
 20
-12.03110122680664
 30
0.0000019630049337
  0
VERTEX
  5
105
330
FA
100
AcDbEntity
  8
OracDecor_cornice_mouldings
 62
   183
420
  9197793
100
AcDbVertex
100
AcDb2dVertex
 10
-33.74928283691406
 20
-13.71111679077148
 30
0.0000019630049337
  0
VERTEX
  5
106
330
FA
100
AcDbEntity
  8
OracDecor_cornice_mouldings
 62
   183
420
  9197793
100
AcDbVertex
100
AcDb2dVertex
 10
-33.07347106933594
 20
-15.35660934448242
 30
0.0000019630049337
  0
VERTEX
  5
107
330
FA
100
AcDbEntity
  8
OracDecor_cornice_mouldings
 62
   183
420
  9197793
100
AcDbVertex
100
AcDb2dVertex
 10
-32.12494659423828
 20
-16.75776100158691
 30
0.0000019630049337
  0
VERTEX
  5
108
330
FA
100
AcDbEntity
  8
OracDecor_cornice_mouldings
 62
   183
420
  9197793
100
AcDbVertex
100
AcDb2dVertex
 10
-31.01897430419922
 20
-17.90568351745605
 30
0.0000019630049337
  0
VERTEX
  5
109
330
FA
100
AcDbEntity
  8
OracDecor_cornice_mouldings
 62
   183
420
  9197793
100
AcDbVertex
100
AcDb2dVertex
 10
-29.70841217041016
 20
-18.89784812927246
 30
0.0000019630049337
  0
VERTEX
  5
10A
330
FA
100
AcDbEntity
  8
OracDecor_cornice_mouldings
 62
   183
420
  9197793
100
AcDbVertex
100
AcDb2dVertex
 10
-28.25917816162109
 20
-19.65279197692871
 30
0.0000019630049337
  0
VERTEX
  5
10B
330
FA
100
AcDbEntity
  8
OracDecor_cornice_mouldings
 62
   183
420
  9197793
100
AcDbVertex
100
AcDb2dVertex
 10
-26.6486701965332
 20
-20.17553520202637
 30
0.0000019630049337
  0
VERTEX
  5
10C
330
FA
100
AcDbEntity
  8
OracDecor_cornice_mouldings
 62
   183
420
  9197793
100
AcDbVertex
100
AcDb2dVertex
 10
-24.93943023681641
 20
-20.45303726196289
 30
0.0000019630049337
  0
VERTEX
  5
10D
330
FA
100
AcDbEntity
  8
OracDecor_cornice_mouldings
 62
   183
420
  9197793
100
AcDbVertex
100
AcDb2dVertex
 10
-24.0
 20
-20.50000762939453
 30
0.0000019630049337
  0
VERTEX
  5
10E
330
FA
100
AcDbEntity
  8
OracDecor_cornice_mouldings
 62
   183
420
  9197793
100
AcDbVertex
100
AcDb2dVertex
 10
-23.99999809265137
 20
-24.50000762939453
 30
0.0000019630049337
  0
VERTEX
  5
10F
330
FA
100
AcDbEntity
  8
OracDecor_cornice_mouldings
 62
   183
420
  9197793
100
AcDbVertex
100
AcDb2dVertex
 10
-20.99999809265137
 20
-24.50000190734864
 30
0.0000019630049337
  0
VERTEX
  5
110
330
FA
100
AcDbEntity
  8
OracDecor_cornice_mouldings
 62
   183
420
  9197793
100
AcDbVertex
100
AcDb2dVertex
 10
-20.99999809265137
 20
-28.50000190734863
 30
0.0000019630049337
  0
VERTEX
  5
111
330
FA
100
AcDbEntity
  8
OracDecor_cornice_mouldings
 62
   183
420
  9197793
100
AcDbVertex
100
AcDb2dVertex
 10
-21.90843391418457
 20
-28.53758430480957
 30
0.0000019630049337
  0
VERTEX
  5
112
330
FA
100
AcDbEntity
  8
OracDecor_cornice_mouldings
 62
   183
420
  9197793
100
AcDbVertex
100
AcDb2dVertex
 10
-23.25553703308106
 20
-28.74334335327148
 30
0.0000019630049337
  0
VERTEX
  5
113
330
FA
100
AcDbEntity
  8
OracDecor_cornice_mouldings
 62
   183
420
  9197793
100
AcDbVertex
100
AcDb2dVertex
 10
-24.99527168273926
 20
-29.26130867004395
 30
0.0000019630049337
  0
VERTEX
  5
114
330
FA
100
AcDbEntity
  8
OracDecor_cornice_mouldings
 62
   183
420
  9197793
100
AcDbVertex
100
AcDb2dVertex
 10
-26.62598991394043
 20
-30.05854034423828
 30
0.0000019630049337
  0
VERTEX
  5
115
330
FA
100
AcDbEntity
  8
OracDecor_cornice_mouldings
 62
   183
420
  9197793
100
AcDbVertex
100
AcDb2dVertex
 10
-28.10323143005371
 20
-31.11328125
 30
0.0000019630049337
  0
VERTEX
  5
116
330
FA
100
AcDbEntity
  8
OracDecor_cornice_mouldings
 62
   183
420
  9197793
100
AcDbVertex
100
AcDb2dVertex
 10
-29.38672065734863
 20
-32.39676666259766
 30
0.0000019630049337
  0
VERTEX
  5
117
330
FA
100
AcDbEntity
  8
OracDecor_cornice_mouldings
 62
   183
420
  9197793
100
AcDbVertex
100
AcDb2dVertex
 10
-30.44146537780762
 20
-33.87400817871094
 30
0.0000019630049337
  0
VERTEX
  5
118
330
FA
100
AcDbEntity
  8
OracDecor_cornice_mouldings
 62
   183
420
  9197793
100
AcDbVertex
100
AcDb2dVertex
 10
-31.23869895935059
 20
-35.50472259521484
 30
0.0000019630049337
  0
VERTEX
  5
119
330
FA
100
AcDbEntity
  8
OracDecor_cornice_mouldings
 62
   183
420
  9197793
100
AcDbVertex
100
AcDb2dVertex
 10
-31.75666236877442
 20
-37.24446105957031
 30
0.0000019630049337
  0
VERTEX
  5
11A
330
FA
100
AcDbEntity
  8
OracDecor_cornice_mouldings
 62
   183
420
  9197793
100
AcDbVertex
100
AcDb2dVertex
 10
-31.98121070861816
 20
-39.04578399658203
 30
0.0000019630049337
  0
VERTEX
  5
11B
330
FA
100
AcDbEntity
  8
OracDecor_cornice_mouldings
 62
   183
420
  9197793
100
AcDbVertex
100
AcDb2dVertex
 10
-31.90618705749512
 20
-40.85952758789062
 30
0.0000019630049337
  0
VERTEX
  5
11C
330
FA
100
AcDbEntity
  8
OracDecor_cornice_mouldings
 62
   183
420
  9197793
100
AcDbVertex
100
AcDb2dVertex
 10
-31.53365707397461
 20
-42.63612365722656
 30
0.0000019630049337
  0
VERTEX
  5
11D
330
FA
100
AcDbEntity
  8
OracDecor_cornice_mouldings
 62
   183
420
  9197793
100
AcDbVertex
100
AcDb2dVertex
 10
-30.8738021850586
 20
-44.3271255493164
 30
0.0000019630049337
  0
VERTEX
  5
11E
330
FA
100
AcDbEntity
  8
OracDecor_cornice_mouldings
 62
   183
420
  9197793
100
AcDbVertex
100
AcDb2dVertex
 10
-29.94464111328125
 20
-45.88642501831055
 30
0.0000019630049337
  0
VERTEX
  5
11F
330
FA
100
AcDbEntity
  8
OracDecor_cornice_mouldings
 62
   183
420
  9197793
100
AcDbVertex
100
AcDb2dVertex
 10
-28.77151870727539
 20
-47.27152252197265
 30
0.0000019630049337
  0
VERTEX
  5
120
330
FA
100
AcDbEntity
  8
OracDecor_cornice_mouldings
 62
   183
420
  9197793
100
AcDbVertex
100
AcDb2dVertex
 10
-27.38642501831055
 20
-48.44464111328125
 30
0.0000019630049337
  0
VERTEX
  5
121
330
FA
100
AcDbEntity
  8
OracDecor_cornice_mouldings
 62
   183
420
  9197793
100
AcDbVertex
100
AcDb2dVertex
 10
-25.82712364196777
 20
-49.37380218505859
 30
0.0000019630049337
  0
VERTEX
  5
122
330
FA
100
AcDbEntity
  8
OracDecor_cornice_mouldings
 62
   183
420
  9197793
100
AcDbVertex
100
AcDb2dVertex
 10
-24.13612174987793
 20
-50.03366088867188
 30
0.0000019630049337
  0
VERTEX
  5
123
330
FA
100
AcDbEntity
  8
OracDecor_cornice_mouldings
 62
   183
420
  9197793
100
AcDbVertex
100
AcDb2dVertex
 10
-22.35953140258789
 20
-50.40618896484375
 30
0.0000019630049337
  0
VERTEX
  5
124
330
FA
100
AcDbEntity
  8
OracDecor_cornice_mouldings
 62
   183
420
  9197793
100
AcDbVertex
100
AcDb2dVertex
 10
-20.99999809265137
 20
-50.5
 30
0.0000019630049337
  0
VERTEX
  5
125
330
FA
100
AcDbEntity
  8
OracDecor_cornice_mouldings
 62
   183
420
  9197793
100
AcDbVertex
100
AcDb2dVertex
 10
-20.99999809265137
 20
-54.5
 30
0.0000019630049337
  0
VERTEX
  5
126
330
FA
100
AcDbEntity
  8
OracDecor_cornice_mouldings
 62
   183
420
  9197793
100
AcDbVertex
100
AcDb2dVertex
 10
-18.74365043640137
 20
-54.51929473876953
 30
0.0000019630049337
  0
VERTEX
  5
127
330
FA
100
AcDbEntity
  8
OracDecor_cornice_mouldings
 62
   183
420
  9197793
100
AcDbVertex
100
AcDb2dVertex
 10
-17.00532722473144
 20
-54.74975967407226
 30
0.0000019630049337
  0
VERTEX
  5
128
330
FA
100
AcDbEntity
  8
OracDecor_cornice_mouldings
 62
   183
420
  9197793
100
AcDbVertex
100
AcDb2dVertex
 10
-15.33407878875732
 20
-55.28061676025391
 30
0.0000019630049337
  0
VERTEX
  5
129
330
FA
100
AcDbEntity
  8
OracDecor_cornice_mouldings
 62
   183
420
  9197793
100
AcDbVertex
100
AcDb2dVertex
 10
-13.78139114379883
 20
-56.09550476074218
 30
0.0000019630049337
  0
VERTEX
  5
12A
330
FA
100
AcDbEntity
  8
OracDecor_cornice_mouldings
 62
   183
420
  9197793
100
AcDbVertex
100
AcDb2dVertex
 10
-12.39510154724121
 20
-57.16931915283203
 30
0.0000019630049337
  0
VERTEX
  5
12B
330
FA
100
AcDbEntity
  8
OracDecor_cornice_mouldings
 62
   183
420
  9197793
100
AcDbVertex
100
AcDb2dVertex
 10
-11.21791744232178
 20
-58.46897888183594
 30
0.0000019630049337
  0
VERTEX
  5
12C
330
FA
100
AcDbEntity
  8
OracDecor_cornice_mouldings
 62
   183
420
  9197793
100
AcDbVertex
100
AcDb2dVertex
 10
-10.28610801696777
 20
-59.9544448852539
 30
0.0000019630049337
  0
VERTEX
  5
12D
330
FA
100
AcDbEntity
  8
OracDecor_cornice_mouldings
 62
   183
420
  9197793
100
AcDbVertex
100
AcDb2dVertex
 10
-9.756760597229003
 20
-61.1599006652832
 30
0.0000019630049337
  0
VERTEX
  5
12E
330
FA
100
AcDbEntity
  8
OracDecor_cornice_mouldings
 62
   183
420
  9197793
100
AcDbVertex
100
AcDb2dVertex
 10
-9.49999713897705
 20
-62.0
 30
0.0000019630049337
  0
VERTEX
  5
12F
330
FA
100
AcDbEntity
  8
OracDecor_cornice_mouldings
 62
   183
420
  9197793
100
AcDbVertex
100
AcDb2dVertex
 10
-10.17914390563965
 20
-62.10742950439453
 30
0.0000019630049337
  0
VERTEX
  5
130
330
FA
100
AcDbEntity
  8
OracDecor_cornice_mouldings
 62
   183
420
  9197793
100
AcDbVertex
100
AcDb2dVertex
 10
-11.61007690429687
 20
-62.61989593505859
 30
0.0000019630049337
  0
VERTEX
  5
131
330
FA
100
AcDbEntity
  8
OracDecor_cornice_mouldings
 62
   183
420
  9197793
100
AcDbVertex
100
AcDb2dVertex
 10
-13.05785942077636
 20
-63.581298828125
 30
0.0000019630049337
  0
VERTEX
  5
132
330
FA
100
AcDbEntity
  8
OracDecor_cornice_mouldings
 62
   183
420
  9197793
100
AcDbVertex
100
AcDb2dVertex
 10
-14.32063770294189
 20
-64.94985198974609
 30
0.0000019630049337
  0
VERTEX
  5
133
330
FA
100
AcDbEntity
  8
OracDecor_cornice_mouldings
 62
   183
420
  9197793
100
AcDbVertex
100
AcDb2dVertex
 10
-15.22705364227295
 20
-66.55722045898437
 30
0.0000019630049337
  0
VERTEX
  5
134
330
FA
100
AcDbEntity
  8
OracDecor_cornice_mouldings
 62
   183
420
  9197793
100
AcDbVertex
100
AcDb2dVertex
 10
-15.69713401794433
 20
-68.20718383789063
 30
0.0000019630049337
  0
VERTEX
  5
135
330
FA
100
AcDbEntity
  8
OracDecor_cornice_mouldings
 62
   183
420
  9197793
100
AcDbVertex
100
AcDb2dVertex
 10
-15.73176002502441
 20
-69.85574340820313
 30
0.0000019630049337
  0
VERTEX
  5
136
330
FA
100
AcDbEntity
  8
OracDecor_cornice_mouldings
 62
   183
420
  9197793
100
AcDbVertex
100
AcDb2dVertex
 10
-15.30614948272705
 20
-71.54869842529297
 30
0.0000019630049337
  0
VERTEX
  5
137
330
FA
100
AcDbEntity
  8
OracDecor_cornice_mouldings
 62
   183
420
  9197793
100
AcDbVertex
100
AcDb2dVertex
 10
-14.52497005462646
 20
-73.08454895019531
 30
0.0000019630049337
  0
VERTEX
  5
138
330
FA
100
AcDbEntity
  8
OracDecor_cornice_mouldings
 62
   183
420
  9197793
100
AcDbVertex
100
AcDb2dVertex
 10
-13.56464099884033
 20
-74.30567932128906
 30
0.0000019630049337
  0
VERTEX
  5
139
330
FA
100
AcDbEntity
  8
OracDecor_cornice_mouldings
 62
   183
420
  9197793
100
AcDbVertex
100
AcDb2dVertex
 10
-12.35146236419678
 20
-75.4212646484375
 30
0.0000019630049337
  0
VERTEX
  5
13A
330
FA
100
AcDbEntity
  8
OracDecor_cornice_mouldings
 62
   183
420
  9197793
100
AcDbVertex
100
AcDb2dVertex
 10
-10.98261547088623
 20
-76.30879211425781
 30
0.0000019630049337
  0
VERTEX
  5
13B
330
FA
100
AcDbEntity
  8
OracDecor_cornice_mouldings
 62
   183
420
  9197793
100
AcDbVertex
100
AcDb2dVertex
 10
-9.46318244934082
 20
-76.95374298095703
 30
0.0000019630049337
  0
VERTEX
  5
13C
330
FA
100
AcDbEntity
  8
OracDecor_cornice_mouldings
 62
   183
420
  9197793
100
AcDbVertex
100
AcDb2dVertex
 10
-7.769041538238525
 20
-77.3551254272461
 30
0.0000019630049337
  0
VERTEX
  5
13D
330
FA
100
AcDbEntity
  8
OracDecor_cornice_mouldings
 62
   183
420
  9197793
100
AcDbVertex
100
AcDb2dVertex
 10
-6.442349910736083
 20
-77.49037170410156
 30
0.0000019630049337
  0
VERTEX
  5
13E
330
FA
100
AcDbEntity
  8
OracDecor_cornice_mouldings
 62
   183
420
  9197793
100
AcDbVertex
100
AcDb2dVertex
 10
-5.999996662139892
 20
-77.5
 30
0.0000019630049337
  0
VERTEX
  5
13F
330
FA
100
AcDbEntity
  8
OracDecor_cornice_mouldings
 62
   183
420
  9197793
100
AcDbVertex
100
AcDb2dVertex
 10
-5.999996185302734
 20
-83.0
 30
0.0000019630049337
  0
VERTEX
  5
140
330
FA
100
AcDbEntity
  8
OracDecor_cornice_mouldings
 62
   183
420
  9197793
100
AcDbVertex
100
AcDb2dVertex
 10
0.0000036280443965
 20
-83.0
 30
0.0000019630049337
  0
VERTEX
  5
141
330
FA
100
AcDbEntity
  8
OracDecor_cornice_mouldings
 62
   183
420
  9197793
100
AcDbVertex
100
AcDb2dVertex
 10
0.0000032665145682
 20
-74.72916412353516
 30
0.0000019630049337
  0
VERTEX
  5
142
330
FA
100
AcDbEntity
  8
OracDecor_cornice_mouldings
 62
   183
420
  9197793
100
AcDbVertex
100
AcDb2dVertex
 10
-0.4801240861415863
 20
-74.49917602539063
 30
0.0000019630049337
  0
VERTEX
  5
143
330
FA
100
AcDbEntity
  8
OracDecor_cornice_mouldings
 62
   183
420
  9197793
100
AcDbVertex
100
AcDb2dVertex
 10
-0.9832674264907836
 20
-74.00404357910156
 30
0.0000019630049337
  0
VERTEX
  5
144
330
FA
100
AcDbEntity
  8
OracDecor_cornice_mouldings
 62
   183
420
  9197793
100
AcDbVertex
100
AcDb2dVertex
 10
-1.256016373634338
 20
-73.35295104980469
 30
0.0000019630049337
  0
VERTEX
  5
145
330
FA
100
AcDbEntity
  8
OracDecor_cornice_mouldings
 62
   183
420
  9197793
100
AcDbVertex
100
AcDb2dVertex
 10
-1.256016373634338
 20
-72.64704895019531
 30
0.0000019630049337
  0
VERTEX
  5
146
330
FA
100
AcDbEntity
  8
OracDecor_cornice_mouldings
 62
   183
420
  9197793
100
AcDbVertex
100
AcDb2dVertex
 10
-0.983266532421112
 20
-71.99595642089843
 30
0.0000019630049337
  0
VERTEX
  5
147
330
FA
100
AcDbEntity
  8
OracDecor_cornice_mouldings
 62
   183
420
  9197793
100
AcDbVertex
100
AcDb2dVertex
 10
-0.4801242053508759
 20
-71.50082397460938
 30
0.0000019630049337
  0
VERTEX
  5
148
330
FA
100
AcDbEntity
  8
OracDecor_cornice_mouldings
 62
   183
420
  9197793
100
AcDbVertex
100
AcDb2dVertex
 10
0.0000031153465443
 20
-71.27083587646485
 30
0.0000019630049337
  0
VERTEX
  5
149
330
FA
100
AcDbEntity
  8
OracDecor_cornice_mouldings
 62
   183
420
  9197793
100
AcDbVertex
100
AcDb2dVertex
 10
-0.0000009694724667
 20
-65.09117126464843
 30
0.0000019630049337
  0
VERTEX
  5
14A
330
FA
100
AcDbEntity
  8
OracDecor_cornice_mouldings
 62
   183
420
  9197793
100
AcDbVertex
100
AcDb2dVertex
 10
-0.7418519258499146
 20
-63.26010131835937
 30
0.0000019630049337
  0
VERTEX
  5
14B
330
FA
100
AcDbEntity
  8
OracDecor_cornice_mouldings
 62
   183
420
  9197793
100
AcDbVertex
100
AcDb2dVertex
 10
-1.549482583999633
 20
-60.75392913818359
 30
0.0000019630049337
  0
VERTEX
  5
14C
330
FA
100
AcDbEntity
  8
OracDecor_cornice_mouldings
 62
   183
420
  9197793
100
AcDbVertex
100
AcDb2dVertex
 10
-2.212723970413208
 20
-58.52349090576172
 30
0.0000019630049337
  0
VERTEX
  5
14D
330
FA
100
AcDbEntity
  8
OracDecor_cornice_mouldings
 62
   183
420
  9197793
100
AcDbVertex
100
AcDb2dVertex
 10
-3.079344272613525
 20
-56.47629165649414
 30
0.0000019630049337
  0
VERTEX
  5
14E
330
FA
100
AcDbEntity
  8
OracDecor_cornice_mouldings
 62
   183
420
  9197793
100
AcDbVertex
100
AcDb2dVertex
 10
-4.191811084747314
 20
-54.55158996582031
 30
0.0000019630049337
  0
VERTEX
  5
14F
330
FA
100
AcDbEntity
  8
OracDecor_cornice_mouldings
 62
   183
420
  9197793
100
AcDbVertex
100
AcDb2dVertex
 10
-5.533283710479736
 20
-52.77863311767578
 30
0.0000019630049337
  0
VERTEX
  5
150
330
FA
100
AcDbEntity
  8
OracDecor_cornice_mouldings
 62
   183
420
  9197793
100
AcDbVertex
100
AcDb2dVertex
 10
-7.083190441131591
 20
-51.18466949462891
 30
0.0000019630049337
  0
VERTEX
  5
151
330
FA
100
AcDbEntity
  8
OracDecor_cornice_mouldings
 62
   183
420
  9197793
100
AcDbVertex
100
AcDb2dVertex
 10
-8.817699432373046
 20
-49.79415130615234
 30
0.0000019630049337
  0
VERTEX
  5
152
330
FA
100
AcDbEntity
  8
OracDecor_cornice_mouldings
 62
   183
420
  9197793
100
AcDbVertex
100
AcDb2dVertex
 10
-10.71045303344726
 20
-48.6281509399414
 30
0.0000019630049337
  0
VERTEX
  5
153
330
FA
100
AcDbEntity
  8
OracDecor_cornice_mouldings
 62
   183
420
  9197793
100
AcDbVertex
100
AcDb2dVertex
 10
-12.21341896057129
 20
-47.90383911132813
 30
0.0000019630049337
  0
VERTEX
  5
154
330
FA
100
AcDbEntity
  8
OracDecor_cornice_mouldings
 62
   183
420
  9197793
100
AcDbVertex
100
AcDb2dVertex
 10
-12.96810245513916
 20
-47.49845886230469
 30
0.0000019630049337
  0
VERTEX
  5
155
330
FA
100
AcDbEntity
  8
OracDecor_cornice_mouldings
 62
   183
420
  9197793
100
AcDbVertex
100
AcDb2dVertex
 10
-13.85212135314941
 20
-46.77815246582031
 30
0.0000019630049337
  0
VERTEX
  5
156
330
FA
100
AcDbEntity
  8
OracDecor_cornice_mouldings
 62
   183
420
  9197793
100
AcDbVertex
100
AcDb2dVertex
 10
-14.63373374938965
 20
-45.81488037109375
 30
0.0000019630049337
  0
VERTEX
  5
157
330
FA
100
AcDbEntity
  8
OracDecor_cornice_mouldings
 62
   183
420
  9197793
100
AcDbVertex
100
AcDb2dVertex
 10
-15.67317771911621
 20
-44.68800354003906
 30
0.0000019630049337
  0
VERTEX
  5
158
330
FA
100
AcDbEntity
  8
OracDecor_cornice_mouldings
 62
   183
420
  9197793
100
AcDbVertex
100
AcDb2dVertex
 10
-16.90875625610351
 20
-43.78031158447265
 30
0.0000019630049337
  0
VERTEX
  5
159
330
FA
100
AcDbEntity
  8
OracDecor_cornice_mouldings
 62
   183
420
  9197793
100
AcDbVertex
100
AcDb2dVertex
 10
-18.18100166320801
 20
-43.13187026977539
 30
0.0000019630049337
  0
VERTEX
  5
15A
330
FA
100
AcDbEntity
  8
OracDecor_cornice_mouldings
 62
   183
420
  9197793
100
AcDbVertex
100
AcDb2dVertex
 10
-19.08979988098144
 20
-42.50853729248047
 30
0.0000019630049337
  0
VERTEX
  5
15B
330
FA
100
AcDbEntity
  8
OracDecor_cornice_mouldings
 62
   183
420
  9197793
100
AcDbVertex
100
AcDb2dVertex
 10
-19.79339981079101
 20
-41.66053771972656
 30
0.0000019630049337
  0
VERTEX
  5
15C
330
FA
100
AcDbEntity
  8
OracDecor_cornice_mouldings
 62
   183
420
  9197793
100
AcDbVertex
100
AcDb2dVertex
 10
-20.23824501037598
 20
-40.65233612060547
 30
0.0000019630049337
  0
VERTEX
  5
15D
330
FA
100
AcDbEntity
  8
OracDecor_cornice_mouldings
 62
   183
420
  9197793
100
AcDbVertex
100
AcDb2dVertex
 10
-20.39041137695313
 20
-39.56095886230469
 30
0.0000019630049337
  0
VERTEX
  5
15E
330
FA
100
AcDbEntity
  8
OracDecor_cornice_mouldings
 62
   183
420
  9197793
100
AcDbVertex
100
AcDb2dVertex
 10
-20.23824501037598
 20
-38.4695816040039
 30
0.0000019630049337
  0
VERTEX
  5
15F
330
FA
100
AcDbEntity
  8
OracDecor_cornice_mouldings
 62
   183
420
  9197793
100
AcDbVertex
100
AcDb2dVertex
 10
-19.79339981079101
 20
-37.46138763427734
 30
0.0000019630049337
  0
VERTEX
  5
160
330
FA
100
AcDbEntity
  8
OracDecor_cornice_mouldings
 62
   183
420
  9197793
100
AcDbVertex
100
AcDb2dVertex
 10
-19.08979988098144
 20
-36.61338043212891
 30
0.0000019630049337
  0
VERTEX
  5
161
330
FA
100
AcDbEntity
  8
OracDecor_cornice_mouldings
 62
   183
420
  9197793
100
AcDbVertex
100
AcDb2dVertex
 10
-18.18100166320801
 20
-35.99005126953125
 30
0.0000019630049337
  0
VERTEX
  5
162
330
FA
100
AcDbEntity
  8
OracDecor_cornice_mouldings
 62
   183
420
  9197793
100
AcDbVertex
100
AcDb2dVertex
 10
-16.88797187805176
 20
-35.32872009277344
 30
0.0000019630049337
  0
VERTEX
  5
163
330
FA
100
AcDbEntity
  8
OracDecor_cornice_mouldings
 62
   183
420
  9197793
100
AcDbVertex
100
AcDb2dVertex
 10
-15.63110828399658
 20
-34.39549255371094
 30
0.0000019630049337
  0
VERTEX
  5
164
330
FA
100
AcDbEntity
  8
OracDecor_cornice_mouldings
 62
   183
420
  9197793
100
AcDbVertex
100
AcDb2dVertex
 10
-14.58027839660644
 20
-33.23506164550781
 30
0.0000019630049337
  0
VERTEX
  5
165
330
FA
100
AcDbEntity
  8
OracDecor_cornice_mouldings
 62
   183
420
  9197793
100
AcDbVertex
100
AcDb2dVertex
 10
-13.77587032318115
 20
-31.89200210571289
 30
0.0000019630049337
  0
VERTEX
  5
166
330
FA
100
AcDbEntity
  8
OracDecor_cornice_mouldings
 62
   183
420
  9197793
100
AcDbVertex
100
AcDb2dVertex
 10
-13.24878406524658
 20
-30.41791534423828
 30
0.0000019630049337
  0
VERTEX
  5
167
330
FA
100
AcDbEntity
  8
OracDecor_cornice_mouldings
 62
   183
420
  9197793
100
AcDbVertex
100
AcDb2dVertex
 10
-13.0192346572876
 20
-28.86944198608399
 30
0.0000019630049337
  0
VERTEX
  5
168
330
FA
100
AcDbEntity
  8
OracDecor_cornice_mouldings
 62
   183
420
  9197793
100
AcDbVertex
100
AcDb2dVertex
 10
-12.98284912109375
 20
-25.9168701171875
 30
0.0000019630049337
  0
VERTEX
  5
169
330
FA
100
AcDbEntity
  8
OracDecor_cornice_mouldings
 62
   183
420
  9197793
100
AcDbVertex
100
AcDb2dVertex
 10
-12.78120422363281
 20
-25.21074485778809
 30
0.0000019630049337
  0
VERTEX
  5
16A
330
FA
100
AcDbEntity
  8
OracDecor_cornice_mouldings
 62
   183
420
  9197793
100
AcDbVertex
100
AcDb2dVertex
 10
-12.3373441696167
 20
-24.62571716308594
 30
0.0000019630049337
  0
VERTEX
  5
16B
330
FA
100
AcDbEntity
  8
OracDecor_cornice_mouldings
 62
   183
420
  9197793
100
AcDbVertex
100
AcDb2dVertex
 10
-11.71162605285644
 20
-24.24133491516113
 30
0.0000019630049337
  0
VERTEX
  5
16C
330
FA
100
AcDbEntity
  8
OracDecor_cornice_mouldings
 62
   183
420
  9197793
100
AcDbVertex
100
AcDb2dVertex
 10
-11.17430973052978
 20
-24.10885810852051
 30
0.0000019630049337
  0
VERTEX
  5
16D
330
FA
100
AcDbEntity
  8
OracDecor_cornice_mouldings
 62
   183
420
  9197793
100
AcDbVertex
100
AcDb2dVertex
 10
0.0000010110981066
 20
-23.13123321533203
 30
0.0000019630049337
  0
VERTEX
  5
16E
330
FA
100
AcDbEntity
  8
OracDecor_cornice_mouldings
 62
   183
420
  9197793
100
AcDbVertex
100
AcDb2dVertex
 10
-0.000001055122766
 20
-19.49666213989258
 30
0.0000019630049337
  0
VERTEX
  5
16F
330
FA
100
AcDbEntity
  8
OracDecor_cornice_mouldings
 62
   183
420
  9197793
100
AcDbVertex
100
AcDb2dVertex
 10
-0.2727633714675903
 20
-19.27280044555664
 30
0.0000019630049337
  0
VERTEX
  5
170
330
FA
100
AcDbEntity
  8
OracDecor_cornice_mouldings
 62
   183
420
  9197793
100
AcDbVertex
100
AcDb2dVertex
 10
-0.5797988176345826
 20
-18.84444046020508
 30
0.0000019630049337
  0
VERTEX
  5
171
330
FA
100
AcDbEntity
  8
OracDecor_cornice_mouldings
 62
   183
420
  9197793
100
AcDbVertex
100
AcDb2dVertex
 10
-0.7826988101005555
 20
-18.17558479309082
 30
0.0000019630049337
  0
VERTEX
  5
172
330
FA
100
AcDbEntity
  8
OracDecor_cornice_mouldings
 62
   183
420
  9197793
100
AcDbVertex
100
AcDb2dVertex
 10
-0.7141878008842469
 20
-17.47999572753906
 30
0.0000019630049337
  0
VERTEX
  5
173
330
FA
100
AcDbEntity
  8
OracDecor_cornice_mouldings
 62
   183
420
  9197793
100
AcDbVertex
100
AcDb2dVertex
 10
-0.3846981227397919
 20
-16.86357879638672
 30
0.0000019630049337
  0
VERTEX
  5
174
330
FA
100
AcDbEntity
  8
OracDecor_cornice_mouldings
 62
   183
420
  9197793
100
AcDbVertex
100
AcDb2dVertex
 10
0.0000007213836284
 20
-16.50333786010742
 30
0.0000019630049337
  0
VERTEX
  5
175
330
FA
100
AcDbEntity
  8
OracDecor_cornice_mouldings
 62
   183
420
  9197793
100
AcDbVertex
100
AcDb2dVertex
 10
0.0000005682479127
 20
-13.0
 30
0.0000019630049337
  0
VERTEX
  5
176
330
FA
100
AcDbEntity
  8
OracDecor_cornice_mouldings
 62
   183
420
  9197793
100
AcDbVertex
100
AcDb2dVertex
 10
-18.0
 20
-13.00000190734863
 30
0.0000019630049337
  0
VERTEX
  5
177
330
FA
100
AcDbEntity
  8
OracDecor_cornice_mouldings
 62
   183
420
  9197793
100
AcDbVertex
100
AcDb2dVertex
 10
-18.25886154174805
 20
-12.96590614318847
 30
0.0000019630049337
  0
VERTEX
  5
178
330
FA
100
AcDbEntity
  8
OracDecor_cornice_mouldings
 62
   183
420
  9197793
100
AcDbVertex
100
AcDb2dVertex
 10
-18.49995231628418
 20
-12.86604499816894
 30
0.0000019630049337
  0
VERTEX
  5
179
330
FA
100
AcDbEntity
  8
OracDecor_cornice_mouldings
 62
   183
420
  9197793
100
AcDbVertex
100
AcDb2dVertex
 10
-18.70710754394531
 20
-12.70710945129394
 30
0.0000019630049337
  0
VERTEX
  5
17A
330
FA
100
AcDbEntity
  8
OracDecor_cornice_mouldings
 62
   183
420
  9197793
100
AcDbVertex
100
AcDb2dVertex
 10
-18.86603927612305
 20
-12.49995613098144
 30
0.0000019630049337
  0
VERTEX
  5
17B
330
FA
100
AcDbEntity
  8
OracDecor_cornice_mouldings
 62
   183
420
  9197793
100
AcDbVertex
100
AcDb2dVertex
 10
-18.96590232849121
 20
-12.25886344909668
 30
0.0000019630049337
  0
VERTEX
  5
17C
330
FA
100
AcDbEntity
  8
OracDecor_cornice_mouldings
 62
   183
420
  9197793
100
AcDbVertex
100
AcDb2dVertex
 10
-19.0
 20
-12.00000190734863
 30
0.0000019630049337
  0
SEQEND
  5
17D
330
FA
100
AcDbEntity
  8
OracDecor_cornice_mouldings
 62
   183
420
  9197793
  0
ENDSEC
  0
SECTION
  2
OBJECTS
  0
DICTIONARY
  5
C
330
0
100
AcDbDictionary
281
     1
  3
ACAD_COLOR
350
DC
  3
ACAD_DETAILVIEWSTYLE
350
F5
  3
ACAD_GROUP
350
D
  3
ACAD_LAYOUT
350
1A
  3
ACAD_MATERIAL
350
AA
  3
ACAD_MLEADERSTYLE
350
F1
  3
ACAD_MLINESTYLE
350
17
  3
ACAD_PLOTSETTINGS
350
19
  3
ACAD_PLOTSTYLENAME
350
E
  3
ACAD_SCALELIST
350
DF
  3
ACAD_SECTIONVIEWSTYLE
350
F3
  3
ACAD_TABLESTYLE
350
DD
  3
ACAD_VISUALSTYLE
350
C3
  3
ACDB_RECOMPOSE_DATA
350
18A
  3
AcDbVariableDictionary
350
17E
  0
DICTIONARY
  5
DC
102
{ACAD_REACTORS
330
C
102
}
330
C
100
AcDbDictionary
281
     1
  0
DICTIONARY
  5
F5
102
{ACAD_REACTORS
330
C
102
}
330
C
100
AcDbDictionary
281
     1
  3
Imperial24
350
F6
  0
DICTIONARY
  5
D
102
{ACAD_REACTORS
330
C
102
}
330
C
100
AcDbDictionary
281
     1
  0
DICTIONARY
  5
1A
102
{ACAD_REACTORS
330
C
102
}
330
C
100
AcDbDictionary
281
     1
  3
Layout1
350
1E
  3
Layout2
350
26
  3
Model
350
22
  0
DICTIONARY
  5
AA
102
{ACAD_REACTORS
330
C
102
}
330
C
100
AcDbDictionary
281
     1
  3
ByBlock
350
B3
  3
ByLayer
350
AB
  3
Global
350
BB
  0
DICTIONARY
  5
F1
102
{ACAD_REACTORS
330
C
102
}
330
C
100
AcDbDictionary
281
     1
  3
Standard
350
F2
  0
DICTIONARY
  5
17
102
{ACAD_REACTORS
330
C
102
}
330
C
100
AcDbDictionary
281
     1
  3
Standard
350
18
  0
DICTIONARY
  5
19
102
{ACAD_REACTORS
330
C
102
}
330
C
100
AcDbDictionary
281
     1
  0
ACDBDICTIONARYWDFLT
  5
E
102
{ACAD_REACTORS
330
C
102
}
330
C
100
AcDbDictionary
281
     1
  3
ByLayer
350
2D
  3
Normal
350
F
100
AcDbDictionaryWithDefault
340
F
  0
DICTIONARY
  5
DF
102
{ACAD_REACTORS
330
C
102
}
330
C
100
AcDbDictionary
281
     1
  3
A0
350
E0
  3
A1
350
E1
  3
A2
350
E2
  3
A3
350
E3
  3
A4
350
E4
  3
A5
350
E5
  3
A6
350
E6
  3
A7
350
E7
  3
A8
350
E8
  3
A9
350
E9
  3
B0
350
EA
  3
B1
350
EB
  3
B2
350
EC
  3
B3
350
ED
  3
B4
350
EE
  3
B5
350
EF
  3
B6
350
F0
  0
DICTIONARY
  5
F3
102
{ACAD_REACTORS
330
C
102
}
330
C
100
AcDbDictionary
281
     1
  3
Imperial24
350
F4
  0
DICTIONARY
  5
DD
102
{ACAD_REACTORS
330
C
102
}
330
C
100
AcDbDictionary
281
     1
  3
Standard
350
DE
  0
DICTIONARY
  5
C3
102
{ACAD_REACTORS
330
C
102
}
330
C
100
AcDbDictionary
281
     1
  3
2dWireframe
350
C9
  3
Basic
350
C8
  3
Brighten
350
CF
  3
ColorChange
350
D3
  3
Conceptual
350
CC
  3
Dim
350
CE
  3
EdgeColorOff
350
DB
  3
Facepattern
350
D2
  3
Flat
350
C4
  3
FlatWithEdges
350
C5
  3
Gouraud
350
C6
  3
GouraudWithEdges
350
C7
  3
Hidden
350
CB
  3
JitterOff
350
D9
  3
Linepattern
350
D1
  3
OverhangOff
350
DA
  3
Realistic
350
CD
  3
Shaded
350
D8
  3
Shaded with edges
350
D7
  3
Shades of Gray
350
D4
  3
Sketchy
350
D5
  3
Thicken
350
D0
  3
Wireframe
350
CA
  3
X-Ray
350
D6
  0
XRECORD
  5
18A
102
{ACAD_REACTORS
330
C
102
}
330
C
100
AcDbXrecord
280
     1
 90
        1
330
DE
  0
DICTIONARY
  5
17E
102
{ACAD_REACTORS
330
C
102
}
330
C
100
AcDbDictionary
281
     1
  3
CANNOSCALE
350
184
  3
CMLEADERSTYLE
350
180
  3
CTABLESTYLE
350
17F
  3
CVIEWDETAILSTYLE
350
181
  3
CVIEWSECTIONSTYLE
350
182
  3
LAYEREVAL
350
186
  3
LAYERNOTIFY
350
187
  3
LIGHTINGUNITS
350
185
  3
MSLTSCALE
350
183
  0
ACDBDETAILVIEWSTYLE
  5
F6
102
{ACAD_XDICTIONARY
360
1BF
102
}
102
{ACAD_REACTORS
330
F5
102
}
330
F5
100
AcDbModelDocViewStyle
 70
     0
  3
Imperial24
290
     0
100
AcDbDetailViewStyle
 70
     0
 71
     0
 90
        3
 71
     1
340
11
 62
   256
 40
0.24
340
0
 62
   256
 40
0.24
300

 40
0.36
280
     3
 71
     2
340
16
 90
       25
 62
   256
 71
     3
340
11
 62
   256
 40
0.24
 90
        1
 40
0.75
 90
        1
300
%<\AcVar ViewType \f "%tc1">% %<\AcVar ViewDetailId>%\PSCALE %<\AcVar ViewScale \f "%sn">%
 71
     4
340
16
 90
       25
 62
   256
340
16
 90
       25
 62
   256
280
     0
  0
LAYOUT
  5
1E
102
{ACAD_REACTORS
330
1A
102
}
330
1A
100
AcDbPlotSettings
  1

  2
\\KTXNTBDC\CASF2PN1
  4

  6

 40
0.0
 41
0.0
 42
0.0
 43
0.0
 44
0.0
 45
0.0
 46
0.0
 47
0.0
 48
0.0
 49
0.0
140
0.0
141
0.0
142
1.0
143
1.0
 70
   688
 72
     0
 73
     0
 74
     5
  7

 75
    16
147
1.0
 76
     0
 77
     2
 78
   300
148
0.0
149
0.0
100
AcDbLayout
  1
Layout1
 70
     1
 71
     1
 10
0.0
 20
0.0
 11
12.0
 21
9.0
 12
0.0
 22
0.0
 32
0.0
 14
1.000000000000000E+20
 24
1.000000000000000E+20
 34
1.000000000000000E+20
 15
-1.000000000000000E+20
 25
-1.000000000000000E+20
 35
-1.000000000000000E+20
146
0.0
 13
0.0
 23
0.0
 33
0.0
 16
1.0
 26
0.0
 36
0.0
 17
0.0
 27
1.0
 37
0.0
 76
     0
330
1B
  0
LAYOUT
  5
26
102
{ACAD_REACTORS
330
1A
102
}
330
1A
100
AcDbPlotSettings
  1

  2
\\KTXNTBDC\CASF2PN1
  4

  6

 40
0.0
 41
0.0
 42
0.0
 43
0.0
 44
0.0
 45
0.0
 46
0.0
 47
0.0
 48
0.0
 49
0.0
140
0.0
141
0.0
142
1.0
143
1.0
 70
   688
 72
     0
 73
     0
 74
     5
  7

 75
    16
147
1.0
 76
     0
 77
     2
 78
   300
148
0.0
149
0.0
100
AcDbLayout
  1
Layout2
 70
     1
 71
     2
 10
0.0
 20
0.0
 11
12.0
 21
9.0
 12
0.0
 22
0.0
 32
0.0
 14
0.0
 24
0.0
 34
0.0
 15
0.0
 25
0.0
 35
0.0
146
0.0
 13
0.0
 23
0.0
 33
0.0
 16
1.0
 26
0.0
 36
0.0
 17
0.0
 27
1.0
 37
0.0
 76
     0
330
23
  0
LAYOUT
  5
22
102
{ACAD_REACTORS
330
1A
102
}
330
1A
100
AcDbPlotSettings
  1

  2
\\KTXNTBDC\CASF2PN1
  4

  6

 40
0.0
 41
0.0
 42
0.0
 43
0.0
 44
0.0
 45
0.0
 46
0.0
 47
0.0
 48
0.0
 49
0.0
140
0.0
141
0.0
142
1.0
143
1.0
 70
  1712
 72
     0
 73
     0
 74
     0
  7

 75
     0
147
1.0
 76
     0
 77
     2
 78
   300
148
0.0
149
0.0
100
AcDbLayout
  1
Model
 70
     1
 71
     0
 10
0.0
 20
0.0
 11
12.0
 21
9.0
 12
0.0
 22
0.0
 32
0.0
 14
0.0
 24
0.0
 34
0.0
 15
0.0
 25
0.0
 35
0.0
146
0.0
 13
0.0
 23
0.0
 33
0.0
 16
1.0
 26
0.0
 36
0.0
 17
0.0
 27
1.0
 37
0.0
 76
     0
330
1F
  0
MATERIAL
  5
B3
102
{ACAD_XDICTIONARY
360
B4
102
}
102
{ACAD_REACTORS
330
AA
102
}
330
AA
100
AcDbMaterial
  1
ByBlock
 72
     0
 43
0.0208333333333333
 43
0.0
 43
0.0
 43
0.0
 43
0.0
 43
0.0208333333333333
 43
0.0
 43
0.0
 43
0.0
 43
0.0
 43
1.0
 43
0.0
 43
0.0
 43
0.0
 43
0.0
 43
1.0
 77
     0
 47
0.0208333333333333
 47
0.0
 47
0.0
 47
0.0
 47
0.0
 47
0.0208333333333333
 47
0.0
 47
0.0
 47
0.0
 47
0.0
 47
1.0
 47
0.0
 47
0.0
 47
0.0
 47
0.0
 47
1.0
171
     0
 49
0.0208333333333333
 49
0.0
 49
0.0
 49
0.0
 49
0.0
 49
0.0208333333333333
 49
0.0
 49
0.0
 49
0.0
 49
0.0
 49
1.0
 49
0.0
 49
0.0
 49
0.0
 49
0.0
 49
1.0
175
     0
142
0.0208333333333333
142
0.0
142
0.0
142
0.0
142
0.0
142
0.0208333333333333
142
0.0
142
0.0
142
0.0
142
0.0
142
1.0
142
0.0
142
0.0
142
0.0
142
0.0
142
1.0
179
     0
144
0.0208333333333333
144
0.0
144
0.0
144
0.0
144
0.0
144
0.0208333333333333
144
0.0
144
0.0
144
0.0
144
0.0
144
1.0
144
0.0
144
0.0
144
0.0
144
0.0
144
1.0
147
0.0208333333333333
147
0.0
147
0.0
147
0.0
147
0.0
147
0.0208333333333333
147
0.0
147
0.0
147
0.0
147
0.0
147
1.0
147
0.0
147
0.0
147
0.0
147
0.0
147
1.0
  0
MATERIAL
  5
AB
102
{ACAD_XDICTIONARY
360
AC
102
}
102
{ACAD_REACTORS
330
AA
102
}
330
AA
100
AcDbMaterial
  1
ByLayer
 72
     0
 43
0.0208333333333333
 43
0.0
 43
0.0
 43
0.0
 43
0.0
 43
0.0208333333333333
 43
0.0
 43
0.0
 43
0.0
 43
0.0
 43
1.0
 43
0.0
 43
0.0
 43
0.0
 43
0.0
 43
1.0
 77
     0
 47
0.0208333333333333
 47
0.0
 47
0.0
 47
0.0
 47
0.0
 47
0.0208333333333333
 47
0.0
 47
0.0
 47
0.0
 47
0.0
 47
1.0
 47
0.0
 47
0.0
 47
0.0
 47
0.0
 47
1.0
171
     0
 49
0.0208333333333333
 49
0.0
 49
0.0
 49
0.0
 49
0.0
 49
0.0208333333333333
 49
0.0
 49
0.0
 49
0.0
 49
0.0
 49
1.0
 49
0.0
 49
0.0
 49
0.0
 49
0.0
 49
1.0
175
     0
142
0.0208333333333333
142
0.0
142
0.0
142
0.0
142
0.0
142
0.0208333333333333
142
0.0
142
0.0
142
0.0
142
0.0
142
1.0
142
0.0
142
0.0
142
0.0
142
0.0
142
1.0
179
     0
144
0.0208333333333333
144
0.0
144
0.0
144
0.0
144
0.0
144
0.0208333333333333
144
0.0
144
0.0
144
0.0
144
0.0
144
1.0
144
0.0
144
0.0
144
0.0
144
0.0
144
1.0
147
0.0208333333333333
147
0.0
147
0.0
147
0.0
147
0.0
147
0.0208333333333333
147
0.0
147
0.0
147
0.0
147
0.0
147
1.0
147
0.0
147
0.0
147
0.0
147
0.0
147
1.0
  0
MATERIAL
  5
BB
102
{ACAD_XDICTIONARY
360
BC
102
}
102
{ACAD_REACTORS
330
AA
102
}
330
AA
100
AcDbMaterial
  1
Global
 72
     0
 43
0.0208333333333333
 43
0.0
 43
0.0
 43
0.0
 43
0.0
 43
0.0208333333333333
 43
0.0
 43
0.0
 43
0.0
 43
0.0
 43
1.0
 43
0.0
 43
0.0
 43
0.0
 43
0.0
 43
1.0
 77
     0
 47
0.0208333333333333
 47
0.0
 47
0.0
 47
0.0
 47
0.0
 47
0.0208333333333333
 47
0.0
 47
0.0
 47
0.0
 47
0.0
 47
1.0
 47
0.0
 47
0.0
 47
0.0
 47
0.0
 47
1.0
171
     0
 49
0.0208333333333333
 49
0.0
 49
0.0
 49
0.0
 49
0.0
 49
0.0208333333333333
 49
0.0
 49
0.0
 49
0.0
 49
0.0
 49
1.0
 49
0.0
 49
0.0
 49
0.0
 49
0.0
 49
1.0
175
     0
142
0.0208333333333333
142
0.0
142
0.0
142
0.0
142
0.0
142
0.0208333333333333
142
0.0
142
0.0
142
0.0
142
0.0
142
1.0
142
0.0
142
0.0
142
0.0
142
0.0
142
1.0
179
     0
144
0.0208333333333333
144
0.0
144
0.0
144
0.0
144
0.0
144
0.0208333333333333
144
0.0
144
0.0
144
0.0
144
0.0
144
1.0
144
0.0
144
0.0
144
0.0
144
0.0
144
1.0
147
0.0208333333333333
147
0.0
147
0.0
147
0.0
147
0.0
147
0.0208333333333333
147
0.0
147
0.0
147
0.0
147
0.0
147
1.0
147
0.0
147
0.0
147
0.0
147
0.0
147
1.0
  0
MLEADERSTYLE
  5
F2
102
{ACAD_XDICTIONARY
360
1BB
102
}
102
{ACAD_REACTORS
330
F1
102
}
330
F1
100
AcDbMLeaderStyle
179
     2
170
     2
171
     1
172
     0
 90
        2
 40
0.0
 41
0.0
173
     1
 91
-1056964608
340
14
 92
       -2
290
     1
 42
0.09
291
     1
 43
0.36
  3
Standard
 44
0.18
300

342
11
174
     1
178
     6
175
     1
176
     0
 93
-1056964608
 45
0.18
292
     0
297
     0
 46
0.18
 94
-1056964608
 47
1.0
 49
1.0
140
1.0
293
     1
141
0.0
294
     1
177
     0
142
1.0
295
     0
296
     0
143
0.125
271
     0
272
     9
273
     9
  0
MLINESTYLE
  5
18
102
{ACAD_REACTORS
330
17
102
}
330
17
100
AcDbMlineStyle
  2
STANDARD
 70
     0
  3

 62
   256
 51
90.0
 52
90.0
 71
     2
 49
0.5
 62
   256
  6
BYLAYER
 49
-0.5
 62
   256
  6
BYLAYER
  0
ACDBPLACEHOLDER
  5
2D
102
{ACAD_REACTORS
330
E
102
}
330
E
  0
ACDBPLACEHOLDER
  5
F
102
{ACAD_REACTORS
330
E
102
}
330
E
  0
SCALE
  5
E0
102
{ACAD_REACTORS
330
DF
102
}
330
DF
100
AcDbScale
 70
     0
300
1:1
140
1.0
141
1.0
290
     1
  0
SCALE
  5
E1
102
{ACAD_REACTORS
330
DF
102
}
330
DF
100
AcDbScale
 70
     0
300
1/128" = 1'-0"
140
0.0078125
141
12.0
290
     0
  0
SCALE
  5
E2
102
{ACAD_REACTORS
330
DF
102
}
330
DF
100
AcDbScale
 70
     0
300
1/64" = 1'-0"
140
0.015625
141
12.0
290
     0
  0
SCALE
  5
E3
102
{ACAD_REACTORS
330
DF
102
}
330
DF
100
AcDbScale
 70
     0
300
1/32" = 1'-0"
140
0.03125
141
12.0
290
     0
  0
SCALE
  5
E4
102
{ACAD_REACTORS
330
DF
102
}
330
DF
100
AcDbScale
 70
     0
300
1/16" = 1'-0"
140
0.0625
141
12.0
290
     0
  0
SCALE
  5
E5
102
{ACAD_REACTORS
330
DF
102
}
330
DF
100
AcDbScale
 70
     0
300
3/32" = 1'-0"
140
0.09375
141
12.0
290
     0
  0
SCALE
  5
E6
102
{ACAD_REACTORS
330
DF
102
}
330
DF
100
AcDbScale
 70
     0
300
1/8" = 1'-0"
140
0.125
141
12.0
290
     0
  0
SCALE
  5
E7
102
{ACAD_REACTORS
330
DF
102
}
330
DF
100
AcDbScale
 70
     0
300
3/16" = 1'-0"
140
0.1875
141
12.0
290
     0
  0
SCALE
  5
E8
102
{ACAD_REACTORS
330
DF
102
}
330
DF
100
AcDbScale
 70
     0
300
1/4" = 1'-0"
140
0.25
141
12.0
290
     0
  0
SCALE
  5
E9
102
{ACAD_REACTORS
330
DF
102
}
330
DF
100
AcDbScale
 70
     0
300
3/8" = 1'-0"
140
0.375
141
12.0
290
     0
  0
SCALE
  5
EA
102
{ACAD_REACTORS
330
DF
102
}
330
DF
100
AcDbScale
 70
     0
300
1/2" = 1'-0"
140
0.5
141
12.0
290
     0
  0
SCALE
  5
EB
102
{ACAD_REACTORS
330
DF
102
}
330
DF
100
AcDbScale
 70
     0
300
3/4" = 1'-0"
140
0.75
141
12.0
290
     0
  0
SCALE
  5
EC
102
{ACAD_REACTORS
330
DF
102
}
330
DF
100
AcDbScale
 70
     0
300
1" = 1'-0"
140
1.0
141
12.0
290
     0
  0
SCALE
  5
ED
102
{ACAD_REACTORS
330
DF
102
}
330
DF
100
AcDbScale
 70
     0
300
1-1/2" = 1'-0"
140
1.5
141
12.0
290
     0
  0
SCALE
  5
EE
102
{ACAD_REACTORS
330
DF
102
}
330
DF
100
AcDbScale
 70
     0
300
3" = 1'-0"
140
3.0
141
12.0
290
     0
  0
SCALE
  5
EF
102
{ACAD_REACTORS
330
DF
102
}
330
DF
100
AcDbScale
 70
     0
300
6" = 1'-0"
140
6.0
141
12.0
290
     0
  0
SCALE
  5
F0
102
{ACAD_REACTORS
330
DF
102
}
330
DF
100
AcDbScale
 70
     0
300
1'-0" = 1'-0"
140
12.0
141
12.0
290
     0
  0
ACDBSECTIONVIEWSTYLE
  5
F4
102
{ACAD_XDICTIONARY
360
1BD
102
}
102
{ACAD_REACTORS
330
F3
102
}
330
F3
100
AcDbModelDocViewStyle
 70
     0
  3
Imperial24
290
     0
100
AcDbSectionViewStyle
 70
     0
 71
     0
 90
       78
 71
     1
340
11
 62
   256
 40
0.24
340
0
340
0
 62
   256
 40
0.24
300
I, O, Q, S, X, Z
 40
0.48
 90
        3
 40
0.18
 90
        1
 71
     2
340
16
 90
       25
 62
   256
340
16
 90
       50
 62
   256
 40
0.24
 40
0.0
 40
0.24
 71
     3
340
11
 62
   256
 40
0.24
 90
        1
 40
0.75
 90
        1
300
%<\AcVar ViewType \f "%tc1">% %<\AcVar ViewSectionStartId>%-%<\AcVar ViewSectionEndId>%\PSCALE %<\AcVar ViewScale \f "%sn">%
 71
     4
 62
   256
 62
   257
300
ANSI31
 40
1.0
 90
        0
290
     0
290
     0
 90
        6
 40
0.0
 40
1.570796326794896
 40
0.2617993877991494
 40
1.308996938995747
 40
-0.2617993877991494
 40
1.832595714594046
  0
TABLESTYLE
  5
DE
102
{ACAD_XDICTIONARY
360
188
102
}
102
{ACAD_REACTORS
330
DD
102
}
330
DD
100
AcDbTableStyle
280
     0
  3
Standard
 70
     0
 71
     0
 40
0.06
 41
0.06
280
     0
281
     0
  7
Standard
140
0.18
170
     2
 62
     0
 63
     7
283
     0
 90
      512
 91
        0
  1

274
    -2
284
     1
 64
     0
275
    -2
285
     1
 65
     0
276
    -2
286
     1
 66
     0
277
    -2
287
     1
 67
     0
278
    -2
288
     1
 68
     0
279
    -2
289
     1
 69
     0
  7
Standard
140
0.25
170
     5
 62
     0
 63
     7
283
     0
 90
      512
 91
        0
  1

274
    -2
284
     1
 64
     0
275
    -2
285
     1
 65
     0
276
    -2
286
     1
 66
     0
277
    -2
287
     1
 67
     0
278
    -2
288
     1
 68
     0
279
    -2
289
     1
 69
     0
  7
Standard
140
0.18
170
     5
 62
     0
 63
     7
283
     0
 90
      512
 91
        0
  1

274
    -2
284
     1
 64
     0
275
    -2
285
     1
 65
     0
276
    -2
286
     1
 66
     0
277
    -2
287
     1
 67
     0
278
    -2
288
     1
 68
     0
279
    -2
289
     1
 69
     0
  0
VISUALSTYLE
  5
C9
102
{ACAD_XDICTIONARY
360
195
102
}
102
{ACAD_REACTORS
330
C3
102
}
330
C3
100
AcDbVisualStyle
  2
2dWireframe
 70
     4
177
     2
291
     0
 71
     0
176
     1
 72
     2
176
     1
 73
     0
176
     1
 90
        0
176
     1
 40
0.6
176
     1
 41
30.0
176
     1
 63
     7
421
 16777215
176
     1
 74
     1
176
     1
 91
        4
176
     1
 64
     7
176
     1
 65
   257
176
     1
 75
     1
176
     1
175
     1
176
     1
 42
1.0
176
     1
 92
        0
176
     1
 66
   257
176
     1
 43
1.0
176
     1
 76
     1
176
     1
 77
     6
176
     1
 78
     2
176
     1
 67
     7
176
     1
 79
     5
176
     1
170
     0
176
     1
171
     0
176
     1
290
     0
176
     1
 93
        1
176
     1
 44
0.0
176
     1
173
     0
176
     1
1001
ACAD
1000
AcDbSavedByObjectVersion
1070
     0
  0
VISUALSTYLE
  5
C8
102
{ACAD_XDICTIONARY
360
193
102
}
102
{ACAD_REACTORS
330
C3
102
}
330
C3
100
AcDbVisualStyle
  2
Basic
 70
     7
177
     2
291
     1
 71
     1
176
     1
 72
     0
176
     1
 73
     1
176
     1
 90
        0
176
     1
 40
0.6
176
     1
 41
30.0
176
     1
 63
     7
421
 16777215
176
     1
 74
     0
176
     1
 91
        4
176
     1
 64
     7
176
     1
 65
   257
176
     1
 75
     1
176
     1
175
     1
176
     1
 42
1.0
176
     1
 92
        8
176
     1
 66
     7
176
     1
 43
1.0
176
     1
 76
     1
176
     1
 77
     6
176
     1
 78
     2
176
     1
 67
     7
176
     1
 79
     5
176
     1
170
     0
176
     1
171
     0
176
     1
290
     0
176
     1
 93
        1
176
     1
 44
0.0
176
     1
173
     0
176
     1
1001
ACAD
1000
AcDbSavedByObjectVersion
1070
     0
  0
VISUALSTYLE
  5
CF
102
{ACAD_XDICTIONARY
360
1A1
102
}
102
{ACAD_REACTORS
330
C3
102
}
330
C3
100
AcDbVisualStyle
  2
Brighten
 70
    12
177
     2
291
     1
 71
     2
176
     1
 72
     2
176
     1
 73
     0
176
     1
 90
        0
176
     1
 40
0.6
176
     1
 41
30.0
176
     1
 63
     7
421
 16777215
176
     1
 74
     1
176
     1
 91
        4
176
     1
 64
     7
176
     1
 65
   257
176
     1
 75
     1
176
     1
175
     1
176
     1
 42
1.0
176
     1
 92
        8
176
     1
 66
     7
176
     1
 43
1.0
176
     1
 76
     1
176
     1
 77
     6
176
     1
 78
     2
176
     1
 67
     7
176
     1
 79
     5
176
     1
170
     0
176
     1
171
     0
176
     1
290
     0
176
     1
 93
        1
176
     1
 44
50.0
176
     1
173
     0
176
     1
1001
ACAD
1000
AcDbSavedByObjectVersion
1070
     0
  0
VISUALSTYLE
  5
D3
102
{ACAD_XDICTIONARY
360
1A9
102
}
102
{ACAD_REACTORS
330
C3
102
}
330
C3
100
AcDbVisualStyle
  2
ColorChange
 70
    16
177
     2
291
     1
 71
     2
176
     1
 72
     2
176
     1
 73
     3
176
     1
 90
        0
176
     1
 40
0.6
176
     1
 41
30.0
176
     1
 63
     8
421
  8421504
176
     1
 74
     1
176
     1
 91
        4
176
     1
 64
     7
176
     1
 65
   257
176
     1
 75
     1
176
     1
175
     1
176
     1
 42
1.0
176
     1
 92
        8
176
     1
 66
     8
424
  8421504
176
     1
 43
1.0
176
     1
 76
     1
176
     1
 77
     6
176
     1
 78
     2
176
     1
 67
     7
176
     1
 79
     5
176
     1
170
     0
176
     1
171
     0
176
     1
290
     0
176
     1
 93
        1
176
     1
 44
0.0
176
     1
173
     0
176
     1
1001
ACAD
1000
AcDbSavedByObjectVersion
1070
     0
  0
VISUALSTYLE
  5
CC
102
{ACAD_XDICTIONARY
360
19B
102
}
102
{ACAD_REACTORS
330
C3
102
}
330
C3
100
AcDbVisualStyle
  2
Conceptual
 70
     9
177
     2
291
     0
 71
     3
176
     1
 72
     2
176
     1
 73
     0
176
     1
 90
        0
176
     1
 40
0.6
176
     1
 41
30.0
176
     1
 63
     7
421
 16777215
176
     1
 74
     2
176
     1
 91
        2
176
     1
 64
     7
176
     1
 65
   257
176
     1
 75
     1
176
     1
175
     1
176
     1
 42
179.0
176
     1
 92
        8
176
     1
 66
     7
176
     1
 43
1.0
176
     1
 76
     1
176
     1
 77
     6
176
     1
 78
     2
176
     1
 67
     7
176
     1
 79
     3
176
     1
170
     0
176
     1
171
     0
176
     1
290
     0
176
     1
 93
        1
176
     1
 44
0.0
176
     1
173
     0
176
     1
1001
ACAD
1000
AcDbSavedByObjectVersion
1070
     0
  0
VISUALSTYLE
  5
CE
102
{ACAD_XDICTIONARY
360
19F
102
}
102
{ACAD_REACTORS
330
C3
102
}
330
C3
100
AcDbVisualStyle
  2
Dim
 70
    11
177
     2
291
     1
 71
     2
176
     1
 72
     2
176
     1
 73
     0
176
     1
 90
        0
176
     1
 40
0.6
176
     1
 41
30.0
176
     1
 63
     7
421
 16777215
176
     1
 74
     1
176
     1
 91
        4
176
     1
 64
     7
176
     1
 65
   257
176
     1
 75
     1
176
     1
175
     1
176
     1
 42
1.0
176
     1
 92
        8
176
     1
 66
     7
176
     1
 43
1.0
176
     1
 76
     1
176
     1
 77
     6
176
     1
 78
     2
176
     1
 67
     7
176
     1
 79
     5
176
     1
170
     0
176
     1
171
     0
176
     1
290
     0
176
     1
 93
        1
176
     1
 44
-50.0
176
     1
173
     0
176
     1
1001
ACAD
1000
AcDbSavedByObjectVersion
1070
     0
  0
VISUALSTYLE
  5
DB
102
{ACAD_XDICTIONARY
360
1B9
102
}
102
{ACAD_REACTORS
330
C3
102
}
330
C3
100
AcDbVisualStyle
  2
EdgeColorOff
 70
    22
177
     2
291
     1
 71
     2
176
     0
 72
     2
176
     0
 73
     0
176
     0
 90
        0
176
     0
 40
0.6
176
     0
 41
30.0
176
     0
 63
     7
421
 16777215
176
     0
 74
     1
176
     0
 91
        4
176
     0
 64
     7
176
     0
 65
   257
176
     0
 75
     1
176
     0
175
     1
176
     0
 42
1.0
176
     0
 92
        8
176
     2
 66
     7
176
     0
 43
1.0
176
     0
 76
     1
176
     0
 77
     6
176
     0
 78
     2
176
     0
 67
     7
176
     0
 79
     5
176
     0
170
     0
176
     0
171
     0
176
     0
290
     0
176
     0
 93
        1
176
     0
 44
0.0
176
     0
173
     0
176
     0
1001
ACAD
1000
AcDbSavedByObjectVersion
1070
     0
  0
VISUALSTYLE
  5
D2
102
{ACAD_XDICTIONARY
360
1A7
102
}
102
{ACAD_REACTORS
330
C3
102
}
330
C3
100
AcDbVisualStyle
  2
Facepattern
 70
    15
177
     2
291
     1
 71
     2
176
     1
 72
     2
176
     1
 73
     0
176
     1
 90
        0
176
     1
 40
0.6
176
     1
 41
30.0
176
     1
 63
     7
421
 16777215
176
     1
 74
     1
176
     1
 91
        4
176
     1
 64
     7
176
     1
 65
   257
176
     1
 75
     1
176
     1
175
     1
176
     1
 42
1.0
176
     1
 92
        8
176
     1
 66
     7
176
     1
 43
1.0
176
     1
 76
     1
176
     1
 77
     6
176
     1
 78
     2
176
     1
 67
     7
176
     1
 79
     5
176
     1
170
     0
176
     1
171
     0
176
     1
290
     0
176
     1
 93
        1
176
     1
 44
0.0
176
     1
173
     0
176
     1
1001
ACAD
1000
AcDbSavedByObjectVersion
1070
     0
  0
VISUALSTYLE
  5
C4
102
{ACAD_XDICTIONARY
360
18B
102
}
102
{ACAD_REACTORS
330
C3
102
}
330
C3
100
AcDbVisualStyle
  2
Flat
 70
     0
177
     2
291
     1
 71
     2
176
     1
 72
     1
176
     1
 73
     1
176
     1
 90
        2
176
     1
 40
0.6
176
     1
 41
30.0
176
     1
 63
     7
421
 16777215
176
     1
 74
     0
176
     1
 91
        0
176
     1
 64
     7
176
     1
 65
   257
176
     1
 75
     1
176
     1
175
     1
176
     1
 42
1.0
176
     1
 92
        8
176
     1
 66
     7
176
     1
 43
1.0
176
     1
 76
     1
176
     1
 77
     6
176
     1
 78
     2
176
     1
 67
     7
176
     1
 79
     5
176
     1
170
     0
176
     1
171
     0
176
     1
290
     0
176
     1
 93
       13
176
     1
 44
0.0
176
     1
173
     0
176
     1
1001
ACAD
1000
AcDbSavedByObjectVersion
1070
     0
  0
VISUALSTYLE
  5
C5
102
{ACAD_XDICTIONARY
360
18D
102
}
102
{ACAD_REACTORS
330
C3
102
}
330
C3
100
AcDbVisualStyle
  2
FlatWithEdges
 70
     1
177
     2
291
     1
 71
     2
176
     1
 72
     1
176
     1
 73
     1
176
     1
 90
        2
176
     1
 40
0.6
176
     1
 41
30.0
176
     1
 63
     7
421
 16777215
176
     1
 74
     1
176
     1
 91
        0
176
     1
 64
     7
176
     1
 65
   257
176
     1
 75
     1
176
     1
175
     1
176
     1
 42
1.0
176
     1
 92
        0
176
     1
 66
   257
176
     1
 43
1.0
176
     1
 76
     1
176
     1
 77
     6
176
     1
 78
     2
176
     1
 67
     7
176
     1
 79
     5
176
     1
170
     0
176
     1
171
     0
176
     1
290
     0
176
     1
 93
       13
176
     1
 44
0.0
176
     1
173
     0
176
     1
1001
ACAD
1000
AcDbSavedByObjectVersion
1070
     0
  0
VISUALSTYLE
  5
C6
102
{ACAD_XDICTIONARY
360
18F
102
}
102
{ACAD_REACTORS
330
C3
102
}
330
C3
100
AcDbVisualStyle
  2
Gouraud
 70
     2
177
     2
291
     1
 71
     2
176
     1
 72
     2
176
     1
 73
     1
176
     1
 90
        2
176
     1
 40
0.6
176
     1
 41
30.0
176
     1
 63
     7
421
 16777215
176
     1
 74
     0
176
     1
 91
        0
176
     1
 64
     7
176
     1
 65
   257
176
     1
 75
     1
176
     1
175
     1
176
     1
 42
1.0
176
     1
 92
        0
176
     1
 66
     7
176
     1
 43
1.0
176
     1
 76
     1
176
     1
 77
     6
176
     1
 78
     2
176
     1
 67
     7
176
     1
 79
     5
176
     1
170
     0
176
     1
171
     0
176
     1
290
     0
176
     1
 93
       13
176
     1
 44
0.0
176
     1
173
     0
176
     1
1001
ACAD
1000
AcDbSavedByObjectVersion
1070
     0
  0
VISUALSTYLE
  5
C7
102
{ACAD_XDICTIONARY
360
191
102
}
102
{ACAD_REACTORS
330
C3
102
}
330
C3
100
AcDbVisualStyle
  2
GouraudWithEdges
 70
     3
177
     2
291
     1
 71
     2
176
     1
 72
     2
176
     1
 73
     1
176
     1
 90
        2
176
     1
 40
0.6
176
     1
 41
30.0
176
     1
 63
     7
421
 16777215
176
     1
 74
     1
176
     1
 91
        0
176
     1
 64
     7
176
     1
 65
   257
176
     1
 75
     1
176
     1
175
     1
176
     1
 42
1.0
176
     1
 92
        0
176
     1
 66
   257
176
     1
 43
1.0
176
     1
 76
     1
176
     1
 77
     6
176
     1
 78
     2
176
     1
 67
     7
176
     1
 79
     5
176
     1
170
     0
176
     1
171
     0
176
     1
290
     0
176
     1
 93
       13
176
     1
 44
0.0
176
     1
173
     0
176
     1
1001
ACAD
1000
AcDbSavedByObjectVersion
1070
     0
  0
VISUALSTYLE
  5
CB
102
{ACAD_XDICTIONARY
360
199
102
}
102
{ACAD_REACTORS
330
C3
102
}
330
C3
100
AcDbVisualStyle
  2
Hidden
 70
     6
177
     2
291
     0
 71
     1
176
     1
 72
     2
176
     1
 73
     2
176
     1
 90
        0
176
     1
 40
0.6
176
     1
 41
30.0
176
     1
 63
     7
421
 16777215
176
     1
 74
     2
176
     1
 91
        2
176
     1
 64
     7
176
     1
 65
   257
176
     1
 75
     2
176
     1
175
     1
176
     1
 42
40.0
176
     1
 92
        0
176
     1
 66
   257
176
     1
 43
1.0
176
     1
 76
     1
176
     1
 77
     6
176
     1
 78
     2
176
     1
 67
     7
176
     1
 79
     3
176
     1
170
     0
176
     1
171
     0
176
     1
290
     0
176
     1
 93
        1
176
     1
 44
0.0
176
     1
173
     0
176
     1
1001
ACAD
1000
AcDbSavedByObjectVersion
1070
     0
  0
VISUALSTYLE
  5
D9
102
{ACAD_XDICTIONARY
360
1B5
102
}
102
{ACAD_REACTORS
330
C3
102
}
330
C3
100
AcDbVisualStyle
  2
JitterOff
 70
    20
177
     2
291
     1
 71
     2
176
     0
 72
     2
176
     0
 73
     0
176
     0
 90
        0
176
     0
 40
0.6
176
     0
 41
30.0
176
     0
 63
     7
421
 16777215
176
     0
 74
     1
176
     0
 91
        4
176
     0
 64
     7
176
     0
 65
   257
176
     0
 75
     1
176
     0
175
     1
176
     0
 42
1.0
176
     0
 92
       10
176
     2
 66
     7
176
     0
 43
1.0
176
     0
 76
     1
176
     0
 77
     6
176
     0
 78
     2
176
     0
 67
     7
176
     0
 79
     5
176
     0
170
     0
176
     0
171
     0
176
     0
290
     0
176
     0
 93
        1
176
     0
 44
0.0
176
     0
173
     0
176
     0
1001
ACAD
1000
AcDbSavedByObjectVersion
1070
     0
  0
VISUALSTYLE
  5
D1
102
{ACAD_XDICTIONARY
360
1A5
102
}
102
{ACAD_REACTORS
330
C3
102
}
330
C3
100
AcDbVisualStyle
  2
Linepattern
 70
    14
177
     2
291
     1
 71
     2
176
     1
 72
     2
176
     1
 73
     0
176
     1
 90
        0
176
     1
 40
0.6
176
     1
 41
30.0
176
     1
 63
     7
421
 16777215
176
     1
 74
     1
176
     1
 91
        4
176
     1
 64
     7
176
     1
 65
   257
176
     1
 75
     7
176
     1
175
     7
176
     1
 42
1.0
176
     1
 92
        8
176
     1
 66
     7
176
     1
 43
1.0
176
     1
 76
     1
176
     1
 77
     6
176
     1
 78
     2
176
     1
 67
     7
176
     1
 79
     5
176
     1
170
     0
176
     1
171
     0
176
     1
290
     0
176
     1
 93
        1
176
     1
 44
0.0
176
     1
173
     0
176
     1
1001
ACAD
1000
AcDbSavedByObjectVersion
1070
     0
  0
VISUALSTYLE
  5
DA
102
{ACAD_XDICTIONARY
360
1B7
102
}
102
{ACAD_REACTORS
330
C3
102
}
330
C3
100
AcDbVisualStyle
  2
OverhangOff
 70
    21
177
     2
291
     1
 71
     2
176
     0
 72
     2
176
     0
 73
     0
176
     0
 90
        0
176
     0
 40
0.6
176
     0
 41
30.0
176
     0
 63
     7
421
 16777215
176
     0
 74
     1
176
     0
 91
        4
176
     0
 64
     7
176
     0
 65
   257
176
     0
 75
     1
176
     0
175
     1
176
     0
 42
1.0
176
     0
 92
        9
176
     2
 66
     7
176
     0
 43
1.0
176
     0
 76
     1
176
     0
 77
     6
176
     0
 78
     2
176
     0
 67
     7
176
     0
 79
     5
176
     0
170
     0
176
     0
171
     0
176
     0
290
     0
176
     0
 93
        1
176
     0
 44
0.0
176
     0
173
     0
176
     0
1001
ACAD
1000
AcDbSavedByObjectVersion
1070
     0
  0
VISUALSTYLE
  5
CD
102
{ACAD_XDICTIONARY
360
19D
102
}
102
{ACAD_REACTORS
330
C3
102
}
330
C3
100
AcDbVisualStyle
  2
Realistic
 70
     8
177
     2
291
     0
 71
     2
176
     1
 72
     3
176
     1
 73
     0
176
     1
 90
        2
176
     1
 40
0.6
176
     1
 41
30.0
176
     1
 63
     7
421
 16777215
176
     1
 74
     0
176
     1
 91
        0
176
     1
 64
     7
176
     1
 65
   257
176
     1
 75
     1
176
     1
175
     1
176
     1
 42
1.0
176
     1
 92
        8
176
     1
 66
   257
176
     1
 43
1.0
176
     1
 76
     1
176
     1
 77
     6
176
     1
 78
     2
176
     1
 67
     7
176
     1
 79
     3
176
     1
170
     0
176
     1
171
     0
176
     1
290
     0
176
     1
 93
       13
176
     1
 44
0.0
176
     1
173
     0
176
     1
1001
ACAD
1000
AcDbSavedByObjectVersion
1070
     0
  0
VISUALSTYLE
  5
D8
102
{ACAD_XDICTIONARY
360
1B3
102
}
102
{ACAD_REACTORS
330
C3
102
}
330
C3
100
AcDbVisualStyle
  2
Shaded
 70
    27
177
     2
291
     0
 71
     2
176
     1
 72
     2
176
     1
 73
     1
176
     1
 90
        2
176
     1
 40
0.6
176
     1
 41
30.0
176
     1
 63
     7
421
 16777215
176
     1
 74
     0
176
     1
 91
        4
176
     1
 64
     7
176
     1
 65
   257
176
     1
 75
     1
176
     1
175
     1
176
     1
 42
1.0
176
     1
 92
        8
176
     1
 66
   257
176
     1
 43
1.0
176
     1
 76
     1
176
     1
 77
     6
176
     1
 78
     2
176
     1
 67
     8
425
  7895160
176
     1
 79
     3
176
     1
170
     0
176
     1
171
     0
176
     1
290
     0
176
     1
 93
        5
176
     1
 44
0.0
176
     1
173
     0
176
     1
1001
ACAD
1000
AcDbSavedByObjectVersion
1070
     0
  0
VISUALSTYLE
  5
D7
102
{ACAD_XDICTIONARY
360
1B1
102
}
102
{ACAD_REACTORS
330
C3
102
}
330
C3
100
AcDbVisualStyle
  2
Shaded with edges
 70
    26
177
     2
291
     0
 71
     2
176
     1
 72
     2
176
     1
 73
     1
176
     1
 90
        2
176
     1
 40
0.6
176
     1
 41
30.0
176
     1
 63
     7
421
 16777215
176
     1
 74
     1
176
     1
 91
       10
176
     1
 64
     7
176
     1
 65
   257
176
     1
 75
     2
176
     1
175
     1
176
     1
 42
1.0
176
     1
 92
        8
176
     1
 66
   257
176
     1
 43
1.0
176
     1
 76
     1
176
     1
 77
     6
176
     1
 78
     2
176
     1
 67
     7
176
     1
 79
     3
176
     1
170
     0
176
     1
171
     0
176
     1
290
     0
176
     1
 93
        5
176
     1
 44
0.0
176
     1
173
     0
176
     1
1001
ACAD
1000
AcDbSavedByObjectVersion
1070
     0
  0
VISUALSTYLE
  5
D4
102
{ACAD_XDICTIONARY
360
1AB
102
}
102
{ACAD_REACTORS
330
C3
102
}
330
C3
100
AcDbVisualStyle
  2
Shades of Gray
 70
    23
177
     2
291
     0
 71
     2
176
     1
 72
     2
176
     1
 73
     3
176
     1
 90
        0
176
     1
 40
0.6
176
     1
 41
30.0
176
     1
 63
     7
421
 16777215
176
     1
 74
     2
176
     1
 91
        2
176
     1
 64
     7
176
     1
 65
     7
176
     1
 75
     1
176
     1
175
     1
176
     1
 42
40.0
176
     1
 92
        8
176
     1
 66
     7
176
     1
 43
1.0
176
     1
 76
     1
176
     1
 77
     6
176
     1
 78
     2
176
     1
 67
     7
176
     1
 79
     3
176
     1
170
     0
176
     1
171
     0
176
     1
290
     0
176
     1
 93
        1
176
     1
 44
0.0
176
     1
173
     0
176
     1
1001
ACAD
1000
AcDbSavedByObjectVersion
1070
     0
  0
VISUALSTYLE
  5
D5
102
{ACAD_XDICTIONARY
360
1AD
102
}
102
{ACAD_REACTORS
330
C3
102
}
330
C3
100
AcDbVisualStyle
  2
Sketchy
 70
    24
177
     2
291
     0
 71
     1
176
     1
 72
     2
176
     1
 73
     2
176
     1
 90
        0
176
     1
 40
0.6
176
     1
 41
30.0
176
     1
 63
     7
421
 16777215
176
     1
 74
     2
176
     1
 91
        2
176
     1
 64
     7
176
     1
 65
     7
176
     1
 75
     1
176
     1
175
     1
176
     1
 42
40.0
176
     1
 92
       11
176
     1
 66
     7
176
     1
 43
1.0
176
     1
 76
     1
176
     1
 77
     6
176
     1
 78
     2
176
     1
 67
     7
176
     1
 79
     6
176
     1
170
     0
176
     1
171
     0
176
     1
290
     0
176
     1
 93
        1
176
     1
 44
0.0
176
     1
173
     0
176
     1
1001
ACAD
1000
AcDbSavedByObjectVersion
1070
     0
  0
VISUALSTYLE
  5
D0
102
{ACAD_XDICTIONARY
360
1A3
102
}
102
{ACAD_REACTORS
330
C3
102
}
330
C3
100
AcDbVisualStyle
  2
Thicken
 70
    13
177
     2
291
     1
 71
     2
176
     1
 72
     2
176
     1
 73
     0
176
     1
 90
        0
176
     1
 40
0.6
176
     1
 41
30.0
176
     1
 63
     7
421
 16777215
176
     1
 74
     1
176
     1
 91
        4
176
     1
 64
     7
176
     1
 65
   257
176
     1
 75
     1
176
     1
175
     1
176
     1
 42
1.0
176
     1
 92
       12
176
     1
 66
     7
176
     1
 43
1.0
176
     1
 76
     1
176
     1
 77
     6
176
     1
 78
     2
176
     1
 67
     7
176
     1
 79
     5
176
     1
170
     0
176
     1
171
     0
176
     1
290
     0
176
     1
 93
        1
176
     1
 44
0.0
176
     1
173
     0
176
     1
1001
ACAD
1000
AcDbSavedByObjectVersion
1070
     0
  0
VISUALSTYLE
  5
CA
102
{ACAD_XDICTIONARY
360
197
102
}
102
{ACAD_REACTORS
330
C3
102
}
330
C3
100
AcDbVisualStyle
  2
Wireframe
 70
     5
177
     2
291
     0
 71
     0
176
     1
 72
     2
176
     1
 73
     0
176
     1
 90
        0
176
     1
 40
0.6
176
     1
 41
30.0
176
     1
 63
     7
421
 16777215
176
     1
 74
     1
176
     1
 91
        4
176
     1
 64
     7
176
     1
 65
   257
176
     1
 75
     1
176
     1
175
     1
176
     1
 42
1.0
176
     1
 92
        0
176
     1
 66
   257
176
     1
 43
1.0
176
     1
 76
     1
176
     1
 77
     6
176
     1
 78
     2
176
     1
 67
     7
176
     1
 79
     3
176
     1
170
     0
176
     1
171
     0
176
     1
290
     0
176
     1
 93
        1
176
     1
 44
0.0
176
     1
173
     0
176
     1
1001
ACAD
1000
AcDbSavedByObjectVersion
1070
     0
  0
VISUALSTYLE
  5
D6
102
{ACAD_XDICTIONARY
360
1AF
102
}
102
{ACAD_REACTORS
330
C3
102
}
330
C3
100
AcDbVisualStyle
  2
X-Ray
 70
    25
177
     2
291
     0
 71
     2
176
     1
 72
     2
176
     1
 73
     1
176
     1
 90
        1
176
     1
 40
0.5
176
     1
 41
30.0
176
     1
 63
     7
421
 16777215
176
     1
 74
     1
176
     1
 91
        0
176
     1
 64
     7
176
     1
 65
   257
176
     1
 75
     1
176
     1
175
     1
176
     1
 42
1.0
176
     1
 92
        8
176
     1
 66
     7
176
     1
 43
1.0
176
     1
 76
     1
176
     1
 77
     6
176
     1
 78
     2
176
     1
 67
     7
176
     1
 79
     3
176
     1
170
     0
176
     1
171
     0
176
     1
290
     0
176
     1
 93
       13
176
     1
 44
0.0
176
     1
173
     0
176
     1
1001
ACAD
1000
AcDbSavedByObjectVersion
1070
     0
  0
DICTIONARYVAR
  5
184
102
{ACAD_REACTORS
330
17E
102
}
330
17E
100
DictionaryVariables
280
     0
  1
1:1
  0
DICTIONARYVAR
  5
180
102
{ACAD_REACTORS
330
17E
102
}
330
17E
100
DictionaryVariables
280
     0
  1
STANDARD
  0
DICTIONARYVAR
  5
17F
102
{ACAD_REACTORS
330
17E
102
}
330
17E
100
DictionaryVariables
280
     0
  1
STANDARD
  0
DICTIONARYVAR
  5
181
102
{ACAD_REACTORS
330
17E
102
}
330
17E
100
DictionaryVariables
280
     0
  1
Imperial24
  0
DICTIONARYVAR
  5
182
102
{ACAD_REACTORS
330
17E
102
}
330
17E
100
DictionaryVariables
280
     0
  1
Imperial24
  0
DICTIONARYVAR
  5
186
102
{ACAD_REACTORS
330
17E
102
}
330
17E
100
DictionaryVariables
280
     0
  1
1
  0
DICTIONARYVAR
  5
187
102
{ACAD_REACTORS
330
17E
102
}
330
17E
100
DictionaryVariables
280
     0
  1
15
  0
DICTIONARYVAR
  5
185
102
{ACAD_REACTORS
330
17E
102
}
330
17E
100
DictionaryVariables
280
     0
  1
0
  0
DICTIONARYVAR
  5
183
102
{ACAD_REACTORS
330
17E
102
}
330
17E
100
DictionaryVariables
280
     0
  1
0
  0
DICTIONARY
  5
1BF
330
F6
100
AcDbDictionary
280
     1
281
     1
  3
ACAD_XREC_ROUNDTRIP
360
1C0
  0
DICTIONARY
  5
B4
330
B3
100
AcDbDictionary
280
     1
281
     1
  3
BUMPTILE
360
B6
  3
DIFFUSETILE
360
B5
  3
OPACITYTILE
360
B9
  3
REFLECTIONTILE
360
B8
  3
REFRACTIONTILE
360
BA
  3
SPECULARTILE
360
B7
  0
DICTIONARY
  5
AC
330
AB
100
AcDbDictionary
280
     1
281
     1
  3
BUMPTILE
360
AE
  3
DIFFUSETILE
360
AD
  3
OPACITYTILE
360
B1
  3
REFLECTIONTILE
360
B0
  3
REFRACTIONTILE
360
B2
  3
SPECULARTILE
360
AF
  0
DICTIONARY
  5
BC
330
BB
100
AcDbDictionary
280
     1
281
     1
  3
BUMPTILE
360
BE
  3
DIFFUSETILE
360
BD
  3
OPACITYTILE
360
C1
  3
REFLECTIONTILE
360
C0
  3
REFRACTIONTILE
360
C2
  3
SPECULARTILE
360
BF
  0
DICTIONARY
  5
1BB
330
F2
100
AcDbDictionary
280
     1
281
     1
  3
ACAD_XREC_ROUNDTRIP
360
1BC
  0
DICTIONARY
  5
1BD
330
F4
100
AcDbDictionary
280
     1
281
     1
  3
ACAD_XREC_ROUNDTRIP
360
1BE
  0
DICTIONARY
  5
188
330
DE
100
AcDbDictionary
280
     1
281
     1
  3
ACAD_ROUNDTRIP_2008_TABLESTYLE_CELLSTYLEMAP
360
189
  0
DICTIONARY
  5
195
330
C9
100
AcDbDictionary
280
     1
281
     1
  3
ACAD_XREC_ROUNDTRIP
360
196
  0
DICTIONARY
  5
193
330
C8
100
AcDbDictionary
280
     1
281
     1
  3
ACAD_XREC_ROUNDTRIP
360
194
  0
DICTIONARY
  5
1A1
330
CF
100
AcDbDictionary
280
     1
281
     1
  3
ACAD_XREC_ROUNDTRIP
360
1A2
  0
DICTIONARY
  5
1A9
330
D3
100
AcDbDictionary
280
     1
281
     1
  3
ACAD_XREC_ROUNDTRIP
360
1AA
  0
DICTIONARY
  5
19B
330
CC
100
AcDbDictionary
280
     1
281
     1
  3
ACAD_XREC_ROUNDTRIP
360
19C
  0
DICTIONARY
  5
19F
330
CE
100
AcDbDictionary
280
     1
281
     1
  3
ACAD_XREC_ROUNDTRIP
360
1A0
  0
DICTIONARY
  5
1B9
330
DB
100
AcDbDictionary
280
     1
281
     1
  3
ACAD_XREC_ROUNDTRIP
360
1BA
  0
DICTIONARY
  5
1A7
330
D2
100
AcDbDictionary
280
     1
281
     1
  3
ACAD_XREC_ROUNDTRIP
360
1A8
  0
DICTIONARY
  5
18B
330
C4
100
AcDbDictionary
280
     1
281
     1
  3
ACAD_XREC_ROUNDTRIP
360
18C
  0
DICTIONARY
  5
18D
330
C5
100
AcDbDictionary
280
     1
281
     1
  3
ACAD_XREC_ROUNDTRIP
360
18E
  0
DICTIONARY
  5
18F
330
C6
100
AcDbDictionary
280
     1
281
     1
  3
ACAD_XREC_ROUNDTRIP
360
190
  0
DICTIONARY
  5
191
330
C7
100
AcDbDictionary
280
     1
281
     1
  3
ACAD_XREC_ROUNDTRIP
360
192
  0
DICTIONARY
  5
199
330
CB
100
AcDbDictionary
280
     1
281
     1
  3
ACAD_XREC_ROUNDTRIP
360
19A
  0
DICTIONARY
  5
1B5
330
D9
100
AcDbDictionary
280
     1
281
     1
  3
ACAD_XREC_ROUNDTRIP
360
1B6
  0
DICTIONARY
  5
1A5
330
D1
100
AcDbDictionary
280
     1
281
     1
  3
ACAD_XREC_ROUNDTRIP
360
1A6
  0
DICTIONARY
  5
1B7
330
DA
100
AcDbDictionary
280
     1
281
     1
  3
ACAD_XREC_ROUNDTRIP
360
1B8
  0
DICTIONARY
  5
19D
330
CD
100
AcDbDictionary
280
     1
281
     1
  3
ACAD_XREC_ROUNDTRIP
360
19E
  0
DICTIONARY
  5
1B3
330
D8
100
AcDbDictionary
280
     1
281
     1
  3
ACAD_XREC_ROUNDTRIP
360
1B4
  0
DICTIONARY
  5
1B1
330
D7
100
AcDbDictionary
280
     1
281
     1
  3
ACAD_XREC_ROUNDTRIP
360
1B2
  0
DICTIONARY
  5
1AB
330
D4
100
AcDbDictionary
280
     1
281
     1
  3
ACAD_XREC_ROUNDTRIP
360
1AC
  0
DICTIONARY
  5
1AD
330
D5
100
AcDbDictionary
280
     1
281
     1
  3
ACAD_XREC_ROUNDTRIP
360
1AE
  0
DICTIONARY
  5
1A3
330
D0
100
AcDbDictionary
280
     1
281
     1
  3
ACAD_XREC_ROUNDTRIP
360
1A4
  0
DICTIONARY
  5
197
330
CA
100
AcDbDictionary
280
     1
281
     1
  3
ACAD_XREC_ROUNDTRIP
360
198
  0
DICTIONARY
  5
1AF
330
D6
100
AcDbDictionary
280
     1
281
     1
  3
ACAD_XREC_ROUNDTRIP
360
1B0
  0
XRECORD
  5
1C0
102
{ACAD_REACTORS
330
1BF
102
}
330
1BF
100
AcDbXrecord
280
     1
102
DISPLAYNAME
  1
Imperial24
102
FLAGS
 90
        0
  0
XRECORD
  5
B6
102
{ACAD_REACTORS
330
B4
102
}
330
B4
100
AcDbXrecord
280
     1
270
     1
271
     1
  0
XRECORD
  5
B5
102
{ACAD_REACTORS
330
B4
102
}
330
B4
100
AcDbXrecord
280
     1
270
     1
271
     1
  0
XRECORD
  5
B9
102
{ACAD_REACTORS
330
B4
102
}
330
B4
100
AcDbXrecord
280
     1
270
     1
271
     1
  0
XRECORD
  5
B8
102
{ACAD_REACTORS
330
B4
102
}
330
B4
100
AcDbXrecord
280
     1
270
     1
271
     1
  0
XRECORD
  5
BA
102
{ACAD_REACTORS
330
B4
102
}
330
B4
100
AcDbXrecord
280
     1
270
     1
271
     1
  0
XRECORD
  5
B7
102
{ACAD_REACTORS
330
B4
102
}
330
B4
100
AcDbXrecord
280
     1
270
     1
271
     1
  0
XRECORD
  5
AE
102
{ACAD_REACTORS
330
AC
102
}
330
AC
100
AcDbXrecord
280
     1
270
     1
271
     1
  0
XRECORD
  5
AD
102
{ACAD_REACTORS
330
AC
102
}
330
AC
100
AcDbXrecord
280
     1
270
     1
271
     1
  0
XRECORD
  5
B1
102
{ACAD_REACTORS
330
AC
102
}
330
AC
100
AcDbXrecord
280
     1
270
     1
271
     1
  0
XRECORD
  5
B0
102
{ACAD_REACTORS
330
AC
102
}
330
AC
100
AcDbXrecord
280
     1
270
     1
271
     1
  0
XRECORD
  5
B2
102
{ACAD_REACTORS
330
AC
102
}
330
AC
100
AcDbXrecord
280
     1
270
     1
271
     1
  0
XRECORD
  5
AF
102
{ACAD_REACTORS
330
AC
102
}
330
AC
100
AcDbXrecord
280
     1
270
     1
271
     1
  0
XRECORD
  5
BE
102
{ACAD_REACTORS
330
BC
102
}
330
BC
100
AcDbXrecord
280
     1
270
     1
271
     1
  0
XRECORD
  5
BD
102
{ACAD_REACTORS
330
BC
102
}
330
BC
100
AcDbXrecord
280
     1
270
     1
271
     1
  0
XRECORD
  5
C1
102
{ACAD_REACTORS
330
BC
102
}
330
BC
100
AcDbXrecord
280
     1
270
     1
271
     1
  0
XRECORD
  5
C0
102
{ACAD_REACTORS
330
BC
102
}
330
BC
100
AcDbXrecord
280
     1
270
     1
271
     1
  0
XRECORD
  5
C2
102
{ACAD_REACTORS
330
BC
102
}
330
BC
100
AcDbXrecord
280
     1
270
     1
271
     1
  0
XRECORD
  5
BF
102
{ACAD_REACTORS
330
BC
102
}
330
BC
100
AcDbXrecord
280
     1
270
     1
271
     1
  0
XRECORD
  5
1BC
102
{ACAD_REACTORS
330
1BB
102
}
330
1BB
100
AcDbXrecord
280
     1
102
ACAD_ROUNDTRIP_2012_MLEADER_STYLE
298
     1
  0
XRECORD
  5
1BE
102
{ACAD_REACTORS
330
1BD
102
}
330
1BD
100
AcDbXrecord
280
     1
102
DISPLAYNAME
  1
Imperial24
102
FLAGS
 90
        0
  0
CELLSTYLEMAP
  5
189
102
{ACAD_REACTORS
330
188
102
}
330
188
100
AcDbCellStyleMap
 90
        3
300
CELLSTYLE
  1
TABLEFORMAT_BEGIN
 90
        5
170
     1
 91
        0
 92
    32768
 62
   257
 93
        1
300
CONTENTFORMAT
  1
CONTENTFORMAT_BEGIN
 90
        0
 91
        0
 92
      512
 93
        0
300

 40
0.0
140
1.0
 94
        5
 62
     0
340
11
144
0.25
309
CONTENTFORMAT_END
171
     0
 94
        0
309
TABLEFORMAT_END
  1
CELLSTYLE_BEGIN
 90
        1
 91
        1
300
_TITLE
309
CELLSTYLE_END
300
CELLSTYLE
  1
TABLEFORMAT_BEGIN
 90
        5
170
     1
 91
        0
 92
        0
 62
   257
 93
        1
300
CONTENTFORMAT
  1
CONTENTFORMAT_BEGIN
 90
        0
 91
        0
 92
      512
 93
        0
300

 40
0.0
140
1.0
 94
        5
 62
     0
340
11
144
0.18
309
CONTENTFORMAT_END
171
     0
 94
        0
309
TABLEFORMAT_END
  1
CELLSTYLE_BEGIN
 90
        2
 91
        1
300
_HEADER
309
CELLSTYLE_END
300
CELLSTYLE
  1
TABLEFORMAT_BEGIN
 90
        5
170
     1
 91
        0
 92
        0
 62
   257
 93
        1
300
CONTENTFORMAT
  1
CONTENTFORMAT_BEGIN
 90
        0
 91
        0
 92
      512
 93
        0
300

 40
0.0
140
1.0
 94
        2
 62
     0
340
11
144
0.18
309
CONTENTFORMAT_END
171
     0
 94
        0
309
TABLEFORMAT_END
  1
CELLSTYLE_BEGIN
 90
        3
 91
        2
300
_DATA
309
CELLSTYLE_END
  0
XRECORD
  5
196
102
{ACAD_REACTORS
330
195
102
}
330
195
100
AcDbXrecord
280
     1
102
RTVSPost2010Prop28
280
     1
102
RTVSPost2010PropOp28
 70
     1
102
RTVSPost2010Prop29
280
     1
102
RTVSPost2010PropOp29
 70
     1
102
RTVSPost2010Prop30
280
     0
102
RTVSPost2010PropOp30
 70
     1
102
RTVSPost2010Prop31
280
     0
102
RTVSPost2010PropOp31
 70
     1
102
RTVSPost2010Prop32
280
     0
102
RTVSPost2010PropOp32
 70
     1
102
RTVSPost2010Prop33
280
     0
102
RTVSPost2010PropOp33
 70
     1
102
RTVSPost2010Prop34
280
     0
102
RTVSPost2010PropOp34
 70
     1
102
RTVSPost2010Prop35
280
     0
102
RTVSPost2010PropOp35
 70
     1
102
RTVSPost2010Prop36
280
     0
102
RTVSPost2010PropOp36
 70
     1
102
RTVSPost2010Prop37
 90
       50
102
RTVSPost2010PropOp37
 70
     1
102
RTVSPost2010Prop38
140
0.0
102
RTVSPost2010PropOp38
 70
     1
102
RTVSPost2010Prop39
140
1.0
102
RTVSPost2010PropOp39
 70
     1
102
RTVSPost2010Prop40
 90
        0
102
RTVSPost2010PropOp40
 70
     1
102
RTVSPost2010Prop41ColorIndex
 90
       18
102
RTVSPost2010Prop41ColorRGB
 90
        0
102
RTVSPost2010PropOp41
 70
     1
102
RTVSPost2010Prop42
 90
       50
102
RTVSPost2010PropOp42
 70
     1
102
RTVSPost2010Prop43
 90
        3
102
RTVSPost2010PropOp43
 70
     1
102
RTVSPost2010Prop44ColorIndex
 90
        5
102
RTVSPost2010Prop44ColorRGB
 90
      255
102
RTVSPost2010PropOp44
 70
     1
102
RTVSPost2010Prop45
280
     0
102
RTVSPost2010PropOp45
 70
     1
102
RTVSPost2010Prop46
 90
       50
102
RTVSPost2010PropOp46
 70
     1
102
RTVSPost2010Prop47
 90
       50
102
RTVSPost2010PropOp47
 70
     1
102
RTVSPost2010Prop48
 90
       50
102
RTVSPost2010PropOp48
 70
     1
102
RTVSPost2010Prop49
280
     0
102
RTVSPost2010PropOp49
 70
     1
102
RTVSPost2010Prop50
 90
       50
102
RTVSPost2010PropOp50
 70
     1
102
RTVSPost2010Prop51ColorIndex
 90
      256
102
RTVSPost2010Prop51ColorRGB
 90
-16777216
102
RTVSPost2010PropOp51
 70
     0
102
RTVSPost2010Prop52
140
1.0
102
RTVSPost2010PropOp52
 70
     0
102
RTVSPost2010Prop53
 90
        2
102
RTVSPost2010PropOp53
 70
     1
102
RTVSPost2010Prop54
  1
strokes_ogs.tif
102
RTVSPost2010PropOp54
 70
     1
102
RTVSPost2010Prop55
280
     0
102
RTVSPost2010PropOp55
 70
     1
102
RTVSPost2010Prop56
140
1.0
102
RTVSPost2010PropOp56
 70
     1
102
RTVSPost2010Prop57
140
1.0
102
RTVSPost2010PropOp57
 70
     1
  0
XRECORD
  5
194
102
{ACAD_REACTORS
330
193
102
}
330
193
100
AcDbXrecord
280
     1
102
RTVSPost2010Prop28
280
     0
102
RTVSPost2010PropOp28
 70
     1
102
RTVSPost2010Prop29
280
     1
102
RTVSPost2010PropOp29
 70
     1
102
RTVSPost2010Prop30
280
     1
102
RTVSPost2010PropOp30
 70
     1
102
RTVSPost2010Prop31
280
     0
102
RTVSPost2010PropOp31
 70
     1
102
RTVSPost2010Prop32
280
     0
102
RTVSPost2010PropOp32
 70
     1
102
RTVSPost2010Prop33
280
     0
102
RTVSPost2010PropOp33
 70
     1
102
RTVSPost2010Prop34
280
     0
102
RTVSPost2010PropOp34
 70
     1
102
RTVSPost2010Prop35
280
     0
102
RTVSPost2010PropOp35
 70
     1
102
RTVSPost2010Prop36
280
     0
102
RTVSPost2010PropOp36
 70
     1
102
RTVSPost2010Prop37
 90
       50
102
RTVSPost2010PropOp37
 70
     1
102
RTVSPost2010Prop38
140
0.0
102
RTVSPost2010PropOp38
 70
     1
102
RTVSPost2010Prop39
140
1.0
102
RTVSPost2010PropOp39
 70
     1
102
RTVSPost2010Prop40
 90
        0
102
RTVSPost2010PropOp40
 70
     1
102
RTVSPost2010Prop41ColorIndex
 90
       18
102
RTVSPost2010Prop41ColorRGB
 90
        0
102
RTVSPost2010PropOp41
 70
     1
102
RTVSPost2010Prop42
 90
       50
102
RTVSPost2010PropOp42
 70
     1
102
RTVSPost2010Prop43
 90
        3
102
RTVSPost2010PropOp43
 70
     1
102
RTVSPost2010Prop44ColorIndex
 90
        5
102
RTVSPost2010Prop44ColorRGB
 90
      255
102
RTVSPost2010PropOp44
 70
     1
102
RTVSPost2010Prop45
280
     0
102
RTVSPost2010PropOp45
 70
     1
102
RTVSPost2010Prop46
 90
       50
102
RTVSPost2010PropOp46
 70
     1
102
RTVSPost2010Prop47
 90
       50
102
RTVSPost2010PropOp47
 70
     1
102
RTVSPost2010Prop48
 90
       50
102
RTVSPost2010PropOp48
 70
     1
102
RTVSPost2010Prop49
280
     0
102
RTVSPost2010PropOp49
 70
     1
102
RTVSPost2010Prop50
 90
       50
102
RTVSPost2010PropOp50
 70
     1
102
RTVSPost2010Prop51ColorIndex
 90
      256
102
RTVSPost2010Prop51ColorRGB
 90
-16777216
102
RTVSPost2010PropOp51
 70
     0
102
RTVSPost2010Prop52
140
1.0
102
RTVSPost2010PropOp52
 70
     0
102
RTVSPost2010Prop53
 90
        2
102
RTVSPost2010PropOp53
 70
     1
102
RTVSPost2010Prop54
  1
strokes_ogs.tif
102
RTVSPost2010PropOp54
 70
     1
102
RTVSPost2010Prop55
280
     0
102
RTVSPost2010PropOp55
 70
     1
102
RTVSPost2010Prop56
140
1.0
102
RTVSPost2010PropOp56
 70
     1
102
RTVSPost2010Prop57
140
1.0
102
RTVSPost2010PropOp57
 70
     1
  0
XRECORD
  5
1A2
102
{ACAD_REACTORS
330
1A1
102
}
330
1A1
100
AcDbXrecord
280
     1
102
RTVSPost2010Prop28
280
     0
102
RTVSPost2010PropOp28
 70
     1
102
RTVSPost2010Prop29
280
     1
102
RTVSPost2010PropOp29
 70
     1
102
RTVSPost2010Prop30
280
     1
102
RTVSPost2010PropOp30
 70
     1
102
RTVSPost2010Prop31
280
     0
102
RTVSPost2010PropOp31
 70
     1
102
RTVSPost2010Prop32
280
     0
102
RTVSPost2010PropOp32
 70
     1
102
RTVSPost2010Prop33
280
     0
102
RTVSPost2010PropOp33
 70
     1
102
RTVSPost2010Prop34
280
     0
102
RTVSPost2010PropOp34
 70
     1
102
RTVSPost2010Prop35
280
     0
102
RTVSPost2010PropOp35
 70
     1
102
RTVSPost2010Prop36
280
     0
102
RTVSPost2010PropOp36
 70
     1
102
RTVSPost2010Prop37
 90
       50
102
RTVSPost2010PropOp37
 70
     1
102
RTVSPost2010Prop38
140
0.0
102
RTVSPost2010PropOp38
 70
     1
102
RTVSPost2010Prop39
140
1.0
102
RTVSPost2010PropOp39
 70
     1
102
RTVSPost2010Prop40
 90
        0
102
RTVSPost2010PropOp40
 70
     1
102
RTVSPost2010Prop41ColorIndex
 90
       18
102
RTVSPost2010Prop41ColorRGB
 90
        0
102
RTVSPost2010PropOp41
 70
     1
102
RTVSPost2010Prop42
 90
       50
102
RTVSPost2010PropOp42
 70
     1
102
RTVSPost2010Prop43
 90
        3
102
RTVSPost2010PropOp43
 70
     1
102
RTVSPost2010Prop44ColorIndex
 90
        5
102
RTVSPost2010Prop44ColorRGB
 90
      255
102
RTVSPost2010PropOp44
 70
     1
102
RTVSPost2010Prop45
280
     0
102
RTVSPost2010PropOp45
 70
     1
102
RTVSPost2010Prop46
 90
       50
102
RTVSPost2010PropOp46
 70
     1
102
RTVSPost2010Prop47
 90
       50
102
RTVSPost2010PropOp47
 70
     1
102
RTVSPost2010Prop48
 90
       50
102
RTVSPost2010PropOp48
 70
     1
102
RTVSPost2010Prop49
280
     0
102
RTVSPost2010PropOp49
 70
     1
102
RTVSPost2010Prop50
 90
       50
102
RTVSPost2010PropOp50
 70
     1
102
RTVSPost2010Prop51ColorIndex
 90
      256
102
RTVSPost2010Prop51ColorRGB
 90
-16777216
102
RTVSPost2010PropOp51
 70
     0
102
RTVSPost2010Prop52
140
1.0
102
RTVSPost2010PropOp52
 70
     0
102
RTVSPost2010Prop53
 90
        2
102
RTVSPost2010PropOp53
 70
     1
102
RTVSPost2010Prop54
  1
strokes_ogs.tif
102
RTVSPost2010PropOp54
 70
     1
102
RTVSPost2010Prop55
280
     0
102
RTVSPost2010PropOp55
 70
     1
102
RTVSPost2010Prop56
140
1.0
102
RTVSPost2010PropOp56
 70
     1
102
RTVSPost2010Prop57
140
1.0
102
RTVSPost2010PropOp57
 70
     1
  0
XRECORD
  5
1AA
102
{ACAD_REACTORS
330
1A9
102
}
330
1A9
100
AcDbXrecord
280
     1
102
RTVSPost2010Prop28
280
     0
102
RTVSPost2010PropOp28
 70
     1
102
RTVSPost2010Prop29
280
     1
102
RTVSPost2010PropOp29
 70
     1
102
RTVSPost2010Prop30
280
     1
102
RTVSPost2010PropOp30
 70
     1
102
RTVSPost2010Prop31
280
     0
102
RTVSPost2010PropOp31
 70
     1
102
RTVSPost2010Prop32
280
     0
102
RTVSPost2010PropOp32
 70
     1
102
RTVSPost2010Prop33
280
     0
102
RTVSPost2010PropOp33
 70
     1
102
RTVSPost2010Prop34
280
     0
102
RTVSPost2010PropOp34
 70
     1
102
RTVSPost2010Prop35
280
     0
102
RTVSPost2010PropOp35
 70
     1
102
RTVSPost2010Prop36
280
     0
102
RTVSPost2010PropOp36
 70
     1
102
RTVSPost2010Prop37
 90
       50
102
RTVSPost2010PropOp37
 70
     1
102
RTVSPost2010Prop38
140
0.0
102
RTVSPost2010PropOp38
 70
     1
102
RTVSPost2010Prop39
140
1.0
102
RTVSPost2010PropOp39
 70
     1
102
RTVSPost2010Prop40
 90
        0
102
RTVSPost2010PropOp40
 70
     1
102
RTVSPost2010Prop41ColorIndex
 90
       18
102
RTVSPost2010Prop41ColorRGB
 90
        0
102
RTVSPost2010PropOp41
 70
     1
102
RTVSPost2010Prop42
 90
       50
102
RTVSPost2010PropOp42
 70
     1
102
RTVSPost2010Prop43
 90
        3
102
RTVSPost2010PropOp43
 70
     1
102
RTVSPost2010Prop44ColorIndex
 90
        5
102
RTVSPost2010Prop44ColorRGB
 90
      255
102
RTVSPost2010PropOp44
 70
     1
102
RTVSPost2010Prop45
280
     0
102
RTVSPost2010PropOp45
 70
     1
102
RTVSPost2010Prop46
 90
       50
102
RTVSPost2010PropOp46
 70
     1
102
RTVSPost2010Prop47
 90
       50
102
RTVSPost2010PropOp47
 70
     1
102
RTVSPost2010Prop48
 90
       50
102
RTVSPost2010PropOp48
 70
     1
102
RTVSPost2010Prop49
280
     0
102
RTVSPost2010PropOp49
 70
     1
102
RTVSPost2010Prop50
 90
       50
102
RTVSPost2010PropOp50
 70
     1
102
RTVSPost2010Prop51ColorIndex
 90
      256
102
RTVSPost2010Prop51ColorRGB
 90
-16777216
102
RTVSPost2010PropOp51
 70
     0
102
RTVSPost2010Prop52
140
1.0
102
RTVSPost2010PropOp52
 70
     0
102
RTVSPost2010Prop53
 90
        2
102
RTVSPost2010PropOp53
 70
     1
102
RTVSPost2010Prop54
  1
strokes_ogs.tif
102
RTVSPost2010PropOp54
 70
     1
102
RTVSPost2010Prop55
280
     0
102
RTVSPost2010PropOp55
 70
     1
102
RTVSPost2010Prop56
140
1.0
102
RTVSPost2010PropOp56
 70
     1
102
RTVSPost2010Prop57
140
1.0
102
RTVSPost2010PropOp57
 70
     1
  0
XRECORD
  5
19C
102
{ACAD_REACTORS
330
19B
102
}
330
19B
100
AcDbXrecord
280
     1
102
RTVSPost2010Prop28
280
     0
102
RTVSPost2010PropOp28
 70
     1
102
RTVSPost2010Prop29
280
     1
102
RTVSPost2010PropOp29
 70
     1
102
RTVSPost2010Prop30
280
     1
102
RTVSPost2010PropOp30
 70
     1
102
RTVSPost2010Prop31
280
     0
102
RTVSPost2010PropOp31
 70
     1
102
RTVSPost2010Prop32
280
     0
102
RTVSPost2010PropOp32
 70
     1
102
RTVSPost2010Prop33
280
     0
102
RTVSPost2010PropOp33
 70
     1
102
RTVSPost2010Prop34
280
     0
102
RTVSPost2010PropOp34
 70
     1
102
RTVSPost2010Prop35
280
     0
102
RTVSPost2010PropOp35
 70
     1
102
RTVSPost2010Prop36
280
     0
102
RTVSPost2010PropOp36
 70
     1
102
RTVSPost2010Prop37
 90
       50
102
RTVSPost2010PropOp37
 70
     1
102
RTVSPost2010Prop38
140
0.0
102
RTVSPost2010PropOp38
 70
     1
102
RTVSPost2010Prop39
140
1.0
102
RTVSPost2010PropOp39
 70
     1
102
RTVSPost2010Prop40
 90
        0
102
RTVSPost2010PropOp40
 70
     1
102
RTVSPost2010Prop41ColorIndex
 90
       18
102
RTVSPost2010Prop41ColorRGB
 90
        0
102
RTVSPost2010PropOp41
 70
     1
102
RTVSPost2010Prop42
 90
       50
102
RTVSPost2010PropOp42
 70
     1
102
RTVSPost2010Prop43
 90
        3
102
RTVSPost2010PropOp43
 70
     1
102
RTVSPost2010Prop44ColorIndex
 90
        5
102
RTVSPost2010Prop44ColorRGB
 90
      255
102
RTVSPost2010PropOp44
 70
     1
102
RTVSPost2010Prop45
280
     0
102
RTVSPost2010PropOp45
 70
     1
102
RTVSPost2010Prop46
 90
       50
102
RTVSPost2010PropOp46
 70
     1
102
RTVSPost2010Prop47
 90
       50
102
RTVSPost2010PropOp47
 70
     1
102
RTVSPost2010Prop48
 90
       50
102
RTVSPost2010PropOp48
 70
     1
102
RTVSPost2010Prop49
280
     0
102
RTVSPost2010PropOp49
 70
     1
102
RTVSPost2010Prop50
 90
       50
102
RTVSPost2010PropOp50
 70
     1
102
RTVSPost2010Prop51ColorIndex
 90
      256
102
RTVSPost2010Prop51ColorRGB
 90
-16777216
102
RTVSPost2010PropOp51
 70
     0
102
RTVSPost2010Prop52
140
1.0
102
RTVSPost2010PropOp52
 70
     0
102
RTVSPost2010Prop53
 90
        2
102
RTVSPost2010PropOp53
 70
     1
102
RTVSPost2010Prop54
  1
strokes_ogs.tif
102
RTVSPost2010PropOp54
 70
     1
102
RTVSPost2010Prop55
280
     0
102
RTVSPost2010PropOp55
 70
     1
102
RTVSPost2010Prop56
140
1.0
102
RTVSPost2010PropOp56
 70
     1
102
RTVSPost2010Prop57
140
1.0
102
RTVSPost2010PropOp57
 70
     1
  0
XRECORD
  5
1A0
102
{ACAD_REACTORS
330
19F
102
}
330
19F
100
AcDbXrecord
280
     1
102
RTVSPost2010Prop28
280
     0
102
RTVSPost2010PropOp28
 70
     1
102
RTVSPost2010Prop29
280
     1
102
RTVSPost2010PropOp29
 70
     1
102
RTVSPost2010Prop30
280
     1
102
RTVSPost2010PropOp30
 70
     1
102
RTVSPost2010Prop31
280
     0
102
RTVSPost2010PropOp31
 70
     1
102
RTVSPost2010Prop32
280
     0
102
RTVSPost2010PropOp32
 70
     1
102
RTVSPost2010Prop33
280
     0
102
RTVSPost2010PropOp33
 70
     1
102
RTVSPost2010Prop34
280
     0
102
RTVSPost2010PropOp34
 70
     1
102
RTVSPost2010Prop35
280
     0
102
RTVSPost2010PropOp35
 70
     1
102
RTVSPost2010Prop36
280
     0
102
RTVSPost2010PropOp36
 70
     1
102
RTVSPost2010Prop37
 90
       50
102
RTVSPost2010PropOp37
 70
     1
102
RTVSPost2010Prop38
140
0.0
102
RTVSPost2010PropOp38
 70
     1
102
RTVSPost2010Prop39
140
1.0
102
RTVSPost2010PropOp39
 70
     1
102
RTVSPost2010Prop40
 90
        0
102
RTVSPost2010PropOp40
 70
     1
102
RTVSPost2010Prop41ColorIndex
 90
       18
102
RTVSPost2010Prop41ColorRGB
 90
        0
102
RTVSPost2010PropOp41
 70
     1
102
RTVSPost2010Prop42
 90
       50
102
RTVSPost2010PropOp42
 70
     1
102
RTVSPost2010Prop43
 90
        3
102
RTVSPost2010PropOp43
 70
     1
102
RTVSPost2010Prop44ColorIndex
 90
        5
102
RTVSPost2010Prop44ColorRGB
 90
      255
102
RTVSPost2010PropOp44
 70
     1
102
RTVSPost2010Prop45
280
     0
102
RTVSPost2010PropOp45
 70
     1
102
RTVSPost2010Prop46
 90
       50
102
RTVSPost2010PropOp46
 70
     1
102
RTVSPost2010Prop47
 90
       50
102
RTVSPost2010PropOp47
 70
     1
102
RTVSPost2010Prop48
 90
       50
102
RTVSPost2010PropOp48
 70
     1
102
RTVSPost2010Prop49
280
     0
102
RTVSPost2010PropOp49
 70
     1
102
RTVSPost2010Prop50
 90
       50
102
RTVSPost2010PropOp50
 70
     1
102
RTVSPost2010Prop51ColorIndex
 90
      256
102
RTVSPost2010Prop51ColorRGB
 90
-16777216
102
RTVSPost2010PropOp51
 70
     0
102
RTVSPost2010Prop52
140
1.0
102
RTVSPost2010PropOp52
 70
     0
102
RTVSPost2010Prop53
 90
        2
102
RTVSPost2010PropOp53
 70
     1
102
RTVSPost2010Prop54
  1
strokes_ogs.tif
102
RTVSPost2010PropOp54
 70
     1
102
RTVSPost2010Prop55
280
     0
102
RTVSPost2010PropOp55
 70
     1
102
RTVSPost2010Prop56
140
1.0
102
RTVSPost2010PropOp56
 70
     1
102
RTVSPost2010Prop57
140
1.0
102
RTVSPost2010PropOp57
 70
     1
  0
XRECORD
  5
1BA
102
{ACAD_REACTORS
330
1B9
102
}
330
1B9
100
AcDbXrecord
280
     1
102
RTVSPost2010Prop28
280
     0
102
RTVSPost2010PropOp28
 70
     0
102
RTVSPost2010Prop29
280
     1
102
RTVSPost2010PropOp29
 70
     0
102
RTVSPost2010Prop30
280
     1
102
RTVSPost2010PropOp30
 70
     0
102
RTVSPost2010Prop31
280
     0
102
RTVSPost2010PropOp31
 70
     0
102
RTVSPost2010Prop32
280
     0
102
RTVSPost2010PropOp32
 70
     0
102
RTVSPost2010Prop33
280
     0
102
RTVSPost2010PropOp33
 70
     0
102
RTVSPost2010Prop34
280
     0
102
RTVSPost2010PropOp34
 70
     0
102
RTVSPost2010Prop35
280
     0
102
RTVSPost2010PropOp35
 70
     0
102
RTVSPost2010Prop36
280
     0
102
RTVSPost2010PropOp36
 70
     0
102
RTVSPost2010Prop37
 90
       50
102
RTVSPost2010PropOp37
 70
     0
102
RTVSPost2010Prop38
140
0.0
102
RTVSPost2010PropOp38
 70
     0
102
RTVSPost2010Prop39
140
1.0
102
RTVSPost2010PropOp39
 70
     0
102
RTVSPost2010Prop40
 90
        0
102
RTVSPost2010PropOp40
 70
     0
102
RTVSPost2010Prop41ColorIndex
 90
       18
102
RTVSPost2010Prop41ColorRGB
 90
        0
102
RTVSPost2010PropOp41
 70
     0
102
RTVSPost2010Prop42
 90
       50
102
RTVSPost2010PropOp42
 70
     0
102
RTVSPost2010Prop43
 90
        3
102
RTVSPost2010PropOp43
 70
     0
102
RTVSPost2010Prop44ColorIndex
 90
        5
102
RTVSPost2010Prop44ColorRGB
 90
      255
102
RTVSPost2010PropOp44
 70
     0
102
RTVSPost2010Prop45
280
     0
102
RTVSPost2010PropOp45
 70
     0
102
RTVSPost2010Prop46
 90
       50
102
RTVSPost2010PropOp46
 70
     0
102
RTVSPost2010Prop47
 90
       50
102
RTVSPost2010PropOp47
 70
     0
102
RTVSPost2010Prop48
 90
       50
102
RTVSPost2010PropOp48
 70
     0
102
RTVSPost2010Prop49
280
     0
102
RTVSPost2010PropOp49
 70
     0
102
RTVSPost2010Prop50
 90
       50
102
RTVSPost2010PropOp50
 70
     0
102
RTVSPost2010Prop51ColorIndex
 90
      256
102
RTVSPost2010Prop51ColorRGB
 90
-16777216
102
RTVSPost2010PropOp51
 70
     0
102
RTVSPost2010Prop52
140
1.0
102
RTVSPost2010PropOp52
 70
     0
102
RTVSPost2010Prop53
 90
        2
102
RTVSPost2010PropOp53
 70
     0
102
RTVSPost2010Prop54
  1
strokes_ogs.tif
102
RTVSPost2010PropOp54
 70
     0
102
RTVSPost2010Prop55
280
     0
102
RTVSPost2010PropOp55
 70
     0
102
RTVSPost2010Prop56
140
1.0
102
RTVSPost2010PropOp56
 70
     0
102
RTVSPost2010Prop57
140
1.0
102
RTVSPost2010PropOp57
 70
     0
  0
XRECORD
  5
1A8
102
{ACAD_REACTORS
330
1A7
102
}
330
1A7
100
AcDbXrecord
280
     1
102
RTVSPost2010Prop28
280
     0
102
RTVSPost2010PropOp28
 70
     1
102
RTVSPost2010Prop29
280
     1
102
RTVSPost2010PropOp29
 70
     1
102
RTVSPost2010Prop30
280
     1
102
RTVSPost2010PropOp30
 70
     1
102
RTVSPost2010Prop31
280
     0
102
RTVSPost2010PropOp31
 70
     1
102
RTVSPost2010Prop32
280
     0
102
RTVSPost2010PropOp32
 70
     1
102
RTVSPost2010Prop33
280
     0
102
RTVSPost2010PropOp33
 70
     1
102
RTVSPost2010Prop34
280
     0
102
RTVSPost2010PropOp34
 70
     1
102
RTVSPost2010Prop35
280
     0
102
RTVSPost2010PropOp35
 70
     1
102
RTVSPost2010Prop36
280
     0
102
RTVSPost2010PropOp36
 70
     1
102
RTVSPost2010Prop37
 90
       50
102
RTVSPost2010PropOp37
 70
     1
102
RTVSPost2010Prop38
140
0.0
102
RTVSPost2010PropOp38
 70
     1
102
RTVSPost2010Prop39
140
1.0
102
RTVSPost2010PropOp39
 70
     1
102
RTVSPost2010Prop40
 90
        0
102
RTVSPost2010PropOp40
 70
     1
102
RTVSPost2010Prop41ColorIndex
 90
       18
102
RTVSPost2010Prop41ColorRGB
 90
        0
102
RTVSPost2010PropOp41
 70
     1
102
RTVSPost2010Prop42
 90
       50
102
RTVSPost2010PropOp42
 70
     1
102
RTVSPost2010Prop43
 90
        3
102
RTVSPost2010PropOp43
 70
     1
102
RTVSPost2010Prop44ColorIndex
 90
        5
102
RTVSPost2010Prop44ColorRGB
 90
      255
102
RTVSPost2010PropOp44
 70
     1
102
RTVSPost2010Prop45
280
     0
102
RTVSPost2010PropOp45
 70
     1
102
RTVSPost2010Prop46
 90
       50
102
RTVSPost2010PropOp46
 70
     1
102
RTVSPost2010Prop47
 90
       50
102
RTVSPost2010PropOp47
 70
     1
102
RTVSPost2010Prop48
 90
       50
102
RTVSPost2010PropOp48
 70
     1
102
RTVSPost2010Prop49
280
     0
102
RTVSPost2010PropOp49
 70
     1
102
RTVSPost2010Prop50
 90
       50
102
RTVSPost2010PropOp50
 70
     1
102
RTVSPost2010Prop51ColorIndex
 90
      256
102
RTVSPost2010Prop51ColorRGB
 90
-16777216
102
RTVSPost2010PropOp51
 70
     0
102
RTVSPost2010Prop52
140
1.0
102
RTVSPost2010PropOp52
 70
     0
102
RTVSPost2010Prop53
 90
        2
102
RTVSPost2010PropOp53
 70
     1
102
RTVSPost2010Prop54
  1
strokes_ogs.tif
102
RTVSPost2010PropOp54
 70
     1
102
RTVSPost2010Prop55
280
     0
102
RTVSPost2010PropOp55
 70
     1
102
RTVSPost2010Prop56
140
1.0
102
RTVSPost2010PropOp56
 70
     1
102
RTVSPost2010Prop57
140
1.0
102
RTVSPost2010PropOp57
 70
     1
  0
XRECORD
  5
18C
102
{ACAD_REACTORS
330
18B
102
}
330
18B
100
AcDbXrecord
280
     1
102
RTVSPost2010Prop28
280
     0
102
RTVSPost2010PropOp28
 70
     1
102
RTVSPost2010Prop29
280
     1
102
RTVSPost2010PropOp29
 70
     1
102
RTVSPost2010Prop30
280
     1
102
RTVSPost2010PropOp30
 70
     1
102
RTVSPost2010Prop31
280
     0
102
RTVSPost2010PropOp31
 70
     1
102
RTVSPost2010Prop32
280
     0
102
RTVSPost2010PropOp32
 70
     1
102
RTVSPost2010Prop33
280
     0
102
RTVSPost2010PropOp33
 70
     1
102
RTVSPost2010Prop34
280
     0
102
RTVSPost2010PropOp34
 70
     1
102
RTVSPost2010Prop35
280
     0
102
RTVSPost2010PropOp35
 70
     1
102
RTVSPost2010Prop36
280
     0
102
RTVSPost2010PropOp36
 70
     1
102
RTVSPost2010Prop37
 90
       50
102
RTVSPost2010PropOp37
 70
     1
102
RTVSPost2010Prop38
140
0.0
102
RTVSPost2010PropOp38
 70
     1
102
RTVSPost2010Prop39
140
1.0
102
RTVSPost2010PropOp39
 70
     1
102
RTVSPost2010Prop40
 90
        0
102
RTVSPost2010PropOp40
 70
     1
102
RTVSPost2010Prop41ColorIndex
 90
       18
102
RTVSPost2010Prop41ColorRGB
 90
        0
102
RTVSPost2010PropOp41
 70
     1
102
RTVSPost2010Prop42
 90
       50
102
RTVSPost2010PropOp42
 70
     1
102
RTVSPost2010Prop43
 90
        3
102
RTVSPost2010PropOp43
 70
     1
102
RTVSPost2010Prop44ColorIndex
 90
        5
102
RTVSPost2010Prop44ColorRGB
 90
      255
102
RTVSPost2010PropOp44
 70
     1
102
RTVSPost2010Prop45
280
     0
102
RTVSPost2010PropOp45
 70
     1
102
RTVSPost2010Prop46
 90
       50
102
RTVSPost2010PropOp46
 70
     1
102
RTVSPost2010Prop47
 90
       50
102
RTVSPost2010PropOp47
 70
     1
102
RTVSPost2010Prop48
 90
       50
102
RTVSPost2010PropOp48
 70
     1
102
RTVSPost2010Prop49
280
     0
102
RTVSPost2010PropOp49
 70
     1
102
RTVSPost2010Prop50
 90
       50
102
RTVSPost2010PropOp50
 70
     1
102
RTVSPost2010Prop51ColorIndex
 90
      256
102
RTVSPost2010Prop51ColorRGB
 90
-16777216
102
RTVSPost2010PropOp51
 70
     0
102
RTVSPost2010Prop52
140
1.0
102
RTVSPost2010PropOp52
 70
     0
102
RTVSPost2010Prop53
 90
        2
102
RTVSPost2010PropOp53
 70
     1
102
RTVSPost2010Prop54
  1
strokes_ogs.tif
102
RTVSPost2010PropOp54
 70
     1
102
RTVSPost2010Prop55
280
     0
102
RTVSPost2010PropOp55
 70
     1
102
RTVSPost2010Prop56
140
1.0
102
RTVSPost2010PropOp56
 70
     1
102
RTVSPost2010Prop57
140
1.0
102
RTVSPost2010PropOp57
 70
     1
  0
XRECORD
  5
18E
102
{ACAD_REACTORS
330
18D
102
}
330
18D
100
AcDbXrecord
280
     1
102
RTVSPost2010Prop28
280
     0
102
RTVSPost2010PropOp28
 70
     1
102
RTVSPost2010Prop29
280
     1
102
RTVSPost2010PropOp29
 70
     1
102
RTVSPost2010Prop30
280
     1
102
RTVSPost2010PropOp30
 70
     1
102
RTVSPost2010Prop31
280
     0
102
RTVSPost2010PropOp31
 70
     1
102
RTVSPost2010Prop32
280
     0
102
RTVSPost2010PropOp32
 70
     1
102
RTVSPost2010Prop33
280
     0
102
RTVSPost2010PropOp33
 70
     1
102
RTVSPost2010Prop34
280
     0
102
RTVSPost2010PropOp34
 70
     1
102
RTVSPost2010Prop35
280
     0
102
RTVSPost2010PropOp35
 70
     1
102
RTVSPost2010Prop36
280
     0
102
RTVSPost2010PropOp36
 70
     1
102
RTVSPost2010Prop37
 90
       50
102
RTVSPost2010PropOp37
 70
     1
102
RTVSPost2010Prop38
140
0.0
102
RTVSPost2010PropOp38
 70
     1
102
RTVSPost2010Prop39
140
1.0
102
RTVSPost2010PropOp39
 70
     1
102
RTVSPost2010Prop40
 90
        0
102
RTVSPost2010PropOp40
 70
     1
102
RTVSPost2010Prop41ColorIndex
 90
       18
102
RTVSPost2010Prop41ColorRGB
 90
        0
102
RTVSPost2010PropOp41
 70
     1
102
RTVSPost2010Prop42
 90
       50
102
RTVSPost2010PropOp42
 70
     1
102
RTVSPost2010Prop43
 90
        3
102
RTVSPost2010PropOp43
 70
     1
102
RTVSPost2010Prop44ColorIndex
 90
        5
102
RTVSPost2010Prop44ColorRGB
 90
      255
102
RTVSPost2010PropOp44
 70
     1
102
RTVSPost2010Prop45
280
     0
102
RTVSPost2010PropOp45
 70
     1
102
RTVSPost2010Prop46
 90
       50
102
RTVSPost2010PropOp46
 70
     1
102
RTVSPost2010Prop47
 90
       50
102
RTVSPost2010PropOp47
 70
     1
102
RTVSPost2010Prop48
 90
       50
102
RTVSPost2010PropOp48
 70
     1
102
RTVSPost2010Prop49
280
     0
102
RTVSPost2010PropOp49
 70
     1
102
RTVSPost2010Prop50
 90
       50
102
RTVSPost2010PropOp50
 70
     1
102
RTVSPost2010Prop51ColorIndex
 90
      256
102
RTVSPost2010Prop51ColorRGB
 90
-16777216
102
RTVSPost2010PropOp51
 70
     0
102
RTVSPost2010Prop52
140
1.0
102
RTVSPost2010PropOp52
 70
     0
102
RTVSPost2010Prop53
 90
        2
102
RTVSPost2010PropOp53
 70
     1
102
RTVSPost2010Prop54
  1
strokes_ogs.tif
102
RTVSPost2010PropOp54
 70
     1
102
RTVSPost2010Prop55
280
     0
102
RTVSPost2010PropOp55
 70
     1
102
RTVSPost2010Prop56
140
1.0
102
RTVSPost2010PropOp56
 70
     1
102
RTVSPost2010Prop57
140
1.0
102
RTVSPost2010PropOp57
 70
     1
  0
XRECORD
  5
190
102
{ACAD_REACTORS
330
18F
102
}
330
18F
100
AcDbXrecord
280
     1
102
RTVSPost2010Prop28
280
     0
102
RTVSPost2010PropOp28
 70
     1
102
RTVSPost2010Prop29
280
     1
102
RTVSPost2010PropOp29
 70
     1
102
RTVSPost2010Prop30
280
     1
102
RTVSPost2010PropOp30
 70
     1
102
RTVSPost2010Prop31
280
     0
102
RTVSPost2010PropOp31
 70
     1
102
RTVSPost2010Prop32
280
     0
102
RTVSPost2010PropOp32
 70
     1
102
RTVSPost2010Prop33
280
     0
102
RTVSPost2010PropOp33
 70
     1
102
RTVSPost2010Prop34
280
     0
102
RTVSPost2010PropOp34
 70
     1
102
RTVSPost2010Prop35
280
     0
102
RTVSPost2010PropOp35
 70
     1
102
RTVSPost2010Prop36
280
     0
102
RTVSPost2010PropOp36
 70
     1
102
RTVSPost2010Prop37
 90
       50
102
RTVSPost2010PropOp37
 70
     1
102
RTVSPost2010Prop38
140
0.0
102
RTVSPost2010PropOp38
 70
     1
102
RTVSPost2010Prop39
140
1.0
102
RTVSPost2010PropOp39
 70
     1
102
RTVSPost2010Prop40
 90
        0
102
RTVSPost2010PropOp40
 70
     1
102
RTVSPost2010Prop41ColorIndex
 90
       18
102
RTVSPost2010Prop41ColorRGB
 90
        0
102
RTVSPost2010PropOp41
 70
     1
102
RTVSPost2010Prop42
 90
       50
102
RTVSPost2010PropOp42
 70
     1
102
RTVSPost2010Prop43
 90
        3
102
RTVSPost2010PropOp43
 70
     1
102
RTVSPost2010Prop44ColorIndex
 90
        5
102
RTVSPost2010Prop44ColorRGB
 90
      255
102
RTVSPost2010PropOp44
 70
     1
102
RTVSPost2010Prop45
280
     0
102
RTVSPost2010PropOp45
 70
     1
102
RTVSPost2010Prop46
 90
       50
102
RTVSPost2010PropOp46
 70
     1
102
RTVSPost2010Prop47
 90
       50
102
RTVSPost2010PropOp47
 70
     1
102
RTVSPost2010Prop48
 90
       50
102
RTVSPost2010PropOp48
 70
     1
102
RTVSPost2010Prop49
280
     0
102
RTVSPost2010PropOp49
 70
     1
102
RTVSPost2010Prop50
 90
       50
102
RTVSPost2010PropOp50
 70
     1
102
RTVSPost2010Prop51ColorIndex
 90
      256
102
RTVSPost2010Prop51ColorRGB
 90
-16777216
102
RTVSPost2010PropOp51
 70
     0
102
RTVSPost2010Prop52
140
1.0
102
RTVSPost2010PropOp52
 70
     0
102
RTVSPost2010Prop53
 90
        2
102
RTVSPost2010PropOp53
 70
     1
102
RTVSPost2010Prop54
  1
strokes_ogs.tif
102
RTVSPost2010PropOp54
 70
     1
102
RTVSPost2010Prop55
280
     0
102
RTVSPost2010PropOp55
 70
     1
102
RTVSPost2010Prop56
140
1.0
102
RTVSPost2010PropOp56
 70
     1
102
RTVSPost2010Prop57
140
1.0
102
RTVSPost2010PropOp57
 70
     1
  0
XRECORD
  5
192
102
{ACAD_REACTORS
330
191
102
}
330
191
100
AcDbXrecord
280
     1
102
RTVSPost2010Prop28
280
     0
102
RTVSPost2010PropOp28
 70
     1
102
RTVSPost2010Prop29
280
     1
102
RTVSPost2010PropOp29
 70
     1
102
RTVSPost2010Prop30
280
     1
102
RTVSPost2010PropOp30
 70
     1
102
RTVSPost2010Prop31
280
     0
102
RTVSPost2010PropOp31
 70
     1
102
RTVSPost2010Prop32
280
     0
102
RTVSPost2010PropOp32
 70
     1
102
RTVSPost2010Prop33
280
     0
102
RTVSPost2010PropOp33
 70
     1
102
RTVSPost2010Prop34
280
     0
102
RTVSPost2010PropOp34
 70
     1
102
RTVSPost2010Prop35
280
     0
102
RTVSPost2010PropOp35
 70
     1
102
RTVSPost2010Prop36
280
     0
102
RTVSPost2010PropOp36
 70
     1
102
RTVSPost2010Prop37
 90
       50
102
RTVSPost2010PropOp37
 70
     1
102
RTVSPost2010Prop38
140
0.0
102
RTVSPost2010PropOp38
 70
     1
102
RTVSPost2010Prop39
140
1.0
102
RTVSPost2010PropOp39
 70
     1
102
RTVSPost2010Prop40
 90
        0
102
RTVSPost2010PropOp40
 70
     1
102
RTVSPost2010Prop41ColorIndex
 90
       18
102
RTVSPost2010Prop41ColorRGB
 90
        0
102
RTVSPost2010PropOp41
 70
     1
102
RTVSPost2010Prop42
 90
       50
102
RTVSPost2010PropOp42
 70
     1
102
RTVSPost2010Prop43
 90
        3
102
RTVSPost2010PropOp43
 70
     1
102
RTVSPost2010Prop44ColorIndex
 90
        5
102
RTVSPost2010Prop44ColorRGB
 90
      255
102
RTVSPost2010PropOp44
 70
     1
102
RTVSPost2010Prop45
280
     0
102
RTVSPost2010PropOp45
 70
     1
102
RTVSPost2010Prop46
 90
       50
102
RTVSPost2010PropOp46
 70
     1
102
RTVSPost2010Prop47
 90
       50
102
RTVSPost2010PropOp47
 70
     1
102
RTVSPost2010Prop48
 90
       50
102
RTVSPost2010PropOp48
 70
     1
102
RTVSPost2010Prop49
280
     0
102
RTVSPost2010PropOp49
 70
     1
102
RTVSPost2010Prop50
 90
       50
102
RTVSPost2010PropOp50
 70
     1
102
RTVSPost2010Prop51ColorIndex
 90
      256
102
RTVSPost2010Prop51ColorRGB
 90
-16777216
102
RTVSPost2010PropOp51
 70
     0
102
RTVSPost2010Prop52
140
1.0
102
RTVSPost2010PropOp52
 70
     0
102
RTVSPost2010Prop53
 90
        2
102
RTVSPost2010PropOp53
 70
     1
102
RTVSPost2010Prop54
  1
strokes_ogs.tif
102
RTVSPost2010PropOp54
 70
     1
102
RTVSPost2010Prop55
280
     0
102
RTVSPost2010PropOp55
 70
     1
102
RTVSPost2010Prop56
140
1.0
102
RTVSPost2010PropOp56
 70
     1
102
RTVSPost2010Prop57
140
1.0
102
RTVSPost2010PropOp57
 70
     1
  0
XRECORD
  5
19A
102
{ACAD_REACTORS
330
199
102
}
330
199
100
AcDbXrecord
280
     1
102
RTVSPost2010Prop28
280
     0
102
RTVSPost2010PropOp28
 70
     1
102
RTVSPost2010Prop29
280
     1
102
RTVSPost2010PropOp29
 70
     1
102
RTVSPost2010Prop30
280
     1
102
RTVSPost2010PropOp30
 70
     1
102
RTVSPost2010Prop31
280
     0
102
RTVSPost2010PropOp31
 70
     1
102
RTVSPost2010Prop32
280
     0
102
RTVSPost2010PropOp32
 70
     1
102
RTVSPost2010Prop33
280
     0
102
RTVSPost2010PropOp33
 70
     1
102
RTVSPost2010Prop34
280
     0
102
RTVSPost2010PropOp34
 70
     1
102
RTVSPost2010Prop35
280
     0
102
RTVSPost2010PropOp35
 70
     1
102
RTVSPost2010Prop36
280
     0
102
RTVSPost2010PropOp36
 70
     1
102
RTVSPost2010Prop37
 90
       50
102
RTVSPost2010PropOp37
 70
     1
102
RTVSPost2010Prop38
140
0.0
102
RTVSPost2010PropOp38
 70
     1
102
RTVSPost2010Prop39
140
1.0
102
RTVSPost2010PropOp39
 70
     1
102
RTVSPost2010Prop40
 90
        0
102
RTVSPost2010PropOp40
 70
     1
102
RTVSPost2010Prop41ColorIndex
 90
       18
102
RTVSPost2010Prop41ColorRGB
 90
        0
102
RTVSPost2010PropOp41
 70
     1
102
RTVSPost2010Prop42
 90
       50
102
RTVSPost2010PropOp42
 70
     1
102
RTVSPost2010Prop43
 90
        3
102
RTVSPost2010PropOp43
 70
     1
102
RTVSPost2010Prop44ColorIndex
 90
        5
102
RTVSPost2010Prop44ColorRGB
 90
      255
102
RTVSPost2010PropOp44
 70
     1
102
RTVSPost2010Prop45
280
     0
102
RTVSPost2010PropOp45
 70
     1
102
RTVSPost2010Prop46
 90
       50
102
RTVSPost2010PropOp46
 70
     1
102
RTVSPost2010Prop47
 90
       50
102
RTVSPost2010PropOp47
 70
     1
102
RTVSPost2010Prop48
 90
       50
102
RTVSPost2010PropOp48
 70
     1
102
RTVSPost2010Prop49
280
     0
102
RTVSPost2010PropOp49
 70
     1
102
RTVSPost2010Prop50
 90
       50
102
RTVSPost2010PropOp50
 70
     1
102
RTVSPost2010Prop51ColorIndex
 90
      256
102
RTVSPost2010Prop51ColorRGB
 90
-16777216
102
RTVSPost2010PropOp51
 70
     0
102
RTVSPost2010Prop52
140
1.0
102
RTVSPost2010PropOp52
 70
     0
102
RTVSPost2010Prop53
 90
        2
102
RTVSPost2010PropOp53
 70
     1
102
RTVSPost2010Prop54
  1
strokes_ogs.tif
102
RTVSPost2010PropOp54
 70
     1
102
RTVSPost2010Prop55
280
     0
102
RTVSPost2010PropOp55
 70
     1
102
RTVSPost2010Prop56
140
1.0
102
RTVSPost2010PropOp56
 70
     1
102
RTVSPost2010Prop57
140
1.0
102
RTVSPost2010PropOp57
 70
     1
  0
XRECORD
  5
1B6
102
{ACAD_REACTORS
330
1B5
102
}
330
1B5
100
AcDbXrecord
280
     1
102
RTVSPost2010Prop28
280
     0
102
RTVSPost2010PropOp28
 70
     0
102
RTVSPost2010Prop29
280
     1
102
RTVSPost2010PropOp29
 70
     0
102
RTVSPost2010Prop30
280
     1
102
RTVSPost2010PropOp30
 70
     0
102
RTVSPost2010Prop31
280
     0
102
RTVSPost2010PropOp31
 70
     0
102
RTVSPost2010Prop32
280
     0
102
RTVSPost2010PropOp32
 70
     0
102
RTVSPost2010Prop33
280
     0
102
RTVSPost2010PropOp33
 70
     0
102
RTVSPost2010Prop34
280
     0
102
RTVSPost2010PropOp34
 70
     0
102
RTVSPost2010Prop35
280
     0
102
RTVSPost2010PropOp35
 70
     0
102
RTVSPost2010Prop36
280
     0
102
RTVSPost2010PropOp36
 70
     0
102
RTVSPost2010Prop37
 90
       50
102
RTVSPost2010PropOp37
 70
     0
102
RTVSPost2010Prop38
140
0.0
102
RTVSPost2010PropOp38
 70
     0
102
RTVSPost2010Prop39
140
1.0
102
RTVSPost2010PropOp39
 70
     0
102
RTVSPost2010Prop40
 90
        0
102
RTVSPost2010PropOp40
 70
     0
102
RTVSPost2010Prop41ColorIndex
 90
       18
102
RTVSPost2010Prop41ColorRGB
 90
        0
102
RTVSPost2010PropOp41
 70
     0
102
RTVSPost2010Prop42
 90
       50
102
RTVSPost2010PropOp42
 70
     0
102
RTVSPost2010Prop43
 90
        3
102
RTVSPost2010PropOp43
 70
     0
102
RTVSPost2010Prop44ColorIndex
 90
        5
102
RTVSPost2010Prop44ColorRGB
 90
      255
102
RTVSPost2010PropOp44
 70
     0
102
RTVSPost2010Prop45
280
     0
102
RTVSPost2010PropOp45
 70
     0
102
RTVSPost2010Prop46
 90
       50
102
RTVSPost2010PropOp46
 70
     0
102
RTVSPost2010Prop47
 90
       50
102
RTVSPost2010PropOp47
 70
     0
102
RTVSPost2010Prop48
 90
       50
102
RTVSPost2010PropOp48
 70
     0
102
RTVSPost2010Prop49
280
     0
102
RTVSPost2010PropOp49
 70
     0
102
RTVSPost2010Prop50
 90
       50
102
RTVSPost2010PropOp50
 70
     0
102
RTVSPost2010Prop51ColorIndex
 90
      256
102
RTVSPost2010Prop51ColorRGB
 90
-16777216
102
RTVSPost2010PropOp51
 70
     0
102
RTVSPost2010Prop52
140
1.0
102
RTVSPost2010PropOp52
 70
     0
102
RTVSPost2010Prop53
 90
        2
102
RTVSPost2010PropOp53
 70
     0
102
RTVSPost2010Prop54
  1
strokes_ogs.tif
102
RTVSPost2010PropOp54
 70
     0
102
RTVSPost2010Prop55
280
     0
102
RTVSPost2010PropOp55
 70
     0
102
RTVSPost2010Prop56
140
1.0
102
RTVSPost2010PropOp56
 70
     0
102
RTVSPost2010Prop57
140
1.0
102
RTVSPost2010PropOp57
 70
     0
  0
XRECORD
  5
1A6
102
{ACAD_REACTORS
330
1A5
102
}
330
1A5
100
AcDbXrecord
280
     1
102
RTVSPost2010Prop28
280
     0
102
RTVSPost2010PropOp28
 70
     1
102
RTVSPost2010Prop29
280
     1
102
RTVSPost2010PropOp29
 70
     1
102
RTVSPost2010Prop30
280
     1
102
RTVSPost2010PropOp30
 70
     1
102
RTVSPost2010Prop31
280
     0
102
RTVSPost2010PropOp31
 70
     1
102
RTVSPost2010Prop32
280
     0
102
RTVSPost2010PropOp32
 70
     1
102
RTVSPost2010Prop33
280
     0
102
RTVSPost2010PropOp33
 70
     1
102
RTVSPost2010Prop34
280
     0
102
RTVSPost2010PropOp34
 70
     1
102
RTVSPost2010Prop35
280
     0
102
RTVSPost2010PropOp35
 70
     1
102
RTVSPost2010Prop36
280
     0
102
RTVSPost2010PropOp36
 70
     1
102
RTVSPost2010Prop37
 90
       50
102
RTVSPost2010PropOp37
 70
     1
102
RTVSPost2010Prop38
140
0.0
102
RTVSPost2010PropOp38
 70
     1
102
RTVSPost2010Prop39
140
1.0
102
RTVSPost2010PropOp39
 70
     1
102
RTVSPost2010Prop40
 90
        0
102
RTVSPost2010PropOp40
 70
     1
102
RTVSPost2010Prop41ColorIndex
 90
       18
102
RTVSPost2010Prop41ColorRGB
 90
        0
102
RTVSPost2010PropOp41
 70
     1
102
RTVSPost2010Prop42
 90
       50
102
RTVSPost2010PropOp42
 70
     1
102
RTVSPost2010Prop43
 90
        3
102
RTVSPost2010PropOp43
 70
     1
102
RTVSPost2010Prop44ColorIndex
 90
        5
102
RTVSPost2010Prop44ColorRGB
 90
      255
102
RTVSPost2010PropOp44
 70
     1
102
RTVSPost2010Prop45
280
     0
102
RTVSPost2010PropOp45
 70
     1
102
RTVSPost2010Prop46
 90
       50
102
RTVSPost2010PropOp46
 70
     1
102
RTVSPost2010Prop47
 90
       50
102
RTVSPost2010PropOp47
 70
     1
102
RTVSPost2010Prop48
 90
       50
102
RTVSPost2010PropOp48
 70
     1
102
RTVSPost2010Prop49
280
     0
102
RTVSPost2010PropOp49
 70
     1
102
RTVSPost2010Prop50
 90
       50
102
RTVSPost2010PropOp50
 70
     1
102
RTVSPost2010Prop51ColorIndex
 90
      256
102
RTVSPost2010Prop51ColorRGB
 90
-16777216
102
RTVSPost2010PropOp51
 70
     0
102
RTVSPost2010Prop52
140
1.0
102
RTVSPost2010PropOp52
 70
     0
102
RTVSPost2010Prop53
 90
        2
102
RTVSPost2010PropOp53
 70
     1
102
RTVSPost2010Prop54
  1
strokes_ogs.tif
102
RTVSPost2010PropOp54
 70
     1
102
RTVSPost2010Prop55
280
     0
102
RTVSPost2010PropOp55
 70
     1
102
RTVSPost2010Prop56
140
1.0
102
RTVSPost2010PropOp56
 70
     1
102
RTVSPost2010Prop57
140
1.0
102
RTVSPost2010PropOp57
 70
     1
  0
XRECORD
  5
1B8
102
{ACAD_REACTORS
330
1B7
102
}
330
1B7
100
AcDbXrecord
280
     1
102
RTVSPost2010Prop28
280
     0
102
RTVSPost2010PropOp28
 70
     0
102
RTVSPost2010Prop29
280
     1
102
RTVSPost2010PropOp29
 70
     0
102
RTVSPost2010Prop30
280
     1
102
RTVSPost2010PropOp30
 70
     0
102
RTVSPost2010Prop31
280
     0
102
RTVSPost2010PropOp31
 70
     0
102
RTVSPost2010Prop32
280
     0
102
RTVSPost2010PropOp32
 70
     0
102
RTVSPost2010Prop33
280
     0
102
RTVSPost2010PropOp33
 70
     0
102
RTVSPost2010Prop34
280
     0
102
RTVSPost2010PropOp34
 70
     0
102
RTVSPost2010Prop35
280
     0
102
RTVSPost2010PropOp35
 70
     0
102
RTVSPost2010Prop36
280
     0
102
RTVSPost2010PropOp36
 70
     0
102
RTVSPost2010Prop37
 90
       50
102
RTVSPost2010PropOp37
 70
     0
102
RTVSPost2010Prop38
140
0.0
102
RTVSPost2010PropOp38
 70
     0
102
RTVSPost2010Prop39
140
1.0
102
RTVSPost2010PropOp39
 70
     0
102
RTVSPost2010Prop40
 90
        0
102
RTVSPost2010PropOp40
 70
     0
102
RTVSPost2010Prop41ColorIndex
 90
       18
102
RTVSPost2010Prop41ColorRGB
 90
        0
102
RTVSPost2010PropOp41
 70
     0
102
RTVSPost2010Prop42
 90
       50
102
RTVSPost2010PropOp42
 70
     0
102
RTVSPost2010Prop43
 90
        3
102
RTVSPost2010PropOp43
 70
     0
102
RTVSPost2010Prop44ColorIndex
 90
        5
102
RTVSPost2010Prop44ColorRGB
 90
      255
102
RTVSPost2010PropOp44
 70
     0
102
RTVSPost2010Prop45
280
     0
102
RTVSPost2010PropOp45
 70
     0
102
RTVSPost2010Prop46
 90
       50
102
RTVSPost2010PropOp46
 70
     0
102
RTVSPost2010Prop47
 90
       50
102
RTVSPost2010PropOp47
 70
     0
102
RTVSPost2010Prop48
 90
       50
102
RTVSPost2010PropOp48
 70
     0
102
RTVSPost2010Prop49
280
     0
102
RTVSPost2010PropOp49
 70
     0
102
RTVSPost2010Prop50
 90
       50
102
RTVSPost2010PropOp50
 70
     0
102
RTVSPost2010Prop51ColorIndex
 90
      256
102
RTVSPost2010Prop51ColorRGB
 90
-16777216
102
RTVSPost2010PropOp51
 70
     0
102
RTVSPost2010Prop52
140
1.0
102
RTVSPost2010PropOp52
 70
     0
102
RTVSPost2010Prop53
 90
        2
102
RTVSPost2010PropOp53
 70
     0
102
RTVSPost2010Prop54
  1
strokes_ogs.tif
102
RTVSPost2010PropOp54
 70
     0
102
RTVSPost2010Prop55
280
     0
102
RTVSPost2010PropOp55
 70
     0
102
RTVSPost2010Prop56
140
1.0
102
RTVSPost2010PropOp56
 70
     0
102
RTVSPost2010Prop57
140
1.0
102
RTVSPost2010PropOp57
 70
     0
  0
XRECORD
  5
19E
102
{ACAD_REACTORS
330
19D
102
}
330
19D
100
AcDbXrecord
280
     1
102
RTVSPost2010Prop28
280
     0
102
RTVSPost2010PropOp28
 70
     1
102
RTVSPost2010Prop29
280
     1
102
RTVSPost2010PropOp29
 70
     1
102
RTVSPost2010Prop30
280
     1
102
RTVSPost2010PropOp30
 70
     1
102
RTVSPost2010Prop31
280
     0
102
RTVSPost2010PropOp31
 70
     1
102
RTVSPost2010Prop32
280
     0
102
RTVSPost2010PropOp32
 70
     1
102
RTVSPost2010Prop33
280
     0
102
RTVSPost2010PropOp33
 70
     1
102
RTVSPost2010Prop34
280
     0
102
RTVSPost2010PropOp34
 70
     1
102
RTVSPost2010Prop35
280
     0
102
RTVSPost2010PropOp35
 70
     1
102
RTVSPost2010Prop36
280
     0
102
RTVSPost2010PropOp36
 70
     1
102
RTVSPost2010Prop37
 90
       50
102
RTVSPost2010PropOp37
 70
     1
102
RTVSPost2010Prop38
140
0.0
102
RTVSPost2010PropOp38
 70
     1
102
RTVSPost2010Prop39
140
1.0
102
RTVSPost2010PropOp39
 70
     1
102
RTVSPost2010Prop40
 90
        0
102
RTVSPost2010PropOp40
 70
     1
102
RTVSPost2010Prop41ColorIndex
 90
       18
102
RTVSPost2010Prop41ColorRGB
 90
        0
102
RTVSPost2010PropOp41
 70
     1
102
RTVSPost2010Prop42
 90
       50
102
RTVSPost2010PropOp42
 70
     1
102
RTVSPost2010Prop43
 90
        3
102
RTVSPost2010PropOp43
 70
     1
102
RTVSPost2010Prop44ColorIndex
 90
        5
102
RTVSPost2010Prop44ColorRGB
 90
      255
102
RTVSPost2010PropOp44
 70
     1
102
RTVSPost2010Prop45
280
     0
102
RTVSPost2010PropOp45
 70
     1
102
RTVSPost2010Prop46
 90
       50
102
RTVSPost2010PropOp46
 70
     1
102
RTVSPost2010Prop47
 90
       50
102
RTVSPost2010PropOp47
 70
     1
102
RTVSPost2010Prop48
 90
       50
102
RTVSPost2010PropOp48
 70
     1
102
RTVSPost2010Prop49
280
     0
102
RTVSPost2010PropOp49
 70
     1
102
RTVSPost2010Prop50
 90
       50
102
RTVSPost2010PropOp50
 70
     1
102
RTVSPost2010Prop51ColorIndex
 90
      256
102
RTVSPost2010Prop51ColorRGB
 90
-16777216
102
RTVSPost2010PropOp51
 70
     0
102
RTVSPost2010Prop52
140
1.0
102
RTVSPost2010PropOp52
 70
     0
102
RTVSPost2010Prop53
 90
        2
102
RTVSPost2010PropOp53
 70
     1
102
RTVSPost2010Prop54
  1
strokes_ogs.tif
102
RTVSPost2010PropOp54
 70
     1
102
RTVSPost2010Prop55
280
     0
102
RTVSPost2010PropOp55
 70
     1
102
RTVSPost2010Prop56
140
1.0
102
RTVSPost2010PropOp56
 70
     1
102
RTVSPost2010Prop57
140
1.0
102
RTVSPost2010PropOp57
 70
     1
  0
XRECORD
  5
1B4
102
{ACAD_REACTORS
330
1B3
102
}
330
1B3
100
AcDbXrecord
280
     1
102
RTVSPost2010Prop28
280
     0
102
RTVSPost2010PropOp28
 70
     1
102
RTVSPost2010Prop29
280
     1
102
RTVSPost2010PropOp29
 70
     1
102
RTVSPost2010Prop30
280
     1
102
RTVSPost2010PropOp30
 70
     1
102
RTVSPost2010Prop31
280
     0
102
RTVSPost2010PropOp31
 70
     1
102
RTVSPost2010Prop32
280
     0
102
RTVSPost2010PropOp32
 70
     1
102
RTVSPost2010Prop33
280
     0
102
RTVSPost2010PropOp33
 70
     1
102
RTVSPost2010Prop34
280
     0
102
RTVSPost2010PropOp34
 70
     1
102
RTVSPost2010Prop35
280
     0
102
RTVSPost2010PropOp35
 70
     1
102
RTVSPost2010Prop36
280
     0
102
RTVSPost2010PropOp36
 70
     1
102
RTVSPost2010Prop37
 90
       50
102
RTVSPost2010PropOp37
 70
     1
102
RTVSPost2010Prop38
140
0.0
102
RTVSPost2010PropOp38
 70
     1
102
RTVSPost2010Prop39
140
1.0
102
RTVSPost2010PropOp39
 70
     1
102
RTVSPost2010Prop40
 90
        0
102
RTVSPost2010PropOp40
 70
     1
102
RTVSPost2010Prop41ColorIndex
 90
       18
102
RTVSPost2010Prop41ColorRGB
 90
        0
102
RTVSPost2010PropOp41
 70
     1
102
RTVSPost2010Prop42
 90
       50
102
RTVSPost2010PropOp42
 70
     1
102
RTVSPost2010Prop43
 90
        3
102
RTVSPost2010PropOp43
 70
     1
102
RTVSPost2010Prop44ColorIndex
 90
        5
102
RTVSPost2010Prop44ColorRGB
 90
      255
102
RTVSPost2010PropOp44
 70
     1
102
RTVSPost2010Prop45
280
     0
102
RTVSPost2010PropOp45
 70
     1
102
RTVSPost2010Prop46
 90
       50
102
RTVSPost2010PropOp46
 70
     1
102
RTVSPost2010Prop47
 90
       50
102
RTVSPost2010PropOp47
 70
     1
102
RTVSPost2010Prop48
 90
       50
102
RTVSPost2010PropOp48
 70
     1
102
RTVSPost2010Prop49
280
     0
102
RTVSPost2010PropOp49
 70
     1
102
RTVSPost2010Prop50
 90
       50
102
RTVSPost2010PropOp50
 70
     1
102
RTVSPost2010Prop51ColorIndex
 90
      256
102
RTVSPost2010Prop51ColorRGB
 90
-16777216
102
RTVSPost2010PropOp51
 70
     0
102
RTVSPost2010Prop52
140
1.0
102
RTVSPost2010PropOp52
 70
     0
102
RTVSPost2010Prop53
 90
        2
102
RTVSPost2010PropOp53
 70
     1
102
RTVSPost2010Prop54
  1
strokes_ogs.tif
102
RTVSPost2010PropOp54
 70
     1
102
RTVSPost2010Prop55
280
     0
102
RTVSPost2010PropOp55
 70
     1
102
RTVSPost2010Prop56
140
1.0
102
RTVSPost2010PropOp56
 70
     1
102
RTVSPost2010Prop57
140
1.0
102
RTVSPost2010PropOp57
 70
     1
  0
XRECORD
  5
1B2
102
{ACAD_REACTORS
330
1B1
102
}
330
1B1
100
AcDbXrecord
280
     1
102
RTVSPost2010Prop28
280
     0
102
RTVSPost2010PropOp28
 70
     1
102
RTVSPost2010Prop29
280
     1
102
RTVSPost2010PropOp29
 70
     1
102
RTVSPost2010Prop30
280
     1
102
RTVSPost2010PropOp30
 70
     1
102
RTVSPost2010Prop31
280
     0
102
RTVSPost2010PropOp31
 70
     1
102
RTVSPost2010Prop32
280
     0
102
RTVSPost2010PropOp32
 70
     1
102
RTVSPost2010Prop33
280
     0
102
RTVSPost2010PropOp33
 70
     1
102
RTVSPost2010Prop34
280
     0
102
RTVSPost2010PropOp34
 70
     1
102
RTVSPost2010Prop35
280
     0
102
RTVSPost2010PropOp35
 70
     1
102
RTVSPost2010Prop36
280
     0
102
RTVSPost2010PropOp36
 70
     1
102
RTVSPost2010Prop37
 90
       50
102
RTVSPost2010PropOp37
 70
     1
102
RTVSPost2010Prop38
140
0.0
102
RTVSPost2010PropOp38
 70
     1
102
RTVSPost2010Prop39
140
1.0
102
RTVSPost2010PropOp39
 70
     1
102
RTVSPost2010Prop40
 90
        0
102
RTVSPost2010PropOp40
 70
     1
102
RTVSPost2010Prop41ColorIndex
 90
       18
102
RTVSPost2010Prop41ColorRGB
 90
        0
102
RTVSPost2010PropOp41
 70
     1
102
RTVSPost2010Prop42
 90
       50
102
RTVSPost2010PropOp42
 70
     1
102
RTVSPost2010Prop43
 90
        3
102
RTVSPost2010PropOp43
 70
     1
102
RTVSPost2010Prop44ColorIndex
 90
        5
102
RTVSPost2010Prop44ColorRGB
 90
      255
102
RTVSPost2010PropOp44
 70
     1
102
RTVSPost2010Prop45
280
     0
102
RTVSPost2010PropOp45
 70
     1
102
RTVSPost2010Prop46
 90
       50
102
RTVSPost2010PropOp46
 70
     1
102
RTVSPost2010Prop47
 90
       50
102
RTVSPost2010PropOp47
 70
     1
102
RTVSPost2010Prop48
 90
       50
102
RTVSPost2010PropOp48
 70
     1
102
RTVSPost2010Prop49
280
     0
102
RTVSPost2010PropOp49
 70
     1
102
RTVSPost2010Prop50
 90
       50
102
RTVSPost2010PropOp50
 70
     1
102
RTVSPost2010Prop51ColorIndex
 90
      256
102
RTVSPost2010Prop51ColorRGB
 90
-16777216
102
RTVSPost2010PropOp51
 70
     0
102
RTVSPost2010Prop52
140
1.0
102
RTVSPost2010PropOp52
 70
     0
102
RTVSPost2010Prop53
 90
        2
102
RTVSPost2010PropOp53
 70
     1
102
RTVSPost2010Prop54
  1
strokes_ogs.tif
102
RTVSPost2010PropOp54
 70
     1
102
RTVSPost2010Prop55
280
     0
102
RTVSPost2010PropOp55
 70
     1
102
RTVSPost2010Prop56
140
1.0
102
RTVSPost2010PropOp56
 70
     1
102
RTVSPost2010Prop57
140
1.0
102
RTVSPost2010PropOp57
 70
     1
  0
XRECORD
  5
1AC
102
{ACAD_REACTORS
330
1AB
102
}
330
1AB
100
AcDbXrecord
280
     1
102
RTVSPost2010Prop28
280
     0
102
RTVSPost2010PropOp28
 70
     1
102
RTVSPost2010Prop29
280
     1
102
RTVSPost2010PropOp29
 70
     1
102
RTVSPost2010Prop30
280
     1
102
RTVSPost2010PropOp30
 70
     1
102
RTVSPost2010Prop31
280
     0
102
RTVSPost2010PropOp31
 70
     1
102
RTVSPost2010Prop32
280
     0
102
RTVSPost2010PropOp32
 70
     1
102
RTVSPost2010Prop33
280
     0
102
RTVSPost2010PropOp33
 70
     1
102
RTVSPost2010Prop34
280
     0
102
RTVSPost2010PropOp34
 70
     1
102
RTVSPost2010Prop35
280
     0
102
RTVSPost2010PropOp35
 70
     1
102
RTVSPost2010Prop36
280
     0
102
RTVSPost2010PropOp36
 70
     1
102
RTVSPost2010Prop37
 90
       50
102
RTVSPost2010PropOp37
 70
     1
102
RTVSPost2010Prop38
140
0.0
102
RTVSPost2010PropOp38
 70
     1
102
RTVSPost2010Prop39
140
1.0
102
RTVSPost2010PropOp39
 70
     1
102
RTVSPost2010Prop40
 90
        0
102
RTVSPost2010PropOp40
 70
     1
102
RTVSPost2010Prop41ColorIndex
 90
       18
102
RTVSPost2010Prop41ColorRGB
 90
        0
102
RTVSPost2010PropOp41
 70
     1
102
RTVSPost2010Prop42
 90
       50
102
RTVSPost2010PropOp42
 70
     1
102
RTVSPost2010Prop43
 90
        3
102
RTVSPost2010PropOp43
 70
     1
102
RTVSPost2010Prop44ColorIndex
 90
        5
102
RTVSPost2010Prop44ColorRGB
 90
      255
102
RTVSPost2010PropOp44
 70
     1
102
RTVSPost2010Prop45
280
     0
102
RTVSPost2010PropOp45
 70
     1
102
RTVSPost2010Prop46
 90
       50
102
RTVSPost2010PropOp46
 70
     1
102
RTVSPost2010Prop47
 90
       50
102
RTVSPost2010PropOp47
 70
     1
102
RTVSPost2010Prop48
 90
       50
102
RTVSPost2010PropOp48
 70
     1
102
RTVSPost2010Prop49
280
     0
102
RTVSPost2010PropOp49
 70
     1
102
RTVSPost2010Prop50
 90
       50
102
RTVSPost2010PropOp50
 70
     1
102
RTVSPost2010Prop51ColorIndex
 90
      256
102
RTVSPost2010Prop51ColorRGB
 90
-16777216
102
RTVSPost2010PropOp51
 70
     0
102
RTVSPost2010Prop52
140
1.0
102
RTVSPost2010PropOp52
 70
     0
102
RTVSPost2010Prop53
 90
        2
102
RTVSPost2010PropOp53
 70
     1
102
RTVSPost2010Prop54
  1
strokes_ogs.tif
102
RTVSPost2010PropOp54
 70
     1
102
RTVSPost2010Prop55
280
     0
102
RTVSPost2010PropOp55
 70
     1
102
RTVSPost2010Prop56
140
1.0
102
RTVSPost2010PropOp56
 70
     1
102
RTVSPost2010Prop57
140
1.0
102
RTVSPost2010PropOp57
 70
     1
  0
XRECORD
  5
1AE
102
{ACAD_REACTORS
330
1AD
102
}
330
1AD
100
AcDbXrecord
280
     1
102
RTVSPost2010Prop28
280
     0
102
RTVSPost2010PropOp28
 70
     1
102
RTVSPost2010Prop29
280
     1
102
RTVSPost2010PropOp29
 70
     1
102
RTVSPost2010Prop30
280
     1
102
RTVSPost2010PropOp30
 70
     1
102
RTVSPost2010Prop31
280
     0
102
RTVSPost2010PropOp31
 70
     1
102
RTVSPost2010Prop32
280
     0
102
RTVSPost2010PropOp32
 70
     1
102
RTVSPost2010Prop33
280
     0
102
RTVSPost2010PropOp33
 70
     1
102
RTVSPost2010Prop34
280
     0
102
RTVSPost2010PropOp34
 70
     1
102
RTVSPost2010Prop35
280
     0
102
RTVSPost2010PropOp35
 70
     1
102
RTVSPost2010Prop36
280
     0
102
RTVSPost2010PropOp36
 70
     1
102
RTVSPost2010Prop37
 90
       50
102
RTVSPost2010PropOp37
 70
     1
102
RTVSPost2010Prop38
140
0.0
102
RTVSPost2010PropOp38
 70
     1
102
RTVSPost2010Prop39
140
1.0
102
RTVSPost2010PropOp39
 70
     1
102
RTVSPost2010Prop40
 90
        0
102
RTVSPost2010PropOp40
 70
     1
102
RTVSPost2010Prop41ColorIndex
 90
       18
102
RTVSPost2010Prop41ColorRGB
 90
        0
102
RTVSPost2010PropOp41
 70
     1
102
RTVSPost2010Prop42
 90
       50
102
RTVSPost2010PropOp42
 70
     1
102
RTVSPost2010Prop43
 90
        3
102
RTVSPost2010PropOp43
 70
     1
102
RTVSPost2010Prop44ColorIndex
 90
        5
102
RTVSPost2010Prop44ColorRGB
 90
      255
102
RTVSPost2010PropOp44
 70
     1
102
RTVSPost2010Prop45
280
     0
102
RTVSPost2010PropOp45
 70
     1
102
RTVSPost2010Prop46
 90
       50
102
RTVSPost2010PropOp46
 70
     1
102
RTVSPost2010Prop47
 90
       50
102
RTVSPost2010PropOp47
 70
     1
102
RTVSPost2010Prop48
 90
       50
102
RTVSPost2010PropOp48
 70
     1
102
RTVSPost2010Prop49
280
     0
102
RTVSPost2010PropOp49
 70
     1
102
RTVSPost2010Prop50
 90
       50
102
RTVSPost2010PropOp50
 70
     1
102
RTVSPost2010Prop51ColorIndex
 90
      256
102
RTVSPost2010Prop51ColorRGB
 90
-16777216
102
RTVSPost2010PropOp51
 70
     0
102
RTVSPost2010Prop52
140
1.0
102
RTVSPost2010PropOp52
 70
     0
102
RTVSPost2010Prop53
 90
        2
102
RTVSPost2010PropOp53
 70
     1
102
RTVSPost2010Prop54
  1
strokes_ogs.tif
102
RTVSPost2010PropOp54
 70
     1
102
RTVSPost2010Prop55
280
     0
102
RTVSPost2010PropOp55
 70
     1
102
RTVSPost2010Prop56
140
1.0
102
RTVSPost2010PropOp56
 70
     1
102
RTVSPost2010Prop57
140
1.0
102
RTVSPost2010PropOp57
 70
     1
  0
XRECORD
  5
1A4
102
{ACAD_REACTORS
330
1A3
102
}
330
1A3
100
AcDbXrecord
280
     1
102
RTVSPost2010Prop28
280
     0
102
RTVSPost2010PropOp28
 70
     1
102
RTVSPost2010Prop29
280
     1
102
RTVSPost2010PropOp29
 70
     1
102
RTVSPost2010Prop30
280
     1
102
RTVSPost2010PropOp30
 70
     1
102
RTVSPost2010Prop31
280
     0
102
RTVSPost2010PropOp31
 70
     1
102
RTVSPost2010Prop32
280
     0
102
RTVSPost2010PropOp32
 70
     1
102
RTVSPost2010Prop33
280
     0
102
RTVSPost2010PropOp33
 70
     1
102
RTVSPost2010Prop34
280
     0
102
RTVSPost2010PropOp34
 70
     1
102
RTVSPost2010Prop35
280
     0
102
RTVSPost2010PropOp35
 70
     1
102
RTVSPost2010Prop36
280
     0
102
RTVSPost2010PropOp36
 70
     1
102
RTVSPost2010Prop37
 90
       50
102
RTVSPost2010PropOp37
 70
     1
102
RTVSPost2010Prop38
140
0.0
102
RTVSPost2010PropOp38
 70
     1
102
RTVSPost2010Prop39
140
1.0
102
RTVSPost2010PropOp39
 70
     1
102
RTVSPost2010Prop40
 90
        0
102
RTVSPost2010PropOp40
 70
     1
102
RTVSPost2010Prop41ColorIndex
 90
       18
102
RTVSPost2010Prop41ColorRGB
 90
        0
102
RTVSPost2010PropOp41
 70
     1
102
RTVSPost2010Prop42
 90
       50
102
RTVSPost2010PropOp42
 70
     1
102
RTVSPost2010Prop43
 90
        3
102
RTVSPost2010PropOp43
 70
     1
102
RTVSPost2010Prop44ColorIndex
 90
        5
102
RTVSPost2010Prop44ColorRGB
 90
      255
102
RTVSPost2010PropOp44
 70
     1
102
RTVSPost2010Prop45
280
     0
102
RTVSPost2010PropOp45
 70
     1
102
RTVSPost2010Prop46
 90
       50
102
RTVSPost2010PropOp46
 70
     1
102
RTVSPost2010Prop47
 90
       50
102
RTVSPost2010PropOp47
 70
     1
102
RTVSPost2010Prop48
 90
       50
102
RTVSPost2010PropOp48
 70
     1
102
RTVSPost2010Prop49
280
     0
102
RTVSPost2010PropOp49
 70
     1
102
RTVSPost2010Prop50
 90
       50
102
RTVSPost2010PropOp50
 70
     1
102
RTVSPost2010Prop51ColorIndex
 90
      256
102
RTVSPost2010Prop51ColorRGB
 90
-16777216
102
RTVSPost2010PropOp51
 70
     0
102
RTVSPost2010Prop52
140
1.0
102
RTVSPost2010PropOp52
 70
     0
102
RTVSPost2010Prop53
 90
        2
102
RTVSPost2010PropOp53
 70
     1
102
RTVSPost2010Prop54
  1
strokes_ogs.tif
102
RTVSPost2010PropOp54
 70
     1
102
RTVSPost2010Prop55
280
     0
102
RTVSPost2010PropOp55
 70
     1
102
RTVSPost2010Prop56
140
1.0
102
RTVSPost2010PropOp56
 70
     1
102
RTVSPost2010Prop57
140
1.0
102
RTVSPost2010PropOp57
 70
     1
  0
XRECORD
  5
198
102
{ACAD_REACTORS
330
197
102
}
330
197
100
AcDbXrecord
280
     1
102
RTVSPost2010Prop28
280
     0
102
RTVSPost2010PropOp28
 70
     1
102
RTVSPost2010Prop29
280
     1
102
RTVSPost2010PropOp29
 70
     1
102
RTVSPost2010Prop30
280
     1
102
RTVSPost2010PropOp30
 70
     1
102
RTVSPost2010Prop31
280
     0
102
RTVSPost2010PropOp31
 70
     1
102
RTVSPost2010Prop32
280
     0
102
RTVSPost2010PropOp32
 70
     1
102
RTVSPost2010Prop33
280
     0
102
RTVSPost2010PropOp33
 70
     1
102
RTVSPost2010Prop34
280
     0
102
RTVSPost2010PropOp34
 70
     1
102
RTVSPost2010Prop35
280
     0
102
RTVSPost2010PropOp35
 70
     1
102
RTVSPost2010Prop36
280
     0
102
RTVSPost2010PropOp36
 70
     1
102
RTVSPost2010Prop37
 90
       50
102
RTVSPost2010PropOp37
 70
     1
102
RTVSPost2010Prop38
140
0.0
102
RTVSPost2010PropOp38
 70
     1
102
RTVSPost2010Prop39
140
1.0
102
RTVSPost2010PropOp39
 70
     1
102
RTVSPost2010Prop40
 90
        0
102
RTVSPost2010PropOp40
 70
     1
102
RTVSPost2010Prop41ColorIndex
 90
       18
102
RTVSPost2010Prop41ColorRGB
 90
        0
102
RTVSPost2010PropOp41
 70
     1
102
RTVSPost2010Prop42
 90
       50
102
RTVSPost2010PropOp42
 70
     1
102
RTVSPost2010Prop43
 90
        3
102
RTVSPost2010PropOp43
 70
     1
102
RTVSPost2010Prop44ColorIndex
 90
        5
102
RTVSPost2010Prop44ColorRGB
 90
      255
102
RTVSPost2010PropOp44
 70
     1
102
RTVSPost2010Prop45
280
     0
102
RTVSPost2010PropOp45
 70
     1
102
RTVSPost2010Prop46
 90
       50
102
RTVSPost2010PropOp46
 70
     1
102
RTVSPost2010Prop47
 90
       50
102
RTVSPost2010PropOp47
 70
     1
102
RTVSPost2010Prop48
 90
       50
102
RTVSPost2010PropOp48
 70
     1
102
RTVSPost2010Prop49
280
     0
102
RTVSPost2010PropOp49
 70
     1
102
RTVSPost2010Prop50
 90
       50
102
RTVSPost2010PropOp50
 70
     1
102
RTVSPost2010Prop51ColorIndex
 90
      256
102
RTVSPost2010Prop51ColorRGB
 90
-16777216
102
RTVSPost2010PropOp51
 70
     0
102
RTVSPost2010Prop52
140
1.0
102
RTVSPost2010PropOp52
 70
     0
102
RTVSPost2010Prop53
 90
        2
102
RTVSPost2010PropOp53
 70
     1
102
RTVSPost2010Prop54
  1
strokes_ogs.tif
102
RTVSPost2010PropOp54
 70
     1
102
RTVSPost2010Prop55
280
     0
102
RTVSPost2010PropOp55
 70
     1
102
RTVSPost2010Prop56
140
1.0
102
RTVSPost2010PropOp56
 70
     1
102
RTVSPost2010Prop57
140
1.0
102
RTVSPost2010PropOp57
 70
     1
  0
XRECORD
  5
1B0
102
{ACAD_REACTORS
330
1AF
102
}
330
1AF
100
AcDbXrecord
280
     1
102
RTVSPost2010Prop28
280
     0
102
RTVSPost2010PropOp28
 70
     1
102
RTVSPost2010Prop29
280
     1
102
RTVSPost2010PropOp29
 70
     1
102
RTVSPost2010Prop30
280
     1
102
RTVSPost2010PropOp30
 70
     1
102
RTVSPost2010Prop31
280
     0
102
RTVSPost2010PropOp31
 70
     1
102
RTVSPost2010Prop32
280
     0
102
RTVSPost2010PropOp32
 70
     1
102
RTVSPost2010Prop33
280
     0
102
RTVSPost2010PropOp33
 70
     1
102
RTVSPost2010Prop34
280
     0
102
RTVSPost2010PropOp34
 70
     1
102
RTVSPost2010Prop35
280
     0
102
RTVSPost2010PropOp35
 70
     1
102
RTVSPost2010Prop36
280
     0
102
RTVSPost2010PropOp36
 70
     1
102
RTVSPost2010Prop37
 90
       50
102
RTVSPost2010PropOp37
 70
     1
102
RTVSPost2010Prop38
140
0.0
102
RTVSPost2010PropOp38
 70
     1
102
RTVSPost2010Prop39
140
1.0
102
RTVSPost2010PropOp39
 70
     1
102
RTVSPost2010Prop40
 90
        0
102
RTVSPost2010PropOp40
 70
     1
102
RTVSPost2010Prop41ColorIndex
 90
       18
102
RTVSPost2010Prop41ColorRGB
 90
        0
102
RTVSPost2010PropOp41
 70
     1
102
RTVSPost2010Prop42
 90
       50
102
RTVSPost2010PropOp42
 70
     1
102
RTVSPost2010Prop43
 90
        3
102
RTVSPost2010PropOp43
 70
     1
102
RTVSPost2010Prop44ColorIndex
 90
        5
102
RTVSPost2010Prop44ColorRGB
 90
      255
102
RTVSPost2010PropOp44
 70
     1
102
RTVSPost2010Prop45
280
     0
102
RTVSPost2010PropOp45
 70
     1
102
RTVSPost2010Prop46
 90
       50
102
RTVSPost2010PropOp46
 70
     1
102
RTVSPost2010Prop47
 90
       50
102
RTVSPost2010PropOp47
 70
     1
102
RTVSPost2010Prop48
 90
       50
102
RTVSPost2010PropOp48
 70
     1
102
RTVSPost2010Prop49
280
     0
102
RTVSPost2010PropOp49
 70
     1
102
RTVSPost2010Prop50
 90
       50
102
RTVSPost2010PropOp50
 70
     1
102
RTVSPost2010Prop51ColorIndex
 90
      256
102
RTVSPost2010Prop51ColorRGB
 90
-16777216
102
RTVSPost2010PropOp51
 70
     0
102
RTVSPost2010Prop52
140
1.0
102
RTVSPost2010PropOp52
 70
     0
102
RTVSPost2010Prop53
 90
        2
102
RTVSPost2010PropOp53
 70
     1
102
RTVSPost2010Prop54
  1
strokes_ogs.tif
102
RTVSPost2010PropOp54
 70
     1
102
RTVSPost2010Prop55
280
     0
102
RTVSPost2010PropOp55
 70
     1
102
RTVSPost2010Prop56
140
1.0
102
RTVSPost2010PropOp56
 70
     1
102
RTVSPost2010Prop57
140
1.0
102
RTVSPost2010PropOp57
 70
     1
  0
ENDSEC
  0
EOF
