  0
SECTION
  2
HEADER
  9
$ACADVER
  1
AC1024
  9
$ACADMAINTVER
 70
   205
  9
$DWGCODEPAGE
  3
ANSI_1251
  9
$INSBASE
 10
0.0
 20
0.0
 30
0.0
  9
$EXTMIN
 10
1.000000000000000E+20
 20
1.000000000000000E+20
 30
1.000000000000000E+20
  9
$EXTMAX
 10
-1.000000000000000E+20
 20
-1.000000000000000E+20
 30
-1.000000000000000E+20
  9
$LIMMIN
 10
0.0
 20
0.0
  9
$LIMMAX
 10
12.0
 20
9.0
  9
$ORTHOMODE
 70
     0
  9
$REGENMODE
 70
     1
  9
$FILLMODE
 70
     1
  9
$QTEXTMODE
 70
     0
  9
$MIRRTEXT
 70
     1
  9
$LTSCALE
 40
1.0
  9
$ATTMODE
 70
     1
  9
$TEXTSIZE
 40
0.2
  9
$TRACEWID
 40
0.05
  9
$TEXTSTYLE
  7
Standard
  9
$CLAYER
  8
OracDecor_cornice_mouldings
  9
$CELTYPE
  6
ByLayer
  9
$CECOLOR
 62
   256
  9
$CELTSCALE
 40
1.0
  9
$DISPSILH
 70
     0
  9
$DIMSCALE
 40
1.0
  9
$DIMASZ
 40
0.18
  9
$DIMEXO
 40
0.0625
  9
$DIMDLI
 40
0.38
  9
$DIMRND
 40
0.0
  9
$DIMDLE
 40
0.0
  9
$DIMEXE
 40
0.18
  9
$DIMTP
 40
0.0
  9
$DIMTM
 40
0.0
  9
$DIMTXT
 40
0.18
  9
$DIMCEN
 40
0.09
  9
$DIMTSZ
 40
0.0
  9
$DIMTOL
 70
     0
  9
$DIMLIM
 70
     0
  9
$DIMTIH
 70
     1
  9
$DIMTOH
 70
     1
  9
$DIMSE1
 70
     0
  9
$DIMSE2
 70
     0
  9
$DIMTAD
 70
     0
  9
$DIMZIN
 70
     0
  9
$DIMBLK
  1

  9
$DIMASO
 70
     1
  9
$DIMSHO
 70
     1
  9
$DIMPOST
  1

  9
$DIMAPOST
  1

  9
$DIMALT
 70
     0
  9
$DIMALTD
 70
     2
  9
$DIMALTF
 40
25.4
  9
$DIMLFAC
 40
1.0
  9
$DIMTOFL
 70
     0
  9
$DIMTVP
 40
0.0
  9
$DIMTIX
 70
     0
  9
$DIMSOXD
 70
     0
  9
$DIMSAH
 70
     0
  9
$DIMBLK1
  1

  9
$DIMBLK2
  1

  9
$DIMSTYLE
  2
Standard
  9
$DIMCLRD
 70
     0
  9
$DIMCLRE
 70
     0
  9
$DIMCLRT
 70
     0
  9
$DIMTFAC
 40
1.0
  9
$DIMGAP
 40
0.09
  9
$DIMJUST
 70
     0
  9
$DIMSD1
 70
     0
  9
$DIMSD2
 70
     0
  9
$DIMTOLJ
 70
     1
  9
$DIMTZIN
 70
     0
  9
$DIMALTZ
 70
     0
  9
$DIMALTTZ
 70
     0
  9
$DIMUPT
 70
     0
  9
$DIMDEC
 70
     4
  9
$DIMTDEC
 70
     4
  9
$DIMALTU
 70
     2
  9
$DIMALTTD
 70
     2
  9
$DIMTXSTY
  7
Standard
  9
$DIMAUNIT
 70
     0
  9
$DIMADEC
 70
     0
  9
$DIMALTRND
 40
0.0
  9
$DIMAZIN
 70
     0
  9
$DIMDSEP
 70
    46
  9
$DIMATFIT
 70
     3
  9
$DIMFRAC
 70
     0
  9
$DIMLDRBLK
  1

  9
$DIMLUNIT
 70
     2
  9
$DIMLWD
 70
    -2
  9
$DIMLWE
 70
    -2
  9
$DIMTMOVE
 70
     0
  9
$DIMFXL
 40
1.0
  9
$DIMFXLON
 70
     0
  9
$DIMJOGANG
 40
0.7853981633974483
  9
$DIMTFILL
 70
     0
  9
$DIMTFILLCLR
 70
     0
  9
$DIMARCSYM
 70
     0
  9
$DIMLTYPE
  6

  9
$DIMLTEX1
  6

  9
$DIMLTEX2
  6

  9
$DIMTXTDIRECTION
 70
     0
  9
$LUNITS
 70
     2
  9
$LUPREC
 70
     4
  9
$SKETCHINC
 40
0.1
  9
$FILLETRAD
 40
0.5
  9
$AUNITS
 70
     0
  9
$AUPREC
 70
     0
  9
$MENU
  1
.
  9
$ELEVATION
 40
0.0
  9
$PELEVATION
 40
0.0
  9
$THICKNESS
 40
0.0
  9
$LIMCHECK
 70
     0
  9
$CHAMFERA
 40
0.5
  9
$CHAMFERB
 40
0.5
  9
$CHAMFERC
 40
1.0
  9
$CHAMFERD
 40
0.0
  9
$SKPOLY
 70
     0
  9
$TDCREATE
 40
2451380.930432396
  9
$TDUCREATE
 40
2451380.805432396
  9
$TDUPDATE
 40
2451380.966180555
  9
$TDUUPDATE
 40
2451380.841180556
  9
$TDINDWG
 40
0.0075634722
  9
$TDUSRTIMER
 40
0.0075544329
  9
$USRTIMER
 70
     1
  9
$ANGBASE
 50
0.0
  9
$ANGDIR
 70
     0
  9
$PDMODE
 70
     0
  9
$PDSIZE
 40
0.0
  9
$PLINEWID
 40
0.0
  9
$SPLFRAME
 70
     0
  9
$SPLINETYPE
 70
     6
  9
$SPLINESEGS
 70
     8
  9
$HANDSEED
  5
1A3
  9
$SURFTAB1
 70
     6
  9
$SURFTAB2
 70
     6
  9
$SURFTYPE
 70
     6
  9
$SURFU
 70
     6
  9
$SURFV
 70
     6
  9
$UCSBASE
  2

  9
$UCSNAME
  2

  9
$UCSORG
 10
0.0
 20
0.0
 30
0.0
  9
$UCSXDIR
 10
1.0
 20
0.0
 30
0.0
  9
$UCSYDIR
 10
0.0
 20
1.0
 30
0.0
  9
$UCSORTHOREF
  2

  9
$UCSORTHOVIEW
 70
     0
  9
$UCSORGTOP
 10
0.0
 20
0.0
 30
0.0
  9
$UCSORGBOTTOM
 10
0.0
 20
0.0
 30
0.0
  9
$UCSORGLEFT
 10
0.0
 20
0.0
 30
0.0
  9
$UCSORGRIGHT
 10
0.0
 20
0.0
 30
0.0
  9
$UCSORGFRONT
 10
0.0
 20
0.0
 30
0.0
  9
$UCSORGBACK
 10
0.0
 20
0.0
 30
0.0
  9
$PUCSBASE
  2

  9
$PUCSNAME
  2

  9
$PUCSORG
 10
0.0
 20
0.0
 30
0.0
  9
$PUCSXDIR
 10
1.0
 20
0.0
 30
0.0
  9
$PUCSYDIR
 10
0.0
 20
1.0
 30
0.0
  9
$PUCSORTHOREF
  2

  9
$PUCSORTHOVIEW
 70
     0
  9
$PUCSORGTOP
 10
0.0
 20
0.0
 30
0.0
  9
$PUCSORGBOTTOM
 10
0.0
 20
0.0
 30
0.0
  9
$PUCSORGLEFT
 10
0.0
 20
0.0
 30
0.0
  9
$PUCSORGRIGHT
 10
0.0
 20
0.0
 30
0.0
  9
$PUCSORGFRONT
 10
0.0
 20
0.0
 30
0.0
  9
$PUCSORGBACK
 10
0.0
 20
0.0
 30
0.0
  9
$USERI1
 70
     0
  9
$USERI2
 70
     0
  9
$USERI3
 70
     0
  9
$USERI4
 70
     0
  9
$USERI5
 70
     0
  9
$USERR1
 40
0.0
  9
$USERR2
 40
0.0
  9
$USERR3
 40
0.0
  9
$USERR4
 40
0.0
  9
$USERR5
 40
0.0
  9
$WORLDVIEW
 70
     1
  9
$SHADEDGE
 70
     3
  9
$SHADEDIF
 70
    70
  9
$TILEMODE
 70
     1
  9
$MAXACTVP
 70
    64
  9
$PINSBASE
 10
0.0
 20
0.0
 30
0.0
  9
$PLIMCHECK
 70
     0
  9
$PEXTMIN
 10
1.000000000000000E+20
 20
1.000000000000000E+20
 30
1.000000000000000E+20
  9
$PEXTMAX
 10
-1.000000000000000E+20
 20
-1.000000000000000E+20
 30
-1.000000000000000E+20
  9
$PLIMMIN
 10
0.0
 20
0.0
  9
$PLIMMAX
 10
12.0
 20
9.0
  9
$UNITMODE
 70
     0
  9
$VISRETAIN
 70
     1
  9
$PLINEGEN
 70
     0
  9
$PSLTSCALE
 70
     1
  9
$TREEDEPTH
 70
  3020
  9
$CMLSTYLE
  2
Standard
  9
$CMLJUST
 70
     0
  9
$CMLSCALE
 40
1.0
  9
$PROXYGRAPHICS
 70
     1
  9
$MEASUREMENT
 70
     1
  9
$CELWEIGHT
370
    -1
  9
$ENDCAPS
280
     0
  9
$JOINSTYLE
280
     0
  9
$LWDISPLAY
290
     0
  9
$INSUNITS
 70
     4
  9
$HYPERLINKBASE
  1

  9
$STYLESHEET
  1

  9
$XEDIT
290
     1
  9
$CEPSNTYPE
380
     0
  9
$PSTYLEMODE
290
     1
  9
$FINGERPRINTGUID
  2
{12F50282-3ED8-11D3-A8B7-0060B0F84BC6}
  9
$VERSIONGUID
  2
{12F50293-3ED8-11D3-A8B7-0060B0F84BC6}
  9
$EXTNAMES
290
     1
  9
$PSVPSCALE
 40
0.0
  9
$OLESTARTUP
290
     0
  9
$SORTENTS
280
   127
  9
$INDEXCTL
280
     0
  9
$HIDETEXT
280
     0
  9
$XCLIPFRAME
280
     2
  9
$HALOGAP
280
     0
  9
$OBSCOLOR
 70
   257
  9
$OBSLTYPE
280
     0
  9
$INTERSECTIONDISPLAY
280
     0
  9
$INTERSECTIONCOLOR
 70
   257
  9
$DIMASSOC
280
     1
  9
$PROJECTNAME
  1

  9
$CAMERADISPLAY
290
     0
  9
$LENSLENGTH
 40
50.0
  9
$CAMERAHEIGHT
 40
0.0
  9
$STEPSPERSEC
 40
2.0
  9
$STEPSIZE
 40
6.0
  9
$3DDWFPREC
 40
2.0
  9
$PSOLWIDTH
 40
0.25
  9
$PSOLHEIGHT
 40
4.0
  9
$LOFTANG1
 40
1.570796326794896
  9
$LOFTANG2
 40
1.570796326794896
  9
$LOFTMAG1
 40
0.0
  9
$LOFTMAG2
 40
0.0
  9
$LOFTPARAM
 70
     7
  9
$LOFTNORMALS
280
     1
  9
$LATITUDE
 40
37.795
  9
$LONGITUDE
 40
-122.394
  9
$NORTHDIRECTION
 40
0.0
  9
$TIMEZONE
 70
 -8000
  9
$LIGHTGLYPHDISPLAY
280
     1
  9
$TILEMODELIGHTSYNCH
280
     1
  9
$CMATERIAL
347
AB
  9
$SOLIDHIST
280
     0
  9
$SHOWHIST
280
     1
  9
$DWFFRAME
280
     2
  9
$DGNFRAME
280
     0
  9
$REALWORLDSCALE
290
     1
  9
$INTERFERECOLOR
 62
     1
  9
$INTERFEREOBJVS
345
CD
  9
$INTERFEREVPVS
346
CA
  9
$CSHADOW
280
     0
  9
$SHADOWPLANELOCATION
 40
0.0
  0
ENDSEC
  0
SECTION
  2
CLASSES
  0
CLASS
  1
ACDBDICTIONARYWDFLT
  2
AcDbDictionaryWithDefault
  3
ObjectDBX Classes
 90
        0
 91
        1
280
     0
281
     0
  0
CLASS
  1
ACDBPLACEHOLDER
  2
AcDbPlaceHolder
  3
ObjectDBX Classes
 90
        0
 91
        2
280
     0
281
     0
  0
CLASS
  1
LAYOUT
  2
AcDbLayout
  3
ObjectDBX Classes
 90
        0
 91
        3
280
     0
281
     0
  0
CLASS
  1
MATERIAL
  2
AcDbMaterial
  3
ObjectDBX Classes
 90
     1153
 91
        3
280
     0
281
     0
  0
CLASS
  1
VISUALSTYLE
  2
AcDbVisualStyle
  3
ObjectDBX Classes
 90
     4095
 91
       24
280
     0
281
     0
  0
CLASS
  1
TABLESTYLE
  2
AcDbTableStyle
  3
ObjectDBX Classes
 90
     4095
 91
        1
280
     0
281
     0
  0
CLASS
  1
SCALE
  2
AcDbScale
  3
ObjectDBX Classes
 90
     1153
 91
       17
280
     0
281
     0
  0
CLASS
  1
MLEADERSTYLE
  2
AcDbMLeaderStyle
  3
ACDB_MLEADERSTYLE_CLASS
 90
     4095
 91
        1
280
     0
281
     0
  0
CLASS
  1
ACDBSECTIONVIEWSTYLE
  2
AcDbSectionViewStyle
  3
ObjectDBX Classes
 90
     1025
 91
        1
280
     0
281
     0
  0
CLASS
  1
ACDBDETAILVIEWSTYLE
  2
AcDbDetailViewStyle
  3
ObjectDBX Classes
 90
     1025
 91
        1
280
     0
281
     0
  0
CLASS
  1
MESH
  2
AcDbSubDMesh
  3
ObjectDBX Classes
 90
        0
 91
        1
280
     0
281
     1
  0
CLASS
  1
DICTIONARYVAR
  2
AcDbDictionaryVar
  3
ObjectDBX Classes
 90
        0
 91
        9
280
     0
281
     0
  0
CLASS
  1
CELLSTYLEMAP
  2
AcDbCellStyleMap
  3
ObjectDBX Classes
 90
     1152
 91
        1
280
     0
281
     0
  0
ENDSEC
  0
SECTION
  2
TABLES
  0
TABLE
  2
VPORT
  5
8
330
0
100
AcDbSymbolTable
 70
     1
  0
VPORT
  5
A8
330
8
100
AcDbSymbolTableRecord
100
AcDbViewportTableRecord
  2
*Active
 70
     0
 10
0.0
 20
0.0
 11
1.0
 21
1.0
 12
0.0000525992691109
 22
-22.45366287231445
 13
0.0
 23
0.0
 14
0.5
 24
0.5
 15
0.5
 25
0.5
 16
-1.0
 26
-1.0
 36
1.0
 17
0.0
 27
0.0
 37
0.0
 40
1096.999863835909
 41
1.645211416915657
 42
50.0
 43
0.0
 44
0.0
 50
0.0
 51
0.0
 71
     0
 72
   100
 73
     1
 74
     3
 75
     0
 76
     0
 77
     0
 78
     0
281
     0
 65
     1
110
0.0
120
0.0
130
0.0
111
1.0
121
0.0
131
0.0
112
0.0
122
1.0
132
0.0
 79
     0
146
0.0
348
C9
 60
     3
 61
     5
292
     1
282
     1
141
0.0
142
0.0
 63
   250
421
  3355443
  0
ENDTAB
  0
TABLE
  2
LTYPE
  5
5
330
0
100
AcDbSymbolTable
 70
     1
  0
LTYPE
  5
14
330
5
100
AcDbSymbolTableRecord
100
AcDbLinetypeTableRecord
  2
ByBlock
 70
     0
  3

 72
    65
 73
     0
 40
0.0
  0
LTYPE
  5
15
330
5
100
AcDbSymbolTableRecord
100
AcDbLinetypeTableRecord
  2
ByLayer
 70
     0
  3

 72
    65
 73
     0
 40
0.0
  0
LTYPE
  5
16
330
5
100
AcDbSymbolTableRecord
100
AcDbLinetypeTableRecord
  2
Continuous
 70
     0
  3
Solid line
 72
    65
 73
     0
 40
0.0
  0
ENDTAB
  0
TABLE
  2
LAYER
  5
2
330
0
100
AcDbSymbolTable
 70
     3
  0
LAYER
  5
10
330
2
100
AcDbSymbolTableRecord
100
AcDbLayerTableRecord
  2
0
 70
     0
 62
     7
  6
Continuous
370
    -3
390
F
347
BB
  0
LAYER
  5
2B
330
2
100
AcDbSymbolTableRecord
100
AcDbLayerTableRecord
  2
ASHADE
 70
     4
 62
     7
  6
Continuous
370
    -3
390
2D
347
BB
  0
LAYER
  5
F8
330
2
100
AcDbSymbolTableRecord
100
AcDbLayerTableRecord
  2
OracDecor_cornice_mouldings
 70
     0
 62
    71
420
 12117145
  6
Continuous
370
    -3
390
F
347
BB
  0
ENDTAB
  0
TABLE
  2
STYLE
  5
3
330
0
100
AcDbSymbolTable
 70
     2
  0
STYLE
  5
11
330
3
100
AcDbSymbolTableRecord
100
AcDbTextStyleTableRecord
  2
Standard
 70
     0
 40
0.0
 41
1.0
 50
0.0
 71
     0
 42
0.2
  3
txt
  4

  0
STYLE
  5
2C
330
3
100
AcDbSymbolTableRecord
100
AcDbTextStyleTableRecord
  2
ASHADE
 70
     0
 40
0.2
 41
1.0
 50
0.0
 71
     0
 42
0.2
  3
simplex
  4

  0
ENDTAB
  0
TABLE
  2
VIEW
  5
6
330
0
100
AcDbSymbolTable
 70
     0
  0
ENDTAB
  0
TABLE
  2
UCS
  5
7
330
0
100
AcDbSymbolTable
 70
     0
  0
ENDTAB
  0
TABLE
  2
APPID
  5
9
330
0
100
AcDbSymbolTable
 70
     6
  0
APPID
  5
12
330
9
100
AcDbSymbolTableRecord
100
AcDbRegAppTableRecord
  2
ACAD
 70
     0
  0
APPID
  5
8F
330
9
100
AcDbSymbolTableRecord
100
AcDbRegAppTableRecord
  2
AVE_RENDER
 70
     0
  0
APPID
  5
90
330
9
100
AcDbSymbolTableRecord
100
AcDbRegAppTableRecord
  2
AVE_ENTITY_MATERIAL
 70
     0
  0
APPID
  5
9C
330
9
100
AcDbSymbolTableRecord
100
AcDbRegAppTableRecord
  2
AVE_FINISH
 70
     0
  0
APPID
  5
9D
330
9
100
AcDbSymbolTableRecord
100
AcDbRegAppTableRecord
  2
AVE_MATERIAL
 70
     0
  0
APPID
  5
9E
330
9
100
AcDbSymbolTableRecord
100
AcDbRegAppTableRecord
  2
AVE_GLOBAL
 70
     0
  0
ENDTAB
  0
TABLE
  2
DIMSTYLE
  5
A
330
0
100
AcDbSymbolTable
 70
     1
100
AcDbDimStyleTable
 71
     0
  0
DIMSTYLE
105
27
330
A
100
AcDbSymbolTableRecord
100
AcDbDimStyleTableRecord
  2
Standard
 70
     0
340
11
  0
ENDTAB
  0
TABLE
  2
BLOCK_RECORD
  5
1
330
0
100
AcDbSymbolTable
 70
     6
  0
BLOCK_RECORD
  5
1F
330
1
100
AcDbSymbolTableRecord
100
AcDbBlockTableRecord
  2
*Model_Space
340
22
 70
     0
280
     1
281
     0
  0
BLOCK_RECORD
  5
1B
330
1
100
AcDbSymbolTableRecord
100
AcDbBlockTableRecord
  2
*Paper_Space
340
1E
 70
     0
280
     1
281
     0
  0
BLOCK_RECORD
  5
23
330
1
100
AcDbSymbolTableRecord
100
AcDbBlockTableRecord
  2
*Paper_Space0
340
26
 70
     0
280
     1
281
     0
  0
BLOCK_RECORD
  5
2E
330
1
100
AcDbSymbolTableRecord
100
AcDbBlockTableRecord
  2
direct
340
0
 70
     0
280
     1
281
     0
  0
BLOCK_RECORD
  5
42
330
1
100
AcDbSymbolTableRecord
100
AcDbBlockTableRecord
  2
overhead
340
0
 70
     0
280
     1
281
     0
  0
BLOCK_RECORD
  5
5F
330
1
100
AcDbSymbolTableRecord
100
AcDbBlockTableRecord
  2
sh_spot
340
0
 70
     0
280
     1
281
     0
  0
BLOCK_RECORD
  5
91
330
1
100
AcDbSymbolTableRecord
100
AcDbBlockTableRecord
  2
AVE_RENDER
340
0
102
{BLKREFS
331
94
331
95
331
96
331
97
331
98
331
99
331
9A
331
9B
102
}
 70
     0
280
     1
281
     0
  0
BLOCK_RECORD
  5
9F
330
1
100
AcDbSymbolTableRecord
100
AcDbBlockTableRecord
  2
AVE_GLOBAL
340
0
102
{BLKREFS
331
A2
102
}
 70
     0
280
     1
281
     0
  0
ENDTAB
  0
ENDSEC
  0
SECTION
  2
BLOCKS
  0
BLOCK
  5
20
330
1F
100
AcDbEntity
  8
0
100
AcDbBlockBegin
  2
*Model_Space
 70
     0
 10
0.0
 20
0.0
 30
0.0
  3
*Model_Space
  1

  0
ENDBLK
  5
21
330
1F
100
AcDbEntity
  8
0
100
AcDbBlockEnd
  0
BLOCK
  5
1C
330
1B
100
AcDbEntity
 67
     1
  8
0
100
AcDbBlockBegin
  2
*Paper_Space
 70
     0
 10
0.0
 20
0.0
 30
0.0
  3
*Paper_Space
  1

  0
ENDBLK
  5
1D
330
1B
100
AcDbEntity
 67
     1
  8
0
100
AcDbBlockEnd
  0
BLOCK
  5
24
330
23
100
AcDbEntity
 67
     1
  8
0
100
AcDbBlockBegin
  2
*Paper_Space0
 70
     0
 10
0.0
 20
0.0
 30
0.0
  3
*Paper_Space0
  1

  0
ENDBLK
  5
25
330
23
100
AcDbEntity
 67
     1
  8
0
100
AcDbBlockEnd
  0
BLOCK
  5
40
330
2E
100
AcDbEntity
  8
0
100
AcDbBlockBegin
  2
direct
 70
     2
 10
0.0
 20
0.0
 30
0.0
  3
direct
  1

  0
ATTDEF
  5
2F
330
2E
100
AcDbEntity
  8
ASHADE
  6
Continuous
 62
     1
100
AcDbText
 10
0.0
 20
-0.1
 30
0.0
 40
0.2
  1

  7
ASHADE
 72
     1
 11
0.0
 21
-0.1
 31
0.0
100
AcDbAttributeDefinition
280
     0
  3
Light Name
  2
SNAME
 70
     0
280
     0
  0
ARC
  5
30
330
2E
100
AcDbEntity
  8
ASHADE
  6
Continuous
 62
     7
100
AcDbCircle
 10
0.0
 20
0.0
 30
0.0
 40
0.3
100
AcDbArc
 50
205.6792886194569
 51
334.3207113805431
  0
ARC
  5
31
330
2E
100
AcDbEntity
  8
ASHADE
  6
Continuous
 62
     7
100
AcDbCircle
 10
0.0
 20
0.0
 30
0.0
 40
0.3
100
AcDbArc
 50
25.67928861945685
 51
154.3207113805431
  0
LINE
  5
32
330
2E
100
AcDbEntity
  8
ASHADE
  6
Continuous
 62
     7
100
AcDbLine
 10
-0.21
 20
0.2142428528562855
 30
0.0
 11
-0.21
 21
0.5
 31
0.0
  0
LINE
  5
33
330
2E
100
AcDbEntity
  8
ASHADE
  6
Continuous
 62
     7
100
AcDbLine
 10
-0.11
 20
0.2791057147390572
 30
0.0
 11
-0.11
 21
0.5
 31
0.0
  0
LINE
  5
34
330
2E
100
AcDbEntity
  8
ASHADE
  6
Continuous
 62
     7
100
AcDbLine
 10
0.21
 20
0.2142428528562855
 30
0.0
 11
0.21
 21
0.5
 31
0.0
  0
ATTDEF
  5
35
330
2E
100
AcDbEntity
  8
ASHADE
  6
Continuous
 62
     7
100
AcDbText
 10
0.0
 20
0.25
 30
0.0
 40
0.01
  1

100
AcDbAttributeDefinition
280
     0
  3
Look-at Y
  2
LAY
 70
     1
280
     0
  0
ATTDEF
  5
36
330
2E
100
AcDbEntity
  8
ASHADE
  6
Continuous
 62
     7
100
AcDbText
 10
0.0
 20
0.22
 30
0.0
 40
0.01
  1
1
100
AcDbAttributeDefinition
280
     0
  3
Light Intensity
  2
INTENSITY
 70
     1
280
     0
  0
ATTDEF
  5
37
330
2E
100
AcDbEntity
  8
ASHADE
  6
Continuous
 62
     7
100
AcDbText
 10
0.0
 20
0.16
 30
0.0
 40
0.01
  1
-1
100
AcDbAttributeDefinition
280
     0
  3
*not used*
  2
BEAMD
 70
     1
280
     0
  0
ATTDEF
  5
38
330
2E
100
AcDbEntity
  8
ASHADE
  6
Continuous
 62
     7
100
AcDbText
 10
0.0
 20
0.175
 30
0.0
 40
0.01
  1
-1
100
AcDbAttributeDefinition
280
     0
  3
*not used*
  2
CONED
 70
     1
280
     0
  0
ATTDEF
  5
39
330
2E
100
AcDbEntity
  8
ASHADE
  6
Continuous
 62
     7
100
AcDbText
 10
0.0
 20
0.19
 30
0.0
 40
0.01
  1
0
100
AcDbAttributeDefinition
280
     0
  3
Depth Map Size
  2
CONEA
 70
     1
280
     0
  0
ATTDEF
  5
3A
330
2E
100
AcDbEntity
  8
ASHADE
  6
Continuous
 62
     7
100
AcDbText
 10
0.0
 20
0.2050000000000001
 30
0.0
 40
0.01
  1
1,1,1
100
AcDbAttributeDefinition
280
     0
  3
Light Color (RGB)
  2
COLOR
 70
     1
280
     0
  0
ATTDEF
  5
3B
330
2E
100
AcDbEntity
  8
ASHADE
  6
Continuous
 62
     7
100
AcDbText
 10
0.0
 20
0.235
 30
0.0
 40
0.01
  1

100
AcDbAttributeDefinition
280
     0
  3
Look-at Z
  2
LAZ
 70
     1
280
     0
  0
LINE
  5
3C
330
2E
100
AcDbEntity
  8
ASHADE
  6
Continuous
 62
     7
100
AcDbLine
 10
0.0
 20
0.3
 30
0.0
 11
0.0
 21
0.5
 31
0.0
  0
LINE
  5
3D
330
2E
100
AcDbEntity
  8
ASHADE
  6
Continuous
 62
     7
100
AcDbLine
 10
0.11
 20
0.2791057147390572
 30
0.0
 11
0.11
 21
0.5
 31
0.0
  0
ATTDEF
  5
3E
330
2E
100
AcDbEntity
  8
ASHADE
  6
Continuous
 62
     7
100
AcDbText
 10
0.0
 20
0.265
 30
0.0
 40
0.01
  1

100
AcDbAttributeDefinition
280
     0
  3
Look-at X
  2
LAX
 70
     1
280
     0
  0
ATTDEF
  5
3F
330
2E
100
AcDbEntity
  8
ASHADE
  6
Continuous
 62
     7
100
AcDbText
 10
0.0
 20
0.28
 30
0.0
 40
0.01
  1

100
AcDbAttributeDefinition
280
     0
  3

  2
GNAME
 70
     1
280
     0
  0
ENDBLK
  5
41
330
2E
100
AcDbEntity
  8
0
100
AcDbBlockEnd
  0
BLOCK
  5
5D
330
42
100
AcDbEntity
  8
0
100
AcDbBlockBegin
  2
overhead
 70
     2
 10
0.0
 20
0.0
 30
0.0
  3
overhead
  1

  0
ATTDEF
  5
43
330
42
100
AcDbEntity
  8
ASHADE
  6
Continuous
 62
     1
100
AcDbText
 10
0.0
 20
-0.1
 30
0.0
 40
0.2
  1

  7
ASHADE
 72
     1
 11
0.0
 21
-0.1
 31
0.0
100
AcDbAttributeDefinition
280
     0
  3
Light Name
  2
SNAME
 70
     0
280
     0
  0
ARC
  5
44
330
42
100
AcDbEntity
  8
ASHADE
  6
Continuous
 62
     7
100
AcDbCircle
 10
0.0
 20
0.0
 30
0.0
 40
0.3
100
AcDbArc
 50
205.6792886194569
 51
334.3207113805431
  0
LINE
  5
45
330
42
100
AcDbEntity
  8
ASHADE
  6
Continuous
 62
     7
100
AcDbLine
 10
-0.2041413561583015
 20
-0.2198324514393848
 30
0.0
 11
-0.2721884748777353
 21
-0.2931099352525131
 31
0.0
  0
LINE
  5
46
330
42
100
AcDbEntity
  8
ASHADE
  6
Continuous
 62
     7
100
AcDbLine
 10
-0.1096591641591904
 20
-0.2792398032442862
 30
0.0
 11
-0.1279356915190555
 21
-0.3257797704516673
 31
0.0
  0
LINE
  5
47
330
42
100
AcDbEntity
  8
ASHADE
  6
Continuous
 62
     7
100
AcDbLine
 10
0.0
 20
-0.2999999999999999
 30
0.0
 11
0.0
 21
-0.4
 31
0.0
  0
LINE
  5
48
330
42
100
AcDbEntity
  8
ASHADE
  6
Continuous
 62
     7
100
AcDbLine
 10
0.1096591641591904
 20
-0.2792398032442862
 30
0.0
 11
0.1279356915190555
 21
-0.3257797704516673
 31
0.0
  0
LINE
  5
49
330
42
100
AcDbEntity
  8
ASHADE
  6
Continuous
 62
     7
100
AcDbLine
 10
0.2041413561583015
 20
-0.2198324514393848
 30
0.0
 11
0.2721884748777353
 21
-0.2931099352525131
 31
0.0
  0
ARC
  5
4A
330
42
100
AcDbEntity
  8
ASHADE
  6
Continuous
 62
     7
100
AcDbCircle
 10
0.0
 20
0.0
 30
0.0
 40
0.3
100
AcDbArc
 50
25.67928861945685
 51
154.3207113805431
  0
LINE
  5
4B
330
42
100
AcDbEntity
  8
ASHADE
  6
Continuous
 62
     7
100
AcDbLine
 10
-0.2703701166919155
 20
0.13
 30
0.0
 11
-0.3154318028072347
 21
0.1516666666666666
 31
0.0
  0
LINE
  5
4C
330
42
100
AcDbEntity
  8
ASHADE
  6
Continuous
 62
     7
100
AcDbLine
 10
-0.2703701166919155
 20
-0.13
 30
0.0
 11
-0.3154318028072347
 21
-0.1516666666666666
 31
0.0
  0
LINE
  5
4D
330
42
100
AcDbEntity
  8
ASHADE
  6
Continuous
 62
     7
100
AcDbLine
 10
-0.2041413561583015
 20
0.2198324514393849
 30
0.0
 11
-0.2721884748777353
 21
0.2931099352525131
 31
0.0
  0
LINE
  5
4E
330
42
100
AcDbEntity
  8
ASHADE
  6
Continuous
 62
     7
100
AcDbLine
 10
-0.1096591641591904
 20
0.2792398032442862
 30
0.0
 11
-0.1279356915190555
 21
0.3257797704516674
 31
0.0
  0
LINE
  5
4F
330
42
100
AcDbEntity
  8
ASHADE
  6
Continuous
 62
     7
100
AcDbLine
 10
0.2703701166919155
 20
-0.13
 30
0.0
 11
0.3154318028072347
 21
-0.1516666666666666
 31
0.0
  0
LINE
  5
50
330
42
100
AcDbEntity
  8
ASHADE
  6
Continuous
 62
     7
100
AcDbLine
 10
0.2703701166919155
 20
0.13
 30
0.0
 11
0.3154318028072347
 21
0.1516666666666666
 31
0.0
  0
LINE
  5
51
330
42
100
AcDbEntity
  8
ASHADE
  6
Continuous
 62
     7
100
AcDbLine
 10
0.0
 20
0.3
 30
0.0
 11
0.0
 21
0.4
 31
0.0
  0
ATTDEF
  5
52
330
42
100
AcDbEntity
  8
ASHADE
  6
Continuous
 62
     7
100
AcDbText
 10
0.0
 20
0.22
 30
0.0
 40
0.01
  1
1
100
AcDbAttributeDefinition
280
     0
  3
Light Intensity
  2
INTENSITY
 70
     1
280
     0
  0
ATTDEF
  5
53
330
42
100
AcDbEntity
  8
ASHADE
  6
Continuous
 62
     7
100
AcDbText
 10
0.0
 20
0.16
 30
0.0
 40
0.01
  1
-1
100
AcDbAttributeDefinition
280
     0
  3
*not used*
  2
BEAMD
 70
     1
280
     0
  0
ATTDEF
  5
54
330
42
100
AcDbEntity
  8
ASHADE
  6
Continuous
 62
     7
100
AcDbText
 10
0.0
 20
0.175
 30
0.0
 40
0.01
  1
-1
100
AcDbAttributeDefinition
280
     0
  3
*not used*
  2
CONED
 70
     1
280
     0
  0
ATTDEF
  5
55
330
42
100
AcDbEntity
  8
ASHADE
  6
Continuous
 62
     7
100
AcDbText
 10
0.0
 20
0.19
 30
0.0
 40
0.01
  1
0
100
AcDbAttributeDefinition
280
     0
  3
Depth Map Size
  2
CONEA
 70
     1
280
     0
  0
ATTDEF
  5
56
330
42
100
AcDbEntity
  8
ASHADE
  6
Continuous
 62
     7
100
AcDbText
 10
0.0
 20
0.2050000000000001
 30
0.0
 40
0.01
  1
1,1,1
100
AcDbAttributeDefinition
280
     0
  3
Light Color (RGB)
  2
COLOR
 70
     1
280
     0
  0
ATTDEF
  5
57
330
42
100
AcDbEntity
  8
ASHADE
  6
Continuous
 62
     7
100
AcDbText
 10
0.0
 20
0.235
 30
0.0
 40
0.01
  1

100
AcDbAttributeDefinition
280
     0
  3
Look-at Z
  2
LAZ
 70
     1
280
     0
  0
ATTDEF
  5
58
330
42
100
AcDbEntity
  8
ASHADE
  6
Continuous
 62
     7
100
AcDbText
 10
0.0
 20
0.25
 30
0.0
 40
0.01
  1

100
AcDbAttributeDefinition
280
     0
  3
Look-at Y
  2
LAY
 70
     1
280
     0
  0
ATTDEF
  5
59
330
42
100
AcDbEntity
  8
ASHADE
  6
Continuous
 62
     7
100
AcDbText
 10
0.0
 20
0.265
 30
0.0
 40
0.01
  1

100
AcDbAttributeDefinition
280
     0
  3
Look-at X
  2
LAX
 70
     1
280
     0
  0
ATTDEF
  5
5A
330
42
100
AcDbEntity
  8
ASHADE
  6
Continuous
 62
     7
100
AcDbText
 10
0.0
 20
0.28
 30
0.0
 40
0.01
  1

100
AcDbAttributeDefinition
280
     0
  3

  2
GNAME
 70
     1
280
     0
  0
LINE
  5
5B
330
42
100
AcDbEntity
  8
ASHADE
  6
Continuous
 62
     7
100
AcDbLine
 10
0.1096591641591904
 20
0.2792398032442862
 30
0.0
 11
0.1279356915190555
 21
0.3257797704516674
 31
0.0
  0
LINE
  5
5C
330
42
100
AcDbEntity
  8
ASHADE
  6
Continuous
 62
     7
100
AcDbLine
 10
0.2041413561583015
 20
0.2198324514393849
 30
0.0
 11
0.2721884748777353
 21
0.2931099352525131
 31
0.0
  0
ENDBLK
  5
5E
330
42
100
AcDbEntity
  8
0
100
AcDbBlockEnd
  0
BLOCK
  5
85
330
5F
100
AcDbEntity
  8
0
100
AcDbBlockBegin
  2
sh_spot
 70
     2
 10
0.0
 20
0.0
 30
0.0
  3
sh_spot
  1

  0
LINE
  5
60
330
5F
100
AcDbEntity
  8
ASHADE
  6
Continuous
 62
     7
100
AcDbLine
 10
0.25
 20
0.26
 30
0.0
 11
-0.25
 21
0.26
 31
0.0
  0
LINE
  5
61
330
5F
100
AcDbEntity
  8
ASHADE
  6
Continuous
 62
     7
100
AcDbLine
 10
-0.25
 20
-0.3399999999999999
 30
0.0
 11
0.25
 21
-0.3399999999999999
 31
0.0
  0
ATTDEF
  5
62
330
5F
100
AcDbEntity
  8
ASHADE
  6
Continuous
 62
     1
100
AcDbText
 10
0.0
 20
-0.1
 30
0.0
 40
0.2
  1

  7
ASHADE
 72
     1
 11
0.0
 21
-0.1
 31
0.0
100
AcDbAttributeDefinition
280
     0
  3
Light Name
  2
SNAME
 70
     0
280
     0
  0
LINE
  5
63
330
5F
100
AcDbEntity
  8
ASHADE
  6
Continuous
 62
     7
100
AcDbLine
 10
-0.25
 20
-0.13
 30
0.0
 11
-0.25
 21
-0.3399999999999999
 31
0.0
  0
LINE
  5
64
330
5F
100
AcDbEntity
  8
ASHADE
  6
Continuous
 62
     7
100
AcDbLine
 10
-0.25
 20
-0.18
 30
0.0
 11
-0.29
 21
-0.18
 31
0.0
  0
LINE
  5
65
330
5F
100
AcDbEntity
  8
ASHADE
  6
Continuous
 62
     7
100
AcDbLine
 10
-0.29
 20
-0.22
 30
0.0
 11
-0.25
 21
-0.22
 31
0.0
  0
LINE
  5
66
330
5F
100
AcDbEntity
  8
ASHADE
  6
Continuous
 62
     7
100
AcDbLine
 10
-0.29
 20
-0.18
 30
0.0
 11
-0.29
 21
-0.22
 31
0.0
  0
LINE
  5
67
330
5F
100
AcDbEntity
  8
ASHADE
  6
Continuous
 62
     7
100
AcDbLine
 10
-0.1045454545454545
 20
0.26
 30
0.0
 11
-0.15
 21
0.46
 31
0.0
  0
LINE
  5
68
330
5F
100
AcDbEntity
  8
ASHADE
  6
Continuous
 62
     7
100
AcDbLine
 10
-0.21
 20
0.26
 30
0.0
 11
-0.301304347826087
 21
0.46
 31
0.0
  0
LINE
  5
69
330
5F
100
AcDbEntity
  8
ASHADE
  6
Continuous
 62
     7
100
AcDbLine
 10
-0.25
 20
0.26
 30
0.0
 11
-0.25
 21
0.13
 31
0.0
  0
LINE
  5
6A
330
5F
100
AcDbEntity
  8
ASHADE
  6
Continuous
 62
     7
100
AcDbLine
 10
-0.25
 20
0.22
 30
0.0
 11
-0.29
 21
0.22
 31
0.0
  0
LINE
  5
6B
330
5F
100
AcDbEntity
  8
ASHADE
  6
Continuous
 62
     7
100
AcDbLine
 10
-0.29
 20
0.1799999999999999
 30
0.0
 11
-0.25
 21
0.1799999999999999
 31
0.0
  0
LINE
  5
6C
330
5F
100
AcDbEntity
  8
ASHADE
  6
Continuous
 62
     7
100
AcDbLine
 10
-0.29
 20
0.22
 30
0.0
 11
-0.29
 21
0.1799999999999999
 31
0.0
  0
ATTDEF
  5
6D
330
5F
100
AcDbEntity
  8
ASHADE
  6
Continuous
 62
     7
100
AcDbText
 10
0.0
 20
-0.24
 30
0.0
 40
0.01
  1
0
100
AcDbAttributeDefinition
280
     0
  3
Depth Map Size
  2
ZSIZE
 70
     1
280
     0
  0
ATTDEF
  5
6E
330
5F
100
AcDbEntity
  8
ASHADE
  6
Continuous
 62
     7
100
AcDbText
 10
0.0
 20
-0.3300000000000001
 30
0.0
 40
0.01
  1
0,0,0
100
AcDbAttributeDefinition
280
     0
  3
Look-from XYZ
  2
LFXYZ
 70
     1
280
     0
  0
ATTDEF
  5
6F
330
5F
100
AcDbEntity
  8
ASHADE
  6
Continuous
 62
     7
100
AcDbText
 10
0.0
 20
-0.315
 30
0.0
 40
0.01
  1
0.0
100
AcDbAttributeDefinition
280
     0
  3
Beam Distribution
  2
BEAMDI
 70
     1
280
     0
  0
ATTDEF
  5
70
330
5F
100
AcDbEntity
  8
ASHADE
  6
Continuous
 62
     7
100
AcDbText
 10
0.0
 20
-0.3
 30
0.0
 40
0.01
  1
0.0
100
AcDbAttributeDefinition
280
     0
  3
Cone Delta
  2
CONEDE
 70
     1
280
     0
  0
ATTDEF
  5
71
330
5F
100
AcDbEntity
  8
ASHADE
  6
Continuous
 62
     7
100
AcDbText
 10
0.0
 20
-0.2850000000000001
 30
0.0
 40
0.01
  1
10.0
100
AcDbAttributeDefinition
280
     0
  3
Cone Angle
  2
CONEAN
 70
     1
280
     0
  0
ATTDEF
  5
72
330
5F
100
AcDbEntity
  8
ASHADE
  6
Continuous
 62
     7
100
AcDbText
 10
0.0
 20
-0.27
 30
0.0
 40
0.01
  1
-1
100
AcDbAttributeDefinition
280
     0
  3
*not used*
  2
BIASMAX
 70
     1
280
     0
  0
ATTDEF
  5
73
330
5F
100
AcDbEntity
  8
ASHADE
  6
Continuous
 62
     7
100
AcDbText
 10
0.0
 20
-0.255
 30
0.0
 40
0.01
  1
-1
100
AcDbAttributeDefinition
280
     0
  3
*not used*
  2
BIASMIN
 70
     1
280
     0
  0
ATTDEF
  5
74
330
5F
100
AcDbEntity
  8
ASHADE
  6
Continuous
 62
     7
100
AcDbText
 10
0.0
 20
-0.225
 30
0.0
 40
0.01
  1
1,1,1
100
AcDbAttributeDefinition
280
     0
  3
Light Color (RGB)
  2
COLOR
 70
     1
280
     0
  0
ATTDEF
  5
75
330
5F
100
AcDbEntity
  8
ASHADE
  6
Continuous
 62
     7
100
AcDbText
 10
0.0
 20
-0.21
 30
0.0
 40
0.01
  1
1
100
AcDbAttributeDefinition
280
     0
  3
Light Intensity
  2
INTENSITY
 70
     1
280
     0
  0
ATTDEF
  5
76
330
5F
100
AcDbEntity
  8
ASHADE
  6
Continuous
 62
     7
100
AcDbText
 10
0.0
 20
-0.15
 30
0.0
 40
0.01
  1

100
AcDbAttributeDefinition
280
     0
  3

  2
GNAME
 70
     1
280
     0
  0
ATTDEF
  5
77
330
5F
100
AcDbEntity
  8
ASHADE
  6
Continuous
 62
     7
100
AcDbText
 10
0.0
 20
-0.195
 30
0.0
 40
0.01
  1

100
AcDbAttributeDefinition
280
     0
  3
Look-at Z
  2
LAZ
 70
     1
280
     0
  0
ATTDEF
  5
78
330
5F
100
AcDbEntity
  8
ASHADE
  6
Continuous
 62
     7
100
AcDbText
 10
0.0
 20
-0.18
 30
0.0
 40
0.01
  1

100
AcDbAttributeDefinition
280
     0
  3
Look-at Y
  2
LAY
 70
     1
280
     0
  0
ATTDEF
  5
79
330
5F
100
AcDbEntity
  8
ASHADE
  6
Continuous
 62
     7
100
AcDbText
 10
0.0
 20
-0.165
 30
0.0
 40
0.01
  1

100
AcDbAttributeDefinition
280
     0
  3
Look-at X
  2
LAX
 70
     1
280
     0
  0
LINE
  5
7A
330
5F
100
AcDbEntity
  8
ASHADE
  6
Continuous
 62
     7
100
AcDbLine
 10
0.25
 20
-0.3399999999999999
 30
0.0
 11
0.25
 21
-0.13
 31
0.0
  0
LINE
  5
7B
330
5F
100
AcDbEntity
  8
ASHADE
  6
Continuous
 62
     7
100
AcDbLine
 10
0.25
 20
-0.18
 30
0.0
 11
0.29
 21
-0.18
 31
0.0
  0
LINE
  5
7C
330
5F
100
AcDbEntity
  8
ASHADE
  6
Continuous
 62
     7
100
AcDbLine
 10
0.29
 20
-0.22
 30
0.0
 11
0.25
 21
-0.22
 31
0.0
  0
LINE
  5
7D
330
5F
100
AcDbEntity
  8
ASHADE
  6
Continuous
 62
     7
100
AcDbLine
 10
0.29
 20
-0.18
 30
0.0
 11
0.29
 21
-0.22
 31
0.0
  0
LINE
  5
7E
330
5F
100
AcDbEntity
  8
ASHADE
  6
Continuous
 62
     7
100
AcDbLine
 10
0.21
 20
0.26
 30
0.0
 11
0.301304347826087
 21
0.46
 31
0.0
  0
LINE
  5
7F
330
5F
100
AcDbEntity
  8
ASHADE
  6
Continuous
 62
     7
100
AcDbLine
 10
0.1045454545454545
 20
0.26
 30
0.0
 11
0.15
 21
0.46
 31
0.0
  0
LINE
  5
80
330
5F
100
AcDbEntity
  8
ASHADE
  6
Continuous
 62
     7
100
AcDbLine
 10
0.0
 20
0.26
 30
0.0
 11
0.0
 21
0.46
 31
0.0
  0
LINE
  5
81
330
5F
100
AcDbEntity
  8
ASHADE
  6
Continuous
 62
     7
100
AcDbLine
 10
0.25
 20
0.13
 30
0.0
 11
0.25
 21
0.26
 31
0.0
  0
LINE
  5
82
330
5F
100
AcDbEntity
  8
ASHADE
  6
Continuous
 62
     7
100
AcDbLine
 10
0.25
 20
0.22
 30
0.0
 11
0.29
 21
0.22
 31
0.0
  0
LINE
  5
83
330
5F
100
AcDbEntity
  8
ASHADE
  6
Continuous
 62
     7
100
AcDbLine
 10
0.29
 20
0.1799999999999999
 30
0.0
 11
0.25
 21
0.1799999999999999
 31
0.0
  0
LINE
  5
84
330
5F
100
AcDbEntity
  8
ASHADE
  6
Continuous
 62
     7
100
AcDbLine
 10
0.29
 20
0.22
 30
0.0
 11
0.29
 21
0.1799999999999999
 31
0.0
  0
ENDBLK
  5
86
330
5F
100
AcDbEntity
  8
0
100
AcDbBlockEnd
  0
BLOCK
  5
92
330
91
100
AcDbEntity
  8
ASHADE
100
AcDbBlockBegin
  2
AVE_RENDER
 70
     0
 10
0.0
 20
0.0
 30
0.0
  3
AVE_RENDER
  1
AVE_RENDER
  0
ENDBLK
  5
93
330
91
100
AcDbEntity
  8
0
100
AcDbBlockEnd
  0
BLOCK
  5
A0
330
9F
100
AcDbEntity
  8
ASHADE
100
AcDbBlockBegin
  2
AVE_GLOBAL
 70
     0
 10
0.0
 20
0.0
 30
0.0
  3
AVE_GLOBAL
  1
AVE_GLOBAL
  0
ENDBLK
  5
A1
330
9F
100
AcDbEntity
  8
0
100
AcDbBlockEnd
  0
ENDSEC
  0
SECTION
  2
ENTITIES
  0
INSERT
  5
94
330
1F
100
AcDbEntity
  8
ASHADE
 62
     1
100
AcDbBlockReference
  2
AVE_RENDER
 10
0.0
 20
0.0
 30
0.0
1001
AVE_RENDER
1002
{
1070
     7
1000
Pref
1070
    30
1070
    20
1070
     1
1070
     0
1000

1070
    10
1070
     1
1070
    10
1040
1.0
1070
     1
1040
0.3
1040
0.7
1040
0.0
1040
10.0
1010
-1.0
1020
-1.0
1030
-1.0
1040
0.3
1070
    49
1070
     0
1070
     0
1010
1.0
1020
1.0
1030
1.0
1040
45.0
1070
     1
1070
     0
1000
WCS
1040
0.0
1070
     0
1040
10.0
1002
}
  0
INSERT
  5
95
330
1F
100
AcDbEntity
  8
ASHADE
 62
     3
100
AcDbBlockReference
  2
AVE_RENDER
 10
0.0
 20
0.0
 30
0.0
1001
AVE_RENDER
1002
{
1070
     0
1000
Full Opt
1070
     0
1070
     1
1070
     1
1070
     1
1070
     0
1070
     0
1070
     0
1070
     1
1070
     1
1040
0.0001
1040
0.0001
1002
}
  0
INSERT
  5
96
330
1F
100
AcDbEntity
  8
ASHADE
 62
     4
100
AcDbBlockReference
  2
AVE_RENDER
 10
0.0
 20
0.0
 30
0.0
1001
AVE_RENDER
1002
{
1070
     0
1000
Quick Opt
1070
     0
1070
     1
1070
     1
1070
     1
1070
     0
1070
     0
1070
     1
1002
}
  0
INSERT
  5
97
330
1F
100
AcDbEntity
  8
ASHADE
 62
     5
100
AcDbBlockReference
  2
AVE_RENDER
 10
0.0
 20
0.0
 30
0.0
1001
AVE_RENDER
1002
{
1070
     1
1000
Scanl Opt
1070
     2
1070
     0
1070
     2
1040
2.0
1040
4.0
1070
     0
1070
     1
1070
     0
1040
0.03
1002
}
  0
INSERT
  5
98
330
1F
100
AcDbEntity
  8
ASHADE
 62
     6
100
AcDbBlockReference
  2
AVE_RENDER
 10
0.0
 20
0.0
 30
0.0
1001
AVE_RENDER
1002
{
1070
     2
1000
Raytr Opt
1070
     2
1070
     0
1070
     2
1040
2.0
1040
4.0
1070
     0
1070
     1
1070
     1
1040
0.03
1070
     3
1040
0.03
1002
}
  0
INSERT
  5
99
330
1F
100
AcDbEntity
  8
ASHADE
 62
     7
100
AcDbBlockReference
  2
AVE_RENDER
 10
0.0
 20
0.0
 30
0.0
1001
AVE_RENDER
1002
{
1070
     0
1000
RFile Opt
1070
     1
1070
   640
1070
   480
1070
 10000
1070
     1
1070
     8
1070
     8
1070
     0
1070
     0
1070
     0
1070
     0
1070
     0
1070
     0
1070
     0
1002
}
  0
INSERT
  5
9A
330
1F
100
AcDbEntity
  8
ASHADE
 62
     8
100
AcDbBlockReference
  2
AVE_RENDER
 10
0.0
 20
0.0
 30
0.0
1001
AVE_RENDER
1002
{
1070
     0
1000
Fog Opt
1070
     0
1070
     0
1040
0.0
1040
1.0
1040
0.0
1040
1.0
1010
0.5
1020
0.5
1030
0.5
1002
}
  0
INSERT
  5
9B
330
1F
100
AcDbEntity
  8
ASHADE
 62
     9
100
AcDbBlockReference
  2
AVE_RENDER
 10
0.0
 20
0.0
 30
0.0
1001
AVE_RENDER
1002
{
1070
     0
1000
BG Opt
1070
     0
1070
     1
1010
0.0
1020
0.0
1030
0.0
1010
1.0
1020
0.0
1030
0.0
1010
0.0
1020
1.0
1030
0.0
1010
0.0
1020
0.0
1030
1.0
1040
0.5
1040
0.33
1040
0.0
1000

1070
     1
1000

1070
     1
1070
     1
1040
1.0
1040
1.0
1040
0.0
1040
0.0
1070
     0
1002
}
  0
INSERT
  5
A2
330
1F
100
AcDbEntity
  8
ASHADE
 62
     1
100
AcDbBlockReference
  2
AVE_GLOBAL
 10
0.0
 20
0.0
 30
0.0
1001
AVE_MATERIAL
1002
{
1000
*GLOBAL*
1000
2
1000
Global finish.
1002
{
1002
}
1002
{
1070
    63
1002
{
1002
{
1010
-1.0
1020
-1.0
1030
-1.0
1002
}
1040
0.1000000014901161
1000

1040
0.0
1002
{
1002
}
1040
0.0
1002
{
1002
}
1040
0.0
1002
}
1002
{
1002
{
1010
-1.0
1020
-1.0
1030
-1.0
1002
}
1040
0.6999999880790711
1000

1040
0.0
1002
{
1002
}
1040
0.0
1002
{
1002
}
1040
0.0
1002
}
1002
{
1002
{
1010
-1.0
1020
-1.0
1030
-1.0
1002
}
1040
0.2000000029802322
1000

1040
0.0
1002
{
1002
}
1040
0.0
1002
{
1002
}
1040
0.0
1002
}
1002
{
1070
     0
1002
{
1070
     1
1002
{
1040
1.0
1040
1.0
1000

1040
0.0
1002
{
1002
}
1040
0.0
1002
{
1002
}
1040
0.0
1002
}
1002
}
1040
1.0
1040
0.0
1040
0.0
1002
}
1002
{
1040
1.0
1040
1.0
1000

1040
0.0
1002
{
1002
}
1040
0.0
1002
{
1002
}
1040
0.0
1002
}
1002
{
1040
0.5
1040
1.0
1000

1040
0.0
1002
{
1002
}
1040
0.0
1002
{
1002
}
1040
0.0
1002
}
1002
{
1070
     0
1040
0.0
1002
{
1002
}
1040
1.0
1002
{
1002
}
1040
0.0
1002
}
1002
{
1040
0.0
1002
{
1002
{
1010
0.0
1020
0.0
1030
0.0
1002
}
1040
1.0
1000

1040
0.0
1002
{
1002
}
1040
0.0
1002
{
1002
}
1040
0.0
1002
}
1002
}
1002
{
1002
{
1070
     1
1002
{
1040
0.0
1040
1.0
1000

1040
0.0
1002
{
1002
}
1040
0.0
1002
{
1002
}
1040
0.0
1002
}
1002
}
1040
0.0
1002
{
1002
}
1010
1.0
1020
0.0
1030
0.0
1010
0.0
1020
1.0
1030
0.0
1010
0.0
1020
0.0
1030
1.0
1070
     0
1002
}
1002
{
1002
{
1040
1.0
1040
1.0
1002
{
1070
     1
1002
{
1040
1.0
1040
1.0
1000

1040
0.0
1002
{
1002
}
1040
0.0
1002
{
1002
}
1040
0.0
1002
}
1002
}
1002
}
1070
     0
1040
0.0
1002
{
1002
}
1002
}
1002
{
1002
}
1002
}
1002
{
1071
        3
1070
     3
1070
     0
1002
{
1070
     2
1070
     0
1070
     0
1040
0.0
1002
}
1070
     0
1070
     2
1002
{
1002
}
1002
}
1002
{
1040
8030.0
1040
190.3000030517578
1040
0.3050000071525574
1040
228.0
1040
545.0
1040
14.0
1040
17.39999961853027
1040
0.4560000002384186
1002
}
1002
}
  0
MESH
  5
F9
330
1F
100
AcDbEntity
  8
OracDecor_cornice_mouldings
 62
    46
420
  8875528
160
             33128
310
68810000980300000C00000013000000020000003C0000000600000002000000000000E0FF3F8F40000000E0FFFF44C00000004006CDCEBE000000C0FF3F8FC000000000FDFF44C00000008008CDCEBE0C000000130000000A0000003C0000000600000002000000000000C0FF3F8FC000000000FDFF44C000000000864914
310
C0000000C0FF3F8FC000000000FDFF44C00000008008CDCEBE0C00000013000000120000003C0000000600000002000000000000C0FF3F8FC000000000FDFF44C000000000864914C0000000E0FF3F8F40000000E0FFFF44C000000000864914C00C000000130000001A0000003C0000000600000002000000000000E0FF3F
310
8F40000000E0FFFF44C00000004006CDCEBE000000E0FF3F8F40000000E0FFFF44C000000000864914C00C00000013000000220000003C0000000600000002000000000000C0FF3F8FC000000000FDFF44C000000000864914C0000000C0FF3F8FC00000008013F744C000000080B6AC15C00C000000130000002A0000003C
310
0000000600000002000000000000E0FF3F8F400000006016F744C000000000B7AC15C0000000C0FF3F8FC00000008013F744C000000080B6AC15C00C00000013000000320000003C0000000600000002000000000000E0FF3F8F40000000E0FFFF44C000000000864914C0000000E0FF3F8F400000006016F744C000000000
310
B7AC15C00C000000130000003A0000003C0000000600000002000000000000C0FF3F8FC00000008082D544C000000000A83917C0000000C0FF3F8FC00000008013F744C000000080B6AC15C00C00000013000000420000003C0000000600000002000000000000C0FF3F8FC00000008082D544C000000000A83917C0000000
310
E0FF3F8F400000006085D544C000000000A83917C00C000000130000004A0000003C0000000600000002000000000000E0FF3F8F400000006016F744C000000000B7AC15C0000000E0FF3F8F400000006085D544C000000000A83917C00C00000013000000520000003C0000000600000002000000000000C0FF3F8FC00000
310
008082D544C000000000A83917C0000000C0FF3F8FC0000000809DAF44C000000000FCFF17C00C000000130000005A0000003C0000000600000002000000000000C0FF3F8FC0000000809DAF44C000000000FCFF17C0000000E0FF3F8F4000000060A0AF44C000000000FCFF17C00C00000013000000620000003C00000006
310
00000002000000000000E0FF3F8F400000006085D544C000000000A83917C0000000E0FF3F8F4000000060A0AF44C000000000FCFF17C00C000000130000006A0000003C0000000600000002000000000000C0FF3F8FC000000040469244C000000080053F18C0000000C0FF3F8FC0000000809DAF44C000000000FCFF17C0
310
0C00000013000000720000003C0000000600000002000000000000C0FF3F8FC000000040469244C000000080053F18C0000000E0FF3F8F4000000020499244C000000080053F18C00C000000130000007A0000003C0000000600000002000000000000E0FF3F8F4000000060A0AF44C000000000FCFF17C0000000E0FF3F8F
310
4000000020499244C000000080053F18C00C00000013000000820000003C0000000600000002000000000000C0FF3F8FC000000040469244C000000080053F18C0000000C0FF3F8FC0000000007D1744C0000000E0072A19C00C000000130000008A0000003C0000000600000002000000000000E0FF3F8F40000000E07F17
310
44C0000000E0072A19C0000000C0FF3F8FC0000000007D1744C0000000E0072A19C00C00000013000000920000003C0000000600000002000000000000E0FF3F8F4000000020499244C000000080053F18C0000000E0FF3F8F40000000E07F1744C0000000E0072A19C00C000000130000009A0000003C0000000600000002
310
000000000000C0FF3F8FC0000000007D1744C0000000E0072A19C0000000C0FF3F8FC000000040DF7D43C000000060AE4B1BC00C00000013000000A20000003C0000000600000002000000000000E0FF3F8F4000000020E27D43C000000060AE4B1BC0000000C0FF3F8FC000000040DF7D43C000000060AE4B1BC00C000000
310
13000000AA0000003C0000000600000002000000000000E0FF3F8F40000000E07F1744C0000000E0072A19C0000000E0FF3F8F4000000020E27D43C000000060AE4B1BC00C00000013000000B20000003C0000000600000002000000000000C0FF3F8FC0000000A0CEF642C0000000E0EB6B1EC0000000C0FF3F8FC0000000
310
40DF7D43C000000060AE4B1BC00C00000013000000BA0000003C0000000600000002000000000000C0FF3F8FC0000000A0CEF642C0000000E0EB6B1EC0000000E0FF3F8F40000000A0D1F642C0000000E0EB6B1EC00C00000013000000C20000003C0000000600000002000000000000E0FF3F8F4000000020E27D43C00000
310
0060AE4B1BC0000000E0FF3F8F40000000A0D1F642C0000000E0EB6B1EC00C00000013000000CA0000003C0000000600000002000000000000C0FF3F8FC0000000A0CEF642C0000000E0EB6B1EC0000000C0FF3F8FC000000020CB8842C0000000A0173221C00C00000013000000D20000003C000000060000000200000000
310
0000E0FF3F8F4000000020CE8842C0000000A0173221C0000000C0FF3F8FC000000020CB8842C0000000A0173221C00C00000013000000DA0000003C0000000600000002000000000000E0FF3F8F40000000A0D1F642C0000000E0EB6B1EC0000000E0FF3F8F4000000020CE8842C0000000A0173221C00C00000013000000
310
E20000003C0000000600000002000000000000C0FF3F8FC0000000A0153942C000000020F88123C0000000C0FF3F8FC000000020CB8842C0000000A0173221C00C00000013000000EA0000003C0000000600000002000000000000C0FF3F8FC0000000A0153942C000000020F88123C0000000E0FF3F8F40000000A0183942
310
C0000000E0F78123C00C00000013000000F20000003C0000000600000002000000000000E0FF3F8F4000000020CE8842C0000000A0173221C0000000E0FF3F8F40000000A0183942C0000000E0F78123C00C00000013000000FA0000003C0000000600000002000000000000C0FF3F8FC0000000A0153942C000000020F881
310
23C0000000C0FF3F8FC0000000E0850B42C0000000201B0926C00C00000013000000020100003C0000000600000002000000000000C0FF3F8FC0000000E0850B42C0000000201B0926C0000000E0FF3F8F40000000E0880B42C0000000201B0926C00C000000130000000A0100003C0000000600000002000000000000E0FF
310
3F8F40000000A0183942C0000000E0F78123C0000000E0FF3F8F40000000E0880B42C0000000201B0926C00C00000013000000120100003C0000000600000002000000000000C0FF3F8FC0000000E0850B42C0000000201B0926C0000000C0FF3F8FC000000000FDFF41C000000020000028C00C000000130000001A010000
310
3C0000000600000002000000000000E0FF3F8F40000000E0FFFF41C0000000E0FFFF27C0000000C0FF3F8FC000000000FDFF41C000000020000028C00C00000013000000220100003C0000000600000002000000000000E0FF3F8F40000000E0880B42C0000000201B0926C0000000E0FF3F8F40000000E0FFFF41C0000000
310
E0FFFF27C00C000000130000002A0100003C0000000600000002000000000000C0FF3F8FC000000000FDFF41C000000020000028C0000000C0FF3F8FC000000020FDFF41C000000040008034C00C00000013000000320100003C0000000600000002000000000000E0FF3F8F4000000020000042C000000040008034C00000
310
00C0FF3F8FC000000020FDFF41C000000040008034C00C000000130000003A0100003C0000000600000002000000000000E0FF3F8F40000000E0FFFF41C0000000E0FFFF27C0000000E0FF3F8F4000000020000042C000000040008034C00C00000013000000420100003C0000000600000002000000000000C0FF3F8FC000
310
000020FDFF41C000000040008034C0000000C0FF3F8FC0000000E09FFB41C00000000045C234C00C000000130000004A0100003C0000000600000002000000000000E0FF3F8F40000000E0A2FB41C00000000045C234C0000000C0FF3F8FC0000000E09FFB41C00000000045C234C00C00000013000000520100003C000000
310
0600000002000000000000E0FF3F8F4000000020000042C000000040008034C0000000E0FF3F8F40000000E0A2FB41C00000000045C234C00C000000130000005A0100003C0000000600000002000000000000C0FF3F8FC0000000A0D7EE41C000000020FDFF34C0000000C0FF3F8FC0000000E09FFB41C00000000045C234
310
C00C00000013000000620100003C0000000600000002000000000000C0FF3F8FC0000000A0D7EE41C000000020FDFF34C0000000E0FF3F8F40000000A0DAEE41C000000020FDFF34C00C000000130000006A0100003C0000000600000002000000000000E0FF3F8F40000000E0A2FB41C00000000045C234C0000000E0FF3F
310
8F40000000A0DAEE41C000000020FDFF34C00C00000013000000720100003C0000000600000002000000000000C0FF3F8FC0000000A0D7EE41C000000020FDFF34C0000000C0FF3F8FC0000000A07FDA41C000000040053535C00C000000130000007A0100003C0000000600000002000000000000E0FF3F8F40000000A082
310
DA41C000000040053535C0000000C0FF3F8FC0000000A07FDA41C000000040053535C00C00000013000000820100003C0000000600000002000000000000E0FF3F8F40000000A0DAEE41C000000020FDFF34C0000000E0FF3F8F40000000A082DA41C000000040053535C00C000000130000008A0100003C00000006000000
310
02000000000000C0FF3F8FC0000000A0FBBF41C000000000B55D35C0000000C0FF3F8FC0000000A07FDA41C000000040053535C00C00000013000000920100003C0000000600000002000000000000C0FF3F8FC0000000A0FBBF41C000000000B55D35C0000000E0FF3F8F40000000A0FEBF41C000000000B55D35C00C0000
310
00130000009A0100003C0000000600000002000000000000E0FF3F8F40000000A082DA41C000000040053535C0000000E0FF3F8F40000000A0FEBF41C000000000B55D35C00C00000013000000A20100003C0000000600000002000000000000C0FF3F8FC0000000A0FBBF41C000000000B55D35C0000000C0FF3F8FC00000
310
00A01FA141C0000000A0457735C00C00000013000000AA0100003C0000000600000002000000000000C0FF3F8FC0000000A01FA141C0000000A0457735C0000000E0FF3F8F40000000A022A141C0000000A0457735C00C00000013000000B20100003C0000000600000002000000000000E0FF3F8F40000000A0FEBF41C000
310
000000B55D35C0000000E0FF3F8F40000000A022A141C0000000A0457735C00C00000013000000BA0100003C0000000600000002000000000000C0FF3F8FC000000020FD7F41C000000040008035C0000000C0FF3F8FC0000000A01FA141C0000000A0457735C00C00000013000000C20100003C0000000600000002000000
310
000000C0FF3F8FC000000020FD7F41C000000040008035C0000000E0FF3F8F4000000020008041C000000040008035C00C00000013000000CA0100003C0000000600000002000000000000E0FF3F8F40000000A022A141C0000000A0457735C0000000E0FF3F8F4000000020008041C000000040008035C00C000000130000
310
00D20100003C0000000600000002000000000000C0FF3F8FC000000020FD7F41C000000040008035C0000000C0FF3F8FC00000000096AC3EC0000000A0EC9C35C00C00000013000000DA0100003C0000000600000002000000000000E0FF3F8F40000000A09BAC3EC0000000A0EC9C35C0000000C0FF3F8FC00000000096AC
310
3EC0000000A0EC9C35C00C00000013000000E20100003C0000000600000002000000000000E0FF3F8F4000000020008041C000000040008035C0000000E0FF3F8F40000000A09BAC3EC0000000A0EC9C35C00C00000013000000EA0100003C0000000600000002000000000000C0FF3F8FC00000000096AC3EC0000000A0EC
310
9C35C0000000C0FF3F8FC00000004048D33EC0000000E0FE6436C00C00000013000000F20100003C0000000600000002000000000000E0FF3F8F40000000E04DD33EC0000000E0FE6436C0000000C0FF3F8FC00000004048D33EC0000000E0FE6436C00C00000013000000FA0100003C0000000600000002000000000000E0
310
FF3F8F40000000A09BAC3EC0000000A0EC9C35C0000000E0FF3F8F40000000E04DD33EC0000000E0FE6436C00C00000013000000020200003C0000000600000002000000000000C0FF3F8FC0000000A0E6F73EC0000000A0911A37C0000000C0FF3F8FC00000004048D33EC0000000E0FE6436C00C000000130000000A0200
310
003C0000000600000002000000000000C0FF3F8FC0000000A0E6F73EC0000000A0911A37C0000000E0FF3F8F4000000060ECF73EC0000000A0911A37C00C00000013000000120200003C0000000600000002000000000000E0FF3F8F40000000E04DD33EC0000000E0FE6436C0000000E0FF3F8F4000000060ECF73EC00000
310
00A0911A37C00C000000130000001A0200003C0000000600000002000000000000C0FF3F8FC0000000A0E6F73EC0000000A0911A37C0000000C0FF3F8FC00000006081FE3EC0000000E075BE37C00C00000013000000220200003C0000000600000002000000000000C0FF3F8FC00000006081FE3EC0000000E075BE37C000
310
0000E0FF3F8F400000002087FE3EC0000000A075BE37C00C000000130000002A0200003C0000000600000002000000000000E0FF3F8F4000000060ECF73EC0000000A0911A37C0000000E0FF3F8F400000002087FE3EC0000000A075BE37C00C00000013000000320200003C0000000600000002000000000000C0FF3F8FC0
310
0000006081FE3EC0000000E075BE37C0000000C0FF3F8FC0000000A0DFEA3EC0000000A0EB5338C00C000000130000003A0200003C0000000600000002000000000000E0FF3F8F4000000060E5EA3EC000000060EB5338C0000000C0FF3F8FC0000000A0DFEA3EC0000000A0EB5338C00C00000013000000420200003C0000
310
000600000002000000000000E0FF3F8F400000002087FE3EC0000000A075BE37C0000000E0FF3F8F4000000060E5EA3EC000000060EB5338C00C000000130000004A0200003C0000000600000002000000000000C0FF3F8FC0000000A0DFEA3EC0000000A0EB5338C0000000C0FF3F8FC0000000A0FBBE3EC000000060D1DF
310
38C00C00000013000000520200003C0000000600000002000000000000E0FF3F8F400000006001BF3EC000000040D1DF38C0000000C0FF3F8FC0000000A0FBBE3EC000000060D1DF38C00C000000130000005A0200003C0000000600000002000000000000E0FF3F8F4000000060E5EA3EC000000060EB5338C0000000E0FF
310
3F8F400000006001BF3EC000000040D1DF38C00C00000013000000620200003C0000000600000002000000000000C0FF3F8FC0000000A0FBBE3EC000000060D1DF38C0000000C0FF3F8FC0000000E02F793EC0000000A0996539C00C000000130000006A0200003C0000000600000002000000000000E0FF3F8F40000000A0
310
35793EC000000060996539C0000000C0FF3F8FC0000000E02F793EC0000000A0996539C00C00000013000000720200003C0000000600000002000000000000E0FF3F8F400000006001BF3EC000000040D1DF38C0000000E0FF3F8F40000000A035793EC000000060996539C00C000000130000007A0200003C000000060000
310
0002000000000000C0FF3F8FC0000000608B1E3EC0000000A089DC39C0000000C0FF3F8FC0000000E02F793EC0000000A0996539C00C00000013000000820200003C0000000600000002000000000000C0FF3F8FC0000000608B1E3EC0000000A089DC39C0000000E0FF3F8F4000000020911E3EC00000006089DC39C00C00
310
0000130000008A0200003C0000000600000002000000000000E0FF3F8F40000000A035793EC000000060996539C0000000E0FF3F8F4000000020911E3EC00000006089DC39C00C00000013000000920200003C0000000600000002000000000000C0FF3F8FC0000000608B1E3EC0000000A089DC39C0000000C0FF3F8FC000
310
000020D1AD3DC00000006063453AC00C000000130000009A0200003C0000000600000002000000000000C0FF3F8FC000000020D1AD3DC00000006063453AC0000000E0FF3F8F40000000E0D6AD3DC00000006063453AC00C00000013000000A20200003C0000000600000002000000000000E0FF3F8F4000000020911E3EC0
310
0000006089DC39C0000000E0FF3F8F40000000E0D6AD3DC00000006063453AC00C00000013000000AA0200003C0000000600000002000000000000C0FF3F8FC000000020D1AD3DC00000006063453AC0000000C0FF3F8FC0000000A0EA283DC0000000A0E49B3AC00C00000013000000B20200003C00000006000000020000
310
00000000E0FF3F8F4000000060F0283DC000000060E49B3AC0000000C0FF3F8FC0000000A0EA283DC0000000A0E49B3AC00C00000013000000BA0200003C0000000600000002000000000000E0FF3F8F40000000E0D6AD3DC00000006063453AC0000000E0FF3F8F4000000060F0283DC000000060E49B3AC00C0000001300
310
0000C20200003C0000000600000002000000000000C0FF3F8FC0000000A0EA283DC0000000A0E49B3AC0000000C0FF3F8FC0000000E0B4963CC0000000A0FDD93AC00C00000013000000CA0200003C0000000600000002000000000000E0FF3F8F40000000A0BA963CC0000000A0FDD93AC0000000C0FF3F8FC0000000E0B4
310
963CC0000000A0FDD93AC00C00000013000000D20200003C0000000600000002000000000000E0FF3F8F40000000A0BA963CC0000000A0FDD93AC0000000E0FF3F8F4000000060F0283DC000000060E49B3AC00C00000013000000DA0200003C0000000600000002000000000000C0FF3F8FC0000000E0DAF63BC000000020
310
1DFE3AC0000000C0FF3F8FC0000000E0B4963CC0000000A0FDD93AC00C00000013000000E20200003C0000000600000002000000000000C0FF3F8FC0000000E0DAF63BC0000000201DFE3AC0000000E0FF3F8F40000000A0E0F63BC0000000201DFE3AC00C00000013000000EA0200003C0000000600000002000000000000
310
E0FF3F8F40000000A0BA963CC0000000A0FDD93AC0000000E0FF3F8F40000000A0E0F63BC0000000201DFE3AC00C00000013000000F20200003C0000000600000002000000000000C0FF3F8FC0000000E0DAF63BC0000000201DFE3AC0000000C0FF3F8FC000000020884C3BC0000000A0A0043BC00C00000013000000FA02
310
00003C0000000600000002000000000000C0FF3F8FC000000020884C3BC0000000A0A0043BC0000000E0FF3F8F40000000E08D4C3BC0000000A0A0043BC00C00000013000000020300003C0000000600000002000000000000E0FF3F8F40000000E08D4C3BC0000000A0A0043BC0000000E0FF3F8F40000000A0E0F63BC000
310
0000201DFE3AC00C000000130000000A0300003C0000000600000002000000000000C0FF3F8FC000000020884C3BC0000000A0A0043BC0000000C0FF3F8FC0000000A0A3943AC0000000E003EA3AC00C00000013000000120300003C0000000600000002000000000000E0FF3F8F4000000060A9943AC0000000E003EA3AC0
310
000000C0FF3F8FC0000000A0A3943AC0000000E003EA3AC00C000000130000001A0300003C0000000600000002000000000000E0FF3F8F40000000E08D4C3BC0000000A0A0043BC0000000E0FF3F8F4000000060A9943AC0000000E003EA3AC00C00000013000000220300003C0000000600000002000000000000C0FF3F8F
310
C00000008004D539C0000000E06BAB3AC0000000C0FF3F8FC0000000A0A3943AC0000000E003EA3AC00C000000130000002A0300003C0000000600000002000000000000C0FF3F8FC00000008004D539C0000000E06BAB3AC0000000E0FF3F8F40000000200AD539C0000000E06BAB3AC00C00000013000000320300003C00
310
00000600000002000000000000E0FF3F8F40000000200AD539C0000000E06BAB3AC0000000E0FF3F8F4000000060A9943AC0000000E003EA3AC00C000000130000003A0300003C0000000600000002000000000000C0FF3F8FC00000008004D539C0000000E06BAB3AC0000000C0FF3F8FC00000006001FC38C0000000A002
310
3D3AC00C00000013000000420300003C0000000600000002000000000000C0FF3F8FC00000006001FC38C0000000A0023D3AC0000000E0FF3F8F400000002007FC38C0000000A0023D3AC00C000000130000004A0300003C0000000600000002000000000000E0FF3F8F400000002007FC38C0000000A0023D3AC0000000E0
310
FF3F8F40000000200AD539C0000000E06BAB3AC00C00000013000000520300003C0000000600000002000000000000C0FF3F8FC00000006001FC38C0000000A0023D3AC0000000C0FF3F8FC00000006035FF37C0000000E05D9C39C00C000000130000005A0300003C0000000600000002000000000000C0FF3F8FC0000000
310
6035FF37C0000000E05D9C39C0000000E0FF3F8F40000000203BFF37C0000000E05D9C39C00C00000013000000620300003C0000000600000002000000000000E0FF3F8F40000000203BFF37C0000000E05D9C39C0000000E0FF3F8F400000002007FC38C0000000A0023D3AC00C000000130000006A0300003C0000000600
310
000002000000000000C0FF3F8FC00000006035FF37C0000000E05D9C39C0000000C0FF3F8FC0000000A030EC36C0000000A0B1E538C00C00000013000000720300003C0000000600000002000000000000C0FF3F8FC0000000A030EC36C0000000A0B1E538C0000000E0FF3F8F400000006036EC36C0000000A0B1E538C00C
310
000000130000007A0300003C0000000600000002000000000000E0FF3F8F40000000203BFF37C0000000E05D9C39C0000000E0FF3F8F400000006036EC36C0000000A0B1E538C00C00000013000000820300003C0000000600000002000000000000C0FF3F8FC0000000A030EC36C0000000A0B1E538C0000000C0FF3F8FC0
310
0000006086C035C000000000B83D38C00C000000130000008A0300003C0000000600000002000000000000C0FF3F8FC00000006086C035C000000000B83D38C0000000E0FF3F8F40000000208CC035C000000000B83D38C00C00000013000000920300003C0000000600000002000000000000E0FF3F8F40000000208CC035
310
C000000000B83D38C0000000E0FF3F8F400000006036EC36C0000000A0B1E538C00C000000130000009A0300003C0000000600000002000000000000C0FF3F8FC00000006086C035C000000000B83D38C0000000C0FF3F8FC0000000A0D68834C00000006083C337C00C00000013000000A20300003C000000060000000200
310
0000000000E0FF3F8F4000000060DC8834C00000006083C337C0000000C0FF3F8FC0000000A0D68834C00000006083C337C00C00000013000000AA0300003C0000000600000002000000000000E0FF3F8F40000000208CC035C000000000B83D38C0000000E0FF3F8F4000000060DC8834C00000006083C337C00C00000013
310
000000B20300003C0000000600000002000000000000C0FF3F8FC0000000C0514E33C000000080DB7C37C0000000C0FF3F8FC0000000A0D68834C00000006083C337C00C00000013000000BA0300003C0000000600000002000000000000C0FF3F8FC0000000C0514E33C000000080DB7C37C0000000E0FF3F8F4000000080
310
574E33C000000080DB7C37C00C00000013000000C20300003C0000000600000002000000000000E0FF3F8F4000000060DC8834C00000006083C337C0000000E0FF3F8F4000000080574E33C000000080DB7C37C00C00000013000000CA0300003C0000000600000002000000000000C0FF3F8FC0000000C0514E33C0000000
310
80DB7C37C0000000C0FF3F8FC000000020150A32C000000060316637C00C00000013000000D20300003C0000000600000002000000000000E0FF3F8F40000000E01A0A32C000000060316637C0000000C0FF3F8FC000000020150A32C000000060316637C00C00000013000000DA0300003C00000006000000020000000000
310
00E0FF3F8F4000000080574E33C000000080DB7C37C0000000E0FF3F8F40000000E01A0A32C000000060316637C00C00000013000000E20300003C0000000600000002000000000000C0FF3F8FC000000020DDB530C000000060B07F37C0000000C0FF3F8FC000000020150A32C000000060316637C00C00000013000000EA
310
0300003C0000000600000002000000000000C0FF3F8FC000000020DDB530C000000060B07F37C0000000E0FF3F8F40000000E0E2B530C000000060B07F37C00C00000013000000F20300003C0000000600000002000000000000E0FF3F8F40000000E01A0A32C000000060316637C0000000E0FF3F8F40000000E0E2B530C0
310
00000060B07F37C00C00000013000000FA0300003C0000000600000002000000000000C0FF3F8FC000000020DDB530C000000060B07F37C0000000C0FF3F8FC00000000039A32EC00000004023CD37C00C00000013000000020400003C0000000600000002000000000000E0FF3F8F400000008044A32EC00000004023CD37
310
C0000000C0FF3F8FC00000000039A32EC00000004023CD37C00C000000130000000A0400003C0000000600000002000000000000E0FF3F8F40000000E0E2B530C000000060B07F37C0000000E0FF3F8F400000008044A32EC00000004023CD37C00C00000013000000120400003C0000000600000002000000000000C0FF3F
310
8FC00000000039A32EC00000004023CD37C0000000C0FF3F8FC0000000C01BC62BC0000000A0425338C00C000000130000001A0400003C0000000600000002000000000000E0FF3F8F400000004027C62BC0000000A0425338C0000000C0FF3F8FC0000000C01BC62BC0000000A0425338C00C00000013000000220400003C
310
0000000600000002000000000000E0FF3F8F400000008044A32EC00000004023CD37C0000000E0FF3F8F400000004027C62BC0000000A0425338C00C000000130000002A0400003C0000000600000002000000000000C0FF3F8FC0000000C01BC62BC0000000A0425338C0000000C0FF3F8FC0000000600FFD28C000000060
310
FD0F39C00C00000013000000320400003C0000000600000002000000000000E0FF3F8F40000000001BFD28C000000060FD0F39C0000000C0FF3F8FC0000000600FFD28C000000060FD0F39C00C000000130000003A0400003C0000000600000002000000000000E0FF3F8F400000004027C62BC0000000A0425338C0000000
310
E0FF3F8F40000000001BFD28C000000060FD0F39C00C00000013000000420400003C0000000600000002000000000000C0FF3F8FC0000000402D5B26C0000000C0AF003AC0000000C0FF3F8FC0000000600FFD28C000000060FD0F39C00C000000130000004A0400003C0000000600000002000000000000C0FF3F8FC00000
310
00402D5B26C0000000C0AF003AC0000000E0FF3F8F4000000000395B26C0000000C0AF003AC00C00000013000000520400003C0000000600000002000000000000E0FF3F8F40000000001BFD28C000000060FD0F39C0000000E0FF3F8F4000000000395B26C0000000C0AF003AC00C000000130000005A0400003C00000006
310
00000002000000000000C0FF3F8FC0000000402D5B26C0000000C0AF003AC0000000C0FF3F8FC0000000202AF723C0000000601B1D3BC00C00000013000000620400003C0000000600000002000000000000E0FF3F8F40000000C035F723C0000000401B1D3BC0000000C0FF3F8FC0000000202AF723C0000000601B1D3BC0
310
0C000000130000006A0400003C0000000600000002000000000000E0FF3F8F4000000000395B26C0000000C0AF003AC0000000E0FF3F8F40000000C035F723C0000000401B1D3BC00C00000013000000720400003C0000000600000002000000000000C0FF3F8FC000000040BFD721C0000000E009643CC0000000C0FF3F8F
310
C0000000202AF723C0000000601B1D3BC00C000000130000007A0400003C0000000600000002000000000000C0FF3F8FC000000040BFD721C0000000E009643CC0000000E0FF3F8F40000000C0CAD721C0000000C009643CC00C00000013000000820400003C0000000600000002000000000000E0FF3F8F40000000C035F7
310
23C0000000401B1D3BC0000000E0FF3F8F40000000C0CAD721C0000000C009643CC00C000000130000008A0400003C0000000600000002000000000000C0FF3F8FC000000040BFD721C0000000E009643CC0000000C0FF3F8FC0000000208B1B20C0000000A0DDBF3DC00C00000013000000920400003C0000000600000002
310
000000000000E0FF3F8F40000000A0961B20C0000000A0DDBF3DC0000000C0FF3F8FC0000000208B1B20C0000000A0DDBF3DC00C000000130000009A0400003C0000000600000002000000000000E0FF3F8F40000000C0CAD721C0000000C009643CC0000000E0FF3F8F40000000A0961B20C0000000A0DDBF3DC00C000000
310
13000000A20400003C0000000600000002000000000000C0FF3F8FC0000000208B1B20C0000000A0DDBF3DC0000000C0FF3F8FC0000000A0F1071EC0000000803DD93EC00C00000013000000AA0400003C0000000600000002000000000000E0FF3F8F400000002008081EC0000000803DD93EC0000000C0FF3F8FC0000000
310
A0F1071EC0000000803DD93EC00C00000013000000B20400003C0000000600000002000000000000E0FF3F8F40000000A0961B20C0000000A0DDBF3DC0000000E0FF3F8F400000002008081EC0000000803DD93EC00C00000013000000BA0400003C0000000600000002000000000000C0FF3F8FC0000000A0F1071EC00000
310
00803DD93EC0000000C0FF3F8FC00000002004361CC0000000E0230140C00C00000013000000C20400003C0000000600000002000000000000E0FF3F8F40000000E01A361CC0000000E0230140C0000000C0FF3F8FC00000002004361CC0000000E0230140C00C00000013000000CA0400003C000000060000000200000000
310
0000E0FF3F8F400000002008081EC0000000803DD93EC0000000E0FF3F8F40000000E01A361CC0000000E0230140C00C00000013000000D20400003C0000000600000002000000000000C0FF3F8FC00000002066B31AC00000006097A240C0000000C0FF3F8FC00000002004361CC0000000E0230140C00C00000013000000
310
DA0400003C0000000600000002000000000000C0FF3F8FC00000002066B31AC00000006097A240C0000000E0FF3F8F40000000E07CB31AC00000006097A240C00C00000013000000E20400003C0000000600000002000000000000E0FF3F8F40000000E01A361CC0000000E0230140C0000000E0FF3F8F40000000E07CB31A
310
C00000006097A240C00C00000013000000EA0400003C0000000600000002000000000000C0FF3F8FC00000002066B31AC00000006097A240C0000000C0FF3F8FC0000000E0598619C0000000600D5341C00C00000013000000F20400003C0000000600000002000000000000E0FF3F8F40000000A0708619C0000000600D53
310
41C0000000C0FF3F8FC0000000E0598619C0000000600D5341C00C00000013000000FA0400003C0000000600000002000000000000E0FF3F8F40000000E07CB31AC00000006097A240C0000000E0FF3F8F40000000A0708619C0000000600D5341C00C00000013000000020500003C0000000600000002000000000000C0FF
310
3F8FC00000008044BA18C000000020631442C0000000C0FF3F8FC0000000E0598619C0000000600D5341C00C000000130000000A0500003C0000000600000002000000000000C0FF3F8FC00000008044BA18C000000020631442C0000000E0FF3F8F40000000005BBA18C000000020631442C00C0000001300000012050000
310
3C0000000600000002000000000000E0FF3F8F40000000A0708619C0000000600D5341C0000000E0FF3F8F40000000005BBA18C000000020631442C00C000000130000001A0500003C0000000600000002000000000000C0FF3F8FC00000008044BA18C000000020631442C0000000C0FF3F8FC0000000C0975E18C0000000
310
609AE842C00C00000013000000220500003C0000000600000002000000000000E0FF3F8F4000000080AE5E18C0000000609AE842C0000000C0FF3F8FC0000000C0975E18C0000000609AE842C00C000000130000002A0500003C0000000600000002000000000000E0FF3F8F40000000005BBA18C000000020631442C00000
310
00E0FF3F8F4000000080AE5E18C0000000609AE842C00C00000013000000320500003C0000000600000002000000000000C0FF3F8FC0000000C0975E18C0000000609AE842C0000000C0FF3F8FC000000040D17A18C0000000406FB843C00C000000130000003A0500003C0000000600000002000000000000E0FF3F8F4000
310
000000E87A18C0000000406FB843C0000000C0FF3F8FC000000040D17A18C0000000406FB843C00C00000013000000420500003C0000000600000002000000000000E0FF3F8F4000000080AE5E18C0000000609AE842C0000000E0FF3F8F4000000000E87A18C0000000406FB843C00C000000130000004A0500003C000000
310
0600000002000000000000C0FF3F8FC0000000C054EF18C0000000409B6F44C0000000C0FF3F8FC000000040D17A18C0000000406FB843C00C00000013000000520500003C0000000600000002000000000000C0FF3F8FC0000000C054EF18C0000000409B6F44C0000000E0FF3F8F40000000806BEF18C0000000409B6F44
310
C00C000000130000005A0500003C0000000600000002000000000000E0FF3F8F4000000000E87A18C0000000406FB843C0000000E0FF3F8F40000000806BEF18C0000000409B6F44C00C00000013000000620500003C0000000600000002000000000000C0FF3F8FC0000000C054EF18C0000000409B6F44C0000000C0FF3F
310
8FC0000000A023B719C0000000401A3045C00C000000130000006A0500003C0000000600000002000000000000E0FF3F8F40000000603AB719C0000000401A3045C0000000C0FF3F8FC0000000A023B719C0000000401A3045C00C00000013000000720500003C0000000600000002000000000000E0FF3F8F40000000806B
310
EF18C0000000409B6F44C0000000E0FF3F8F40000000603AB719C0000000401A3045C00C000000130000007A0500003C0000000600000002000000000000C0FF3F8FC0000000A0BAC51AC0000000C0DDF845C0000000C0FF3F8FC0000000A023B719C0000000401A3045C00C00000013000000820500003C00000006000000
310
02000000000000C0FF3F8FC0000000A0BAC51AC0000000C0DDF845C0000000E0FF3F8F4000000060D1C51AC0000000C0DDF845C00C000000130000008A0500003C0000000600000002000000000000E0FF3F8F40000000603AB719C0000000401A3045C0000000E0FF3F8F4000000060D1C51AC0000000C0DDF845C00C0000
310
0013000000920500003C0000000600000002000000000000C0FF3F8FC0000000A0BAC51AC0000000C0DDF845C0000000C0FF3F8FC000000060258E1BC0000000C0117A46C00C000000130000009A0500003C0000000600000002000000000000C0FF3F8FC000000060258E1BC0000000C0117A46C0000000E0FF3F8F400000
310
00203C8E1BC0000000C0117A46C00C00000013000000A20500003C0000000600000002000000000000E0FF3F8F4000000060D1C51AC0000000C0DDF845C0000000E0FF3F8F40000000203C8E1BC0000000C0117A46C00C00000013000000AA0500003C0000000600000002000000000000C0FF3F8FC000000060258E1BC000
310
0000C0117A46C0000000C0FF3F8FC0000000E062941BC000000080678E46C00C00000013000000B20500003C0000000600000002000000000000E0FF3F8F40000000A079941BC000000080678E46C0000000C0FF3F8FC0000000E062941BC000000080678E46C00C00000013000000BA0500003C0000000600000002000000
310
000000E0FF3F8F40000000203C8E1BC0000000C0117A46C0000000E0FF3F8F40000000A079941BC000000080678E46C00C00000013000000C20500003C0000000600000002000000000000C0FF3F8FC0000000E062941BC000000080678E46C0000000C0FF3F8FC00000006045671BC0000000C0F2A146C00C000000130000
310
00CA0500003C0000000600000002000000000000E0FF3F8F40000000205C671BC0000000C0F2A146C0000000C0FF3F8FC00000006045671BC0000000C0F2A146C00C00000013000000D20500003C0000000600000002000000000000E0FF3F8F40000000A079941BC000000080678E46C0000000E0FF3F8F40000000205C67
310
1BC0000000C0F2A146C00C00000013000000DA0500003C0000000600000002000000000000C0FF3F8FC00000006045671BC0000000C0F2A146C0000000C0FF3F8FC0000000E0640B1BC0000000C0BBB246C00C00000013000000E20500003C0000000600000002000000000000E0FF3F8F40000000A07B0B1BC0000000C0BB
310
B246C0000000C0FF3F8FC0000000E0640B1BC0000000C0BBB246C00C00000013000000EA0500003C0000000600000002000000000000E0FF3F8F40000000A07B0B1BC0000000C0BBB246C0000000E0FF3F8F40000000205C671BC0000000C0F2A146C00C00000013000000F20500003C0000000600000002000000000000C0
310
FF3F8FC000000060018A1AC00000000012BF46C0000000C0FF3F8FC0000000E0640B1BC0000000C0BBB246C00C00000013000000FA0500003C0000000600000002000000000000C0FF3F8FC000000060018A1AC00000000012BF46C0000000E0FF3F8F4000000060188A1AC00000000012BF46C00C00000013000000020600
310
003C0000000600000002000000000000E0FF3F8F40000000A07B0B1BC0000000C0BBB246C0000000E0FF3F8F4000000060188A1AC00000000012BF46C00C000000130000000A0600003C0000000600000002000000000000C0FF3F8FC0000000E01DF019C0000000C0B5C546C0000000C0FF3F8FC000000060018A1AC00000
310
000012BF46C00C00000013000000120600003C0000000600000002000000000000C0FF3F8FC0000000E01DF019C0000000C0B5C546C0000000E0FF3F8F40000000A034F019C0000000C0B5C546C00C000000130000001A0600003C0000000600000002000000000000E0FF3F8F40000000A034F019C0000000C0B5C546C000
310
0000E0FF3F8F4000000060188A1AC00000000012BF46C00C00000013000000220600003C0000000600000002000000000000C0FF3F8FC0000000E01DF019C0000000C0B5C546C0000000C0FF3F8FC0000000E0492218C0000000C078D446C00C000000130000002A0600003C0000000600000002000000000000C0FF3F8FC0
310
000000E0492218C0000000C078D446C0000000E0FF3F8F40000000A0602218C0000000C078D446C00C00000013000000320600003C0000000600000002000000000000E0FF3F8F40000000A034F019C0000000C0B5C546C0000000E0FF3F8F40000000A0602218C0000000C078D446C00C000000130000003A0600003C0000
310
000600000002000000000000C0FF3F8FC0000000E0492218C0000000C078D446C0000000C0FF3F8FC000000060206C16C000000000FFEB46C00C00000013000000420600003C0000000600000002000000000000C0FF3F8FC000000060206C16C000000000FFEB46C0000000E0FF3F8F4000000020376C16C000000000FFEB
310
46C00C000000130000004A0600003C0000000600000002000000000000E0FF3F8F4000000020376C16C000000000FFEB46C0000000E0FF3F8F40000000A0602218C0000000C078D446C00C00000013000000520600003C0000000600000002000000000000C0FF3F8FC000000060206C16C000000000FFEB46C0000000C0FF
310
3F8FC0000000E081D814C000000000B30B47C00C000000130000005A0600003C0000000600000002000000000000C0FF3F8FC0000000E081D814C000000000B30B47C0000000E0FF3F8F40000000E098D814C000000000B30B47C00C00000013000000620600003C0000000600000002000000000000E0FF3F8F4000000020
310
376C16C000000000FFEB46C0000000E0FF3F8F40000000E098D814C000000000B30B47C00C000000130000006A0600003C0000000600000002000000000000C0FF3F8FC0000000E081D814C000000000B30B47C0000000C0FF3F8FC000000080FF7013C0000000E0D33247C00C00000013000000720600003C000000060000
310
0002000000000000C0FF3F8FC000000080FF7013C0000000E0D33247C0000000E0FF3F8F4000000000167113C0000000E0D33247C00C000000130000007A0600003C0000000600000002000000000000E0FF3F8F4000000000167113C0000000E0D33247C0000000E0FF3F8F40000000E098D814C000000000B30B47C00C00
310
000013000000820600003C0000000600000002000000000000C0FF3F8FC000000080FF7013C0000000E0D33247C0000000C0FF3F8FC0000000C0213E12C000000060746047C00C000000130000008A0600003C0000000600000002000000000000C0FF3F8FC0000000C0213E12C000000060746047C0000000E0FF3F8F4000
310
000080383E12C000000060746047C00C00000013000000920600003C0000000600000002000000000000E0FF3F8F4000000000167113C0000000E0D33247C0000000E0FF3F8F4000000080383E12C000000060746047C00C000000130000009A0600003C0000000600000002000000000000C0FF3F8FC0000000C0213E12C0
310
00000060746047C0000000C0FF3F8FC0000000C0864711C000000080729347C00C00000013000000A20600003C0000000600000002000000000000E0FF3F8F40000000809D4711C000000080729347C0000000C0FF3F8FC0000000C0864711C000000080729347C00C00000013000000AA0600003C00000006000000020000
310
00000000E0FF3F8F40000000809D4711C000000080729347C0000000E0FF3F8F4000000080383E12C000000060746047C00C00000013000000B20600003C0000000600000002000000000000C0FF3F8FC0000000C0864711C000000080729347C0000000C0FF3F8FC0000000C0049310C0000000A098CA47C00C0000001300
310
0000BA0600003C0000000600000002000000000000E0FF3F8F40000000801B9310C0000000A098CA47C0000000C0FF3F8FC0000000C0049310C0000000A098CA47C00C00000013000000C20600003C0000000600000002000000000000E0FF3F8F40000000809D4711C000000080729347C0000000E0FF3F8F40000000801B
310
9310C0000000A098CA47C00C00000013000000CA0600003C0000000600000002000000000000C0FF3F8FC000000080E62410C000000000980448C0000000C0FF3F8FC0000000C0049310C0000000A098CA47C00C00000013000000D20600003C0000000600000002000000000000C0FF3F8FC000000080E62410C000000000
310
980448C0000000E0FF3F8F4000000000FD2410C000000000980448C00C00000013000000DA0600003C0000000600000002000000000000E0FF3F8F4000000000FD2410C000000000980448C0000000E0FF3F8F40000000801B9310C0000000A098CA47C00C00000013000000E20600003C0000000600000002000000000000
310
C0FF3F8FC000000060CFFF0FC000000000004048C0000000C0FF3F8FC000000080E62410C000000000980448C00C00000013000000EA0600003C0000000600000002000000000000C0FF3F8FC000000060CFFF0FC000000000004048C0000000E0FF3F8F4000000020FDFF0FC000000000004048C00C00000013000000F206
310
00003C0000000600000002000000000000E0FF3F8F4000000020FDFF0FC000000000004048C0000000E0FF3F8F4000000000FD2410C000000000980448C00C00000013000000FA0600003C0000000600000002000000000000C0FF3F8FC000000060CFFF0FC000000000004048C0000000C0FF3F8FC000000020CEFF0FC000
310
00000000004BC00C00000013000000020700003C0000000600000002000000000000E0FF3F8F40000000E0FBFF0FC00000000000004BC0000000C0FF3F8FC000000020CEFF0FC00000000000004BC00C000000130000000A0700003C0000000600000002000000000000E0FF3F8F40000000E0FBFF0FC00000000000004BC0
310
000000E0FF3F8F4000000020FDFF0FC000000000004048C00C00000013000000120700003C0000000600000002000000000000C0FF3F8FC000000020CEFF0FC00000000000004BC0000000C0FF3F8FC000000020FAB90FC00000006022214BC00C000000130000001A0700003C0000000600000002000000000000E0FF3F8F
310
40000000E027BA0FC00000006022214BC0000000C0FF3F8FC000000020FAB90FC00000006022214BC00C00000013000000220700003C0000000600000002000000000000E0FF3F8F40000000E0FBFF0FC00000000000004BC0000000E0FF3F8F40000000E027BA0FC00000006022214BC00C000000130000002A0700003C00
310
00000600000002000000000000C0FF3F8FC00000002075ED0EC000000080FE3F4BC0000000C0FF3F8FC000000020FAB90FC00000006022214BC00C00000013000000320700003C0000000600000002000000000000C0FF3F8FC00000002075ED0EC000000080FE3F4BC0000000E0FF3F8F40000000E0A2ED0EC000000080FE
310
3F4BC00C000000130000003A0700003C0000000600000002000000000000E0FF3F8F40000000E0A2ED0EC000000080FE3F4BC0000000E0FF3F8F40000000E027BA0FC00000006022214BC00C00000013000000420700003C0000000600000002000000000000C0FF3F8FC00000002075ED0EC000000080FE3F4BC0000000C0
310
FF3F8FC000000020F6A70DC000000080825A4BC00C000000130000004A0700003C0000000600000002000000000000C0FF3F8FC000000020F6A70DC000000080825A4BC0000000E0FF3F8F40000000E023A80DC000000080825A4BC00C00000013000000520700003C0000000600000002000000000000E0FF3F8F40000000
310
E023A80DC000000080825A4BC0000000E0FF3F8F40000000E0A2ED0EC000000080FE3F4BC00C000000130000005A0700003C0000000600000002000000000000C0FF3F8FC000000020F6A70DC000000080825A4BC0000000C0FF3F8FC000000020B6FF0BC000000060DA6E4BC00C00000013000000620700003C0000000600
310
000002000000000000C0FF3F8FC000000020B6FF0BC000000060DA6E4BC0000000E0FF3F8F4000000060E4FF0BC000000060DA6E4BC00C000000130000006A0700003C0000000600000002000000000000E0FF3F8F4000000060E4FF0BC000000060DA6E4BC0000000E0FF3F8F40000000E023A80DC000000080825A4BC00C
310
00000013000000720700003C0000000600000002000000000000C0FF3F8FC000000020B6FF0BC000000060DA6E4BC0000000C0FF3F8FC000000020F5110AC0000000C0A27B4BC00C000000130000007A0700003C0000000600000002000000000000E0FF3F8F40000000E022120AC0000000C0A27B4BC0000000C0FF3F8FC0
310
00000020F5110AC0000000C0A27B4BC00C00000013000000820700003C0000000600000002000000000000E0FF3F8F4000000060E4FF0BC000000060DA6E4BC0000000E0FF3F8F40000000E022120AC0000000C0A27B4BC00C000000130000008A0700003C0000000600000002000000000000C0FF3F8FC000000020CFFF07
310
C00000000000804BC0000000C0FF3F8FC000000020F5110AC0000000C0A27B4BC00C00000013000000920700003C0000000600000002000000000000C0FF3F8FC000000020CFFF07C00000000000804BC0000000E0FF3F8F40000000E0FCFF07C00000000000804BC00C000000130000009A0700003C000000060000000200
310
0000000000E0FF3F8F40000000E022120AC0000000C0A27B4BC0000000E0FF3F8F40000000E0FCFF07C00000000000804BC00C00000013000000A20700003C0000000600000002000000000000C0FF3F8FC000000020CFFF07C00000000000804BC0000000C0FF3F8FC0000000E084AD183F0000000000804BC00C00000013
310
000000AA0700003C0000000600000002000000000000C0FF3F8FC0000000E084AD183F0000000000804BC0000000E0FF3F8F4000000040AABEE23E0000000000804BC00C00000013000000B20700003C0000000600000002000000000000E0FF3F8F4000000040AABEE23E0000000000804BC0000000E0FF3F8F40000000E0
310
FCFF07C00000000000804BC00C00000013000000BA0700003C0000000600000002000000000000C0FF3F8FC0000000E084AD183F0000000000804BC0000000C0FF3F8FC000000080AC1F183F0000008094D23EC00C00000013000000C20700003C0000000600000002000000000000C0FF3F8FC000000080AC1F183F000000
310
8094D23EC0000000E0FF3F8F40000000C0CE9FDC3E0000008094D23EC00C00000013000000CA0700003C0000000600000002000000000000E0FF3F8F4000000040AABEE23E0000000000804BC0000000E0FF3F8F40000000C0CE9FDC3E0000008094D23EC00C00000013000000D20700003C00000006000000020000000000
310
00C0FF3F8FC000000080AC1F183F0000008094D23EC0000000C0FF3F8FC0000000A026A3DEBF00000000BE663DC00C00000013000000DA0700003C0000000600000002000000000000E0FF3F8F40000000E093A4DEBF00000000BE663DC0000000C0FF3F8FC0000000A026A3DEBF00000000BE663DC00C00000013000000E2
310
0700003C0000000600000002000000000000E0FF3F8F40000000E093A4DEBF00000000BE663DC0000000E0FF3F8F40000000C0CE9FDC3E0000008094D23EC00C00000013000000EA0700003C0000000600000002000000000000C0FF3F8FC0000000A026A3DEBF00000000BE663DC0000000C0FF3F8FC0000000E065F1F2BF
310
0000008006D43BC00C00000013000000F20700003C0000000600000002000000000000E0FF3F8F4000000020C1F1F2BF0000008006D43BC0000000C0FF3F8FC0000000E065F1F2BF0000008006D43BC00C00000013000000FA0700003C0000000600000002000000000000E0FF3F8F4000000020C1F1F2BF0000008006D43B
310
C0000000E0FF3F8F40000000E093A4DEBF00000000BE663DC00C00000013000000020800003C0000000600000002000000000000C0FF3F8FC000000000AEAFFFBF000000C066883AC0000000C0FF3F8FC0000000E065F1F2BF0000008006D43BC00C000000130000000A0800003C0000000600000002000000000000C0FF3F
310
8FC000000000AEAFFFBF000000C066883AC0000000E0FF3F8F400000004009B0FFBF000000C066883AC00C00000013000000120800003C0000000600000002000000000000E0FF3F8F400000004009B0FFBF000000C066883AC0000000E0FF3F8F4000000020C1F1F2BF0000008006D43BC00C000000130000001A0800003C
310
0000000600000002000000000000C0FF3F8FC000000000AEAFFFBF000000C066883AC0000000C0FF3F8FC00000000053B503C00000008045B939C00C00000013000000220800003C0000000600000002000000000000E0FF3F8F400000004081B503C00000008045B939C0000000C0FF3F8FC00000000053B503C000000080
310
45B939C00C000000130000002A0800003C0000000600000002000000000000E0FF3F8F400000004081B503C00000008045B939C0000000E0FF3F8F400000004009B0FFBF000000C066883AC00C00000013000000320800003C0000000600000002000000000000C0FF3F8FC0000000807BB704C0000000C084F738C0000000
310
C0FF3F8FC00000000053B503C00000008045B939C00C000000130000003A0800003C0000000600000002000000000000C0FF3F8FC0000000807BB704C0000000C084F738C0000000E0FF3F8F4000000040A9B704C0000000C084F738C00C00000013000000420800003C0000000600000002000000000000E0FF3F8F400000
310
0040A9B704C0000000C084F738C0000000E0FF3F8F400000004081B503C00000008045B939C00C000000130000004A0800003C0000000600000002000000000000C0FF3F8FC0000000807BB704C0000000C084F738C0000000C0FF3F8FC000000000355C03C000000000F43738C00C00000013000000520800003C00000006
310
00000002000000000000C0FF3F8FC000000000355C03C000000000F43738C0000000E0FF3F8F40000000C0625C03C000000000F43738C00C000000130000005A0800003C0000000600000002000000000000E0FF3F8F40000000C0625C03C000000000F43738C0000000E0FF3F8F4000000040A9B704C0000000C084F738C0
310
0C00000013000000620800003C0000000600000002000000000000C0FF3F8FC00000004030AEFFBF00000080099737C0000000C0FF3F8FC000000000355C03C000000000F43738C00C000000130000006A0800003C0000000600000002000000000000C0FF3F8FC00000004030AEFFBF00000080099737C0000000E0FF3F8F
310
40000000808DAEFFBF00000080099737C00C00000013000000720800003C0000000600000002000000000000E0FF3F8F40000000808DAEFFBF00000080099737C0000000E0FF3F8F40000000C0625C03C000000000F43738C00C000000130000007A0800003C0000000600000002000000000000C0FF3F8FC0000000C0E96B
310
173F00000020FFFF35C0000000C0FF3F8FC00000004030AEFFBF00000080099737C00C00000013000000820800003C0000000600000002000000000000C0FF3F8FC0000000C0E96B173F00000020FFFF35C0000000E0FF3F8F400000006045C7C23E00000020FFFF35C00C000000130000008A0800003C0000000600000002
310
000000000000E0FF3F8F400000006045C7C23E00000020FFFF35C0000000E0FF3F8F40000000808DAEFFBF00000080099737C00C00000013000000920800003C0000000600000002000000000000C0FF3F8FC0000000C0E96B173F00000020FFFF35C0000000C0FF3F8FC0000000E091B7173F00000040FE272AC00C000000
310
130000009A0800003C0000000600000002000000000000E0FF3F8F40000000C0241ED63E00000040FE272AC0000000C0FF3F8FC0000000E091B7173F00000040FE272AC00C00000013000000A20800003C0000000600000002000000000000E0FF3F8F40000000C0241ED63E00000040FE272AC0000000E0FF3F8F40000000
310
6045C7C23E00000020FFFF35C00C00000013000000AA0800003C0000000600000002000000000000C0FF3F8FC000000020A2E338C0000000E07D7731C0000000C0FF3F8FC0000000E091B7173F00000040FE272AC00C00000013000000B20800003C0000000600000002000000000000C0FF3F8FC000000020A2E338C00000
310
00E07D7731C0000000E0FF3F8F40000000E0A7E338C0000000E07D7731C00C00000013000000BA0800003C0000000600000002000000000000E0FF3F8F40000000E0A7E338C0000000E07D7731C0000000E0FF3F8F40000000C0241ED63E00000040FE272AC00C00000013000000C20800003C000000060000000200000000
310
0000C0FF3F8FC000000020A2E338C0000000E07D7731C0000000C0FF3F8FC0000000A0FE6839C000000060607B31C00C00000013000000CA0800003C0000000600000002000000000000E0FF3F8F4000000060046939C000000060607B31C0000000C0FF3F8FC0000000A0FE6839C000000060607B31C00C00000013000000
310
D20800003C0000000600000002000000000000E0FF3F8F4000000060046939C000000060607B31C0000000E0FF3F8F40000000E0A7E338C0000000E07D7731C00C00000013000000DA0800003C0000000600000002000000000000C0FF3F8FC0000000A0FE6839C000000060607B31C0000000C0FF3F8FC00000008017143A
310
C000000060894D31C00C00000013000000E20800003C0000000600000002000000000000E0FF3F8F40000000401D143AC000000060894D31C0000000C0FF3F8FC00000008017143AC000000060894D31C00C00000013000000EA0800003C0000000600000002000000000000E0FF3F8F40000000401D143AC000000060894D
310
31C0000000E0FF3F8F4000000060046939C000000060607B31C00C00000013000000F20800003C0000000600000002000000000000C0FF3F8FC00000008017143AC000000060894D31C0000000C0FF3F8FC0000000E034A53AC0000000E0ECE730C00C00000013000000FA0800003C0000000600000002000000000000E0FF
310
3F8F40000000A03AA53AC0000000E0ECE730C0000000C0FF3F8FC0000000E034A53AC0000000E0ECE730C00C00000013000000020900003C0000000600000002000000000000E0FF3F8F40000000A03AA53AC0000000E0ECE730C0000000E0FF3F8F40000000401D143AC000000060894D31C00C000000130000000A090000
310
3C0000000600000002000000000000C0FF3F8FC0000000E034A53AC0000000E0ECE730C0000000C0FF3F8FC000000020CD0A3BC000000060D35630C00C00000013000000120900003C0000000600000002000000000000E0FF3F8F40000000E0D20A3BC000000060D35630C0000000C0FF3F8FC000000020CD0A3BC0000000
310
60D35630C00C000000130000001A0900003C0000000600000002000000000000E0FF3F8F40000000E0D20A3BC000000060D35630C0000000E0FF3F8F40000000A03AA53AC0000000E0ECE730C00C00000013000000220900003C0000000600000002000000000000C0FF3F8FC000000020CD0A3BC000000060D35630C00000
310
00C0FF3F8FC000000060C3343BC0000000405BB02FC00C000000130000002A0900003C0000000600000002000000000000E0FF3F8F4000000020C9343BC0000000205BB02FC0000000C0FF3F8FC000000060C3343BC0000000405BB02FC00C00000013000000320900003C0000000600000002000000000000E0FF3F8F4000
310
000020C9343BC0000000205BB02FC0000000E0FF3F8F40000000E0D20A3BC000000060D35630C00C000000130000003A0900003C0000000600000002000000000000C0FF3F8FC000000020FAFF3DC000000040ABFFB33E000000C0FF3F8FC000000060C3343BC0000000405BB02FC00C00000013000000420900003C000000
310
0600000002000000000000E0FF3F8F40000000C0FFFF3DC0000000E0D7FFC93E000000C0FF3F8FC000000020FAFF3DC000000040ABFFB33E0C000000130000004A0900003C0000000600000002000000000000E0FF3F8F40000000C0FFFF3DC0000000E0D7FFC93E000000E0FF3F8F4000000020C9343BC0000000205BB02F
310
C00C00000013000000520900003C0000000600000002000000000000C0FF3F8FC000000000FDFF44C00000008008CDCEBE000000C0FF3F8FC000000020FAFF3DC000000040ABFFB33E0C000000130000005A0900003C0000000600000002000000000000E0FF3F8F40000000C0FFFF3DC0000000E0D7FFC93E000000E0FF3F
310
8F40000000E0FFFF44C00000004006CDCEBE0C00000013000000620900003C0000000600000002000000000000E0FF3F8F40000000E0FBFF0FC00000000000004BC0000000E0FF3F8F4000000040AABEE23E0000000000804BC00C000000130000006A0900003C0000000600000002000000000000E0FF3F8F4000000040AA
310
BEE23E0000000000804BC0000000E0FF3F8F4000000020FDFF0FC000000000004048C00C00000013000000720900003C0000000600000002000000000000E0FF3F8F40000000C0FFFF3DC0000000E0D7FFC93E000000E0FF3F8F40000000E0FFFF44C000000000864914C00C000000130000007A0900003C00000006000000
310
02000000000000E0FF3F8F40000000C0FFFF3DC0000000E0D7FFC93E000000E0FF3F8F400000006016F744C000000000B7AC15C00C00000013000000820900003C0000000600000002000000000000E0FF3F8F40000000C0FFFF3DC0000000E0D7FFC93E000000E0FF3F8F400000006085D544C000000000A83917C00C0000
310
00130000008A0900003C0000000600000002000000000000E0FF3F8F40000000C0FFFF3DC0000000E0D7FFC93E000000E0FF3F8F4000000060A0AF44C000000000FCFF17C00C00000013000000920900003C0000000600000002000000000000E0FF3F8F40000000C0FFFF3DC0000000E0D7FFC93E000000E0FF3F8F400000
310
0020499244C000000080053F18C00C000000130000009A0900003C0000000600000002000000000000E0FF3F8F40000000C0FFFF3DC0000000E0D7FFC93E000000E0FF3F8F40000000E07F1744C0000000E0072A19C00C00000013000000A20900003C0000000600000002000000000000E0FF3F8F40000000C0FFFF3DC000
310
0000E0D7FFC93E000000E0FF3F8F4000000020E27D43C000000060AE4B1BC00C00000013000000AA0900003C0000000600000002000000000000E0FF3F8F40000000C0FFFF3DC0000000E0D7FFC93E000000E0FF3F8F40000000A0D1F642C0000000E0EB6B1EC00C00000013000000B20900003C0000000600000002000000
310
000000E0FF3F8F40000000C0FFFF3DC0000000E0D7FFC93E000000E0FF3F8F4000000020CE8842C0000000A0173221C00C00000013000000BA0900003C0000000600000002000000000000E0FF3F8F40000000C0FFFF3DC0000000E0D7FFC93E000000E0FF3F8F40000000A0183942C0000000E0F78123C00C000000130000
310
00C20900003C0000000600000002000000000000E0FF3F8F40000000C0FFFF3DC0000000E0D7FFC93E000000E0FF3F8F40000000E0880B42C0000000201B0926C00C00000013000000CA0900003C0000000600000002000000000000E0FF3F8F40000000C0FFFF3DC0000000E0D7FFC93E000000E0FF3F8F40000000E0FFFF
310
41C0000000E0FFFF27C00C00000013000000D20900003C0000000600000002000000000000E0FF3F8F4000000020C9343BC0000000205BB02FC0000000E0FF3F8F4000000020000042C000000040008034C00C00000013000000DA0900003C0000000600000002000000000000E0FF3F8F4000000020C9343BC0000000205B
310
B02FC0000000E0FF3F8F40000000E0A2FB41C00000000045C234C00C00000013000000E20900003C0000000600000002000000000000E0FF3F8F4000000020C9343BC0000000205BB02FC0000000E0FF3F8F40000000A0DAEE41C000000020FDFF34C00C00000013000000EA0900003C0000000600000002000000000000E0
310
FF3F8F40000000E0D20A3BC000000060D35630C0000000E0FF3F8F40000000A082DA41C000000040053535C00C00000013000000F20900003C0000000600000002000000000000E0FF3F8F40000000E0D20A3BC000000060D35630C0000000E0FF3F8F40000000A0FEBF41C000000000B55D35C00C00000013000000FA0900
310
003C0000000600000002000000000000E0FF3F8F40000000A03AA53AC0000000E0ECE730C0000000E0FF3F8F40000000A022A141C0000000A0457735C00C00000013000000020A00003C0000000600000002000000000000E0FF3F8F40000000A03AA53AC0000000E0ECE730C0000000E0FF3F8F4000000020008041C00000
310
0040008035C00C000000130000000A0A00003C0000000600000002000000000000E0FF3F8F40000000401D143AC000000060894D31C0000000E0FF3F8F40000000A09BAC3EC0000000A0EC9C35C00C00000013000000120A00003C0000000600000002000000000000E0FF3F8F4000000060046939C000000060607B31C000
310
0000E0FF3F8F40000000E04DD33EC0000000E0FE6436C00C000000130000001A0A00003C0000000600000002000000000000E0FF3F8F4000000060046939C000000060607B31C0000000E0FF3F8F4000000060ECF73EC0000000A0911A37C00C00000013000000220A00003C0000000600000002000000000000E0FF3F8F40
310
00000060046939C000000060607B31C0000000E0FF3F8F400000002087FE3EC0000000A075BE37C00C000000130000002A0A00003C0000000600000002000000000000E0FF3F8F4000000060046939C000000060607B31C0000000E0FF3F8F4000000060E5EA3EC000000060EB5338C00C00000013000000320A00003C0000
310
000600000002000000000000E0FF3F8F4000000060046939C000000060607B31C0000000E0FF3F8F400000006001BF3EC000000040D1DF38C00C000000130000003A0A00003C0000000600000002000000000000E0FF3F8F4000000060046939C000000060607B31C0000000E0FF3F8F40000000A035793EC0000000609965
310
39C00C00000013000000420A00003C0000000600000002000000000000E0FF3F8F40000000E0A7E338C0000000E07D7731C0000000E0FF3F8F40000000208CC035C000000000B83D38C00C000000130000004A0A00003C0000000600000002000000000000E0FF3F8F40000000E0A7E338C0000000E07D7731C0000000E0FF
310
3F8F4000000060DC8834C00000006083C337C00C00000013000000520A00003C0000000600000002000000000000E0FF3F8F40000000E0A7E338C0000000E07D7731C0000000E0FF3F8F4000000080574E33C000000080DB7C37C00C000000130000005A0A00003C0000000600000002000000000000E0FF3F8F40000000E0
310
A7E338C0000000E07D7731C0000000E0FF3F8F40000000203BFF37C0000000E05D9C39C00C00000013000000620A00003C0000000600000002000000000000E0FF3F8F40000000E0A7E338C0000000E07D7731C0000000E0FF3F8F400000006036EC36C0000000A0B1E538C00C000000130000006A0A00003C000000060000
310
0002000000000000E0FF3F8F40000000E0A7E338C0000000E07D7731C0000000E0FF3F8F400000002007FC38C0000000A0023D3AC00C00000013000000720A00003C0000000600000002000000000000E0FF3F8F40000000E0A7E338C0000000E07D7731C0000000E0FF3F8F40000000200AD539C0000000E06BAB3AC00C00
310
0000130000007A0A00003C0000000600000002000000000000E0FF3F8F40000000E0A7E338C0000000E07D7731C0000000E0FF3F8F40000000E08D4C3BC0000000A0A0043BC00C00000013000000820A00003C0000000600000002000000000000E0FF3F8F40000000E0A7E338C0000000E07D7731C0000000E0FF3F8F4000
310
000060A9943AC0000000E003EA3AC00C000000130000008A0A00003C0000000600000002000000000000E0FF3F8F4000000060046939C000000060607B31C0000000E0FF3F8F4000000020911E3EC00000006089DC39C00C00000013000000920A00003C0000000600000002000000000000E0FF3F8F4000000060046939C0
310
00000060607B31C0000000E0FF3F8F40000000E0D6AD3DC00000006063453AC00C000000130000009A0A00003C0000000600000002000000000000E0FF3F8F40000000E0A7E338C0000000E07D7731C0000000E0FF3F8F40000000A0BA963CC0000000A0FDD93AC00C00000013000000A20A00003C00000006000000020000
310
00000000E0FF3F8F40000000E0A7E338C0000000E07D7731C0000000E0FF3F8F40000000A0E0F63BC0000000201DFE3AC00C00000013000000AA0A00003C0000000600000002000000000000E0FF3F8F4000000060046939C000000060607B31C0000000E0FF3F8F4000000060F0283DC000000060E49B3AC00C0000001300
310
0000B20A00003C0000000600000002000000000000E0FF3F8F40000000C0241ED63E00000040FE272AC0000000E0FF3F8F40000000E01A0A32C000000060316637C00C00000013000000BA0A00003C0000000600000002000000000000E0FF3F8F40000000C0241ED63E00000040FE272AC0000000E0FF3F8F40000000E0E2
310
B530C000000060B07F37C00C00000013000000C20A00003C0000000600000002000000000000E0FF3F8F40000000C0241ED63E00000040FE272AC0000000E0FF3F8F400000008044A32EC00000004023CD37C00C00000013000000CA0A00003C0000000600000002000000000000E0FF3F8F40000000C0241ED63E00000040
310
FE272AC0000000E0FF3F8F400000004027C62BC0000000A0425338C00C00000013000000D20A00003C0000000600000002000000000000E0FF3F8F400000006045C7C23E00000020FFFF35C0000000E0FF3F8F40000000001BFD28C000000060FD0F39C00C00000013000000DA0A00003C0000000600000002000000000000
310
E0FF3F8F40000000808DAEFFBF00000080099737C0000000E0FF3F8F4000000000395B26C0000000C0AF003AC00C00000013000000E20A00003C0000000600000002000000000000E0FF3F8F4000000000395B26C0000000C0AF003AC0000000E0FF3F8F40000000C0625C03C000000000F43738C00C00000013000000EA0A
310
00003C0000000600000002000000000000E0FF3F8F4000000040A9B704C0000000C084F738C0000000E0FF3F8F40000000C035F723C0000000401B1D3BC00C00000013000000F20A00003C0000000600000002000000000000E0FF3F8F400000004081B503C00000008045B939C0000000E0FF3F8F40000000C0CAD721C000
310
0000C009643CC00C00000013000000FA0A00003C0000000600000002000000000000E0FF3F8F400000004009B0FFBF000000C066883AC0000000E0FF3F8F40000000A0961B20C0000000A0DDBF3DC00C00000013000000020B00003C0000000600000002000000000000E0FF3F8F4000000020C1F1F2BF0000008006D43BC0
310
000000E0FF3F8F400000002008081EC0000000803DD93EC00C000000130000000A0B00003C0000000600000002000000000000E0FF3F8F40000000E093A4DEBF00000000BE663DC0000000E0FF3F8F40000000E01A361CC0000000E0230140C00C00000013000000120B00003C0000000600000002000000000000E0FF3F8F
310
40000000C0CE9FDC3E0000008094D23EC0000000E0FF3F8F40000000E07CB31AC00000006097A240C00C000000130000001A0B00003C0000000600000002000000000000E0FF3F8F40000000C0CE9FDC3E0000008094D23EC0000000E0FF3F8F40000000A0708619C0000000600D5341C00C00000013000000220B00003C00
310
00000600000002000000000000E0FF3F8F40000000C0CE9FDC3E0000008094D23EC0000000E0FF3F8F40000000005BBA18C000000020631442C00C000000130000002A0B00003C0000000600000002000000000000E0FF3F8F40000000C0CE9FDC3E0000008094D23EC0000000E0FF3F8F4000000080AE5E18C0000000609A
310
E842C00C00000013000000320B00003C0000000600000002000000000000E0FF3F8F4000000040AABEE23E0000000000804BC0000000E0FF3F8F4000000060E4FF0BC000000060DA6E4BC00C000000130000003A0B00003C0000000600000002000000000000E0FF3F8F4000000040AABEE23E0000000000804BC0000000E0
310
FF3F8F40000000E023A80DC000000080825A4BC00C00000013000000420B00003C0000000600000002000000000000E0FF3F8F4000000040AABEE23E0000000000804BC0000000E0FF3F8F40000000E0A2ED0EC000000080FE3F4BC00C000000130000004A0B00003C0000000600000002000000000000E0FF3F8F40000000
310
40AABEE23E0000000000804BC0000000E0FF3F8F40000000E027BA0FC00000006022214BC00C00000013000000520B00003C0000000600000002000000000000E0FF3F8F40000000C0CE9FDC3E0000008094D23EC0000000E0FF3F8F4000000000FD2410C000000000980448C00C000000130000005A0B00003C0000000600
310
000002000000000000E0FF3F8F40000000C0CE9FDC3E0000008094D23EC0000000E0FF3F8F4000000000E87A18C0000000406FB843C00C00000013000000620B00003C0000000600000002000000000000E0FF3F8F40000000C0CE9FDC3E0000008094D23EC0000000E0FF3F8F40000000806BEF18C0000000409B6F44C00C
310
000000130000006A0B00003C0000000600000002000000000000E0FF3F8F40000000C0CE9FDC3E0000008094D23EC0000000E0FF3F8F40000000603AB719C0000000401A3045C00C00000013000000720B00003C0000000600000002000000000000E0FF3F8F40000000C0CE9FDC3E0000008094D23EC0000000E0FF3F8F40
310
00000060D1C51AC0000000C0DDF845C00C000000130000007A0B00003C0000000600000002000000000000E0FF3F8F40000000C0CE9FDC3E0000008094D23EC0000000E0FF3F8F40000000809D4711C000000080729347C00C00000013000000820B00003C0000000600000002000000000000E0FF3F8F40000000C0CE9FDC
310
3E0000008094D23EC0000000E0FF3F8F40000000801B9310C0000000A098CA47C00C000000130000008A0B00003C0000000600000002000000000000E0FF3F8F40000000C0CE9FDC3E0000008094D23EC0000000E0FF3F8F4000000000167113C0000000E0D33247C00C00000013000000920B00003C000000060000000200
310
0000000000E0FF3F8F40000000C0CE9FDC3E0000008094D23EC0000000E0FF3F8F4000000080383E12C000000060746047C00C000000130000009A0B00003C0000000600000002000000000000E0FF3F8F40000000C0CE9FDC3E0000008094D23EC0000000E0FF3F8F4000000020376C16C000000000FFEB46C00C00000013
310
000000A20B00003C0000000600000002000000000000E0FF3F8F40000000C0CE9FDC3E0000008094D23EC0000000E0FF3F8F40000000E098D814C000000000B30B47C00C00000013000000AA0B00003C0000000600000002000000000000E0FF3F8F40000000C0CE9FDC3E0000008094D23EC0000000E0FF3F8F40000000A0
310
34F019C0000000C0B5C546C00C00000013000000B20B00003C0000000600000002000000000000E0FF3F8F40000000C0CE9FDC3E0000008094D23EC0000000E0FF3F8F40000000A0602218C0000000C078D446C00C00000013000000BA0B00003C0000000600000002000000000000E0FF3F8F40000000C0CE9FDC3E000000
310
8094D23EC0000000E0FF3F8F40000000203C8E1BC0000000C0117A46C00C00000013000000C20B00003C0000000600000002000000000000E0FF3F8F40000000C0CE9FDC3E0000008094D23EC0000000E0FF3F8F40000000A079941BC000000080678E46C00C00000013000000CA0B00003C00000006000000020000000000
310
00E0FF3F8F40000000C0CE9FDC3E0000008094D23EC0000000E0FF3F8F40000000A07B0B1BC0000000C0BBB246C00C00000013000000D20B00003C0000000600000002000000000000E0FF3F8F40000000C0CE9FDC3E0000008094D23EC0000000E0FF3F8F4000000060188A1AC00000000012BF46C00C00000013000000DA
310
0B00003C0000000600000002000000000000E0FF3F8F40000000C0CE9FDC3E0000008094D23EC0000000E0FF3F8F40000000205C671BC0000000C0F2A146C00C00000013000000E20B00003C0000000600000002000000000000C0FF3F8FC000000060CFFF0FC000000000004048C0000000C0FF3F8FC0000000E084AD183F
310
0000000000804BC00C00000013000000EA0B00003C0000000600000002000000000000C0FF3F8FC0000000E084AD183F0000000000804BC0000000C0FF3F8FC000000020CEFF0FC00000000000004BC00C00000013000000F20B00003C0000000600000002000000000000C0FF3F8FC000000000FDFF44C000000000864914
310
C0000000C0FF3F8FC000000020FAFF3DC000000040ABFFB33E0C00000013000000FA0B00003C0000000600000002000000000000C0FF3F8FC000000020FAFF3DC000000040ABFFB33E000000C0FF3F8FC00000008013F744C000000080B6AC15C00C00000013000000020C00003C0000000600000002000000000000C0FF3F
310
8FC00000008082D544C000000000A83917C0000000C0FF3F8FC000000020FAFF3DC000000040ABFFB33E0C000000130000000A0C00003C0000000600000002000000000000C0FF3F8FC0000000809DAF44C000000000FCFF17C0000000C0FF3F8FC000000020FAFF3DC000000040ABFFB33E0C00000013000000120C00003C
310
0000000600000002000000000000C0FF3F8FC000000040469244C000000080053F18C0000000C0FF3F8FC000000020FAFF3DC000000040ABFFB33E0C000000130000001A0C00003C0000000600000002000000000000C0FF3F8FC0000000007D1744C0000000E0072A19C0000000C0FF3F8FC000000020FAFF3DC000000040
310
ABFFB33E0C00000013000000220C00003C0000000600000002000000000000C0FF3F8FC000000040DF7D43C000000060AE4B1BC0000000C0FF3F8FC000000020FAFF3DC000000040ABFFB33E0C000000130000002A0C00003C0000000600000002000000000000C0FF3F8FC0000000A0CEF642C0000000E0EB6B1EC0000000
310
C0FF3F8FC000000020FAFF3DC000000040ABFFB33E0C00000013000000320C00003C0000000600000002000000000000C0FF3F8FC000000020CB8842C0000000A0173221C0000000C0FF3F8FC000000020FAFF3DC000000040ABFFB33E0C000000130000003A0C00003C0000000600000002000000000000C0FF3F8FC00000
310
00A0153942C000000020F88123C0000000C0FF3F8FC000000020FAFF3DC000000040ABFFB33E0C00000013000000420C00003C0000000600000002000000000000C0FF3F8FC0000000E0850B42C0000000201B0926C0000000C0FF3F8FC000000020FAFF3DC000000040ABFFB33E0C000000130000004A0C00003C00000006
310
00000002000000000000C0FF3F8FC000000000FDFF41C000000020000028C0000000C0FF3F8FC000000020FAFF3DC000000040ABFFB33E0C00000013000000520C00003C0000000600000002000000000000C0FF3F8FC000000020FDFF41C000000040008034C0000000C0FF3F8FC000000060C3343BC0000000405BB02FC0
310
0C000000130000005A0C00003C0000000600000002000000000000C0FF3F8FC000000060C3343BC0000000405BB02FC0000000C0FF3F8FC0000000E09FFB41C00000000045C234C00C00000013000000620C00003C0000000600000002000000000000C0FF3F8FC0000000A0D7EE41C000000020FDFF34C0000000C0FF3F8F
310
C000000060C3343BC0000000405BB02FC00C000000130000006A0C00003C0000000600000002000000000000C0FF3F8FC000000020CD0A3BC000000060D35630C0000000C0FF3F8FC0000000A07FDA41C000000040053535C00C00000013000000720C00003C0000000600000002000000000000C0FF3F8FC0000000A0FBBF
310
41C000000000B55D35C0000000C0FF3F8FC000000020CD0A3BC000000060D35630C00C000000130000007A0C00003C0000000600000002000000000000C0FF3F8FC0000000A01FA141C0000000A0457735C0000000C0FF3F8FC0000000E034A53AC0000000E0ECE730C00C00000013000000820C00003C0000000600000002
310
000000000000C0FF3F8FC000000020FD7F41C000000040008035C0000000C0FF3F8FC0000000E034A53AC0000000E0ECE730C00C000000130000008A0C00003C0000000600000002000000000000C0FF3F8FC00000000096AC3EC0000000A0EC9C35C0000000C0FF3F8FC00000008017143AC000000060894D31C00C000000
310
13000000920C00003C0000000600000002000000000000C0FF3F8FC00000004048D33EC0000000E0FE6436C0000000C0FF3F8FC0000000A0FE6839C000000060607B31C00C000000130000009A0C00003C0000000600000002000000000000C0FF3F8FC0000000A0E6F73EC0000000A0911A37C0000000C0FF3F8FC0000000
310
A0FE6839C000000060607B31C00C00000013000000A20C00003C0000000600000002000000000000C0FF3F8FC00000006081FE3EC0000000E075BE37C0000000C0FF3F8FC0000000A0FE6839C000000060607B31C00C00000013000000AA0C00003C0000000600000002000000000000C0FF3F8FC0000000A0DFEA3EC00000
310
00A0EB5338C0000000C0FF3F8FC0000000A0FE6839C000000060607B31C00C00000013000000B20C00003C0000000600000002000000000000C0FF3F8FC0000000A0FBBE3EC000000060D1DF38C0000000C0FF3F8FC0000000A0FE6839C000000060607B31C00C00000013000000BA0C00003C000000060000000200000000
310
0000C0FF3F8FC0000000E02F793EC0000000A0996539C0000000C0FF3F8FC0000000A0FE6839C000000060607B31C00C00000013000000C20C00003C0000000600000002000000000000C0FF3F8FC000000020A2E338C0000000E07D7731C0000000C0FF3F8FC0000000A0D68834C00000006083C337C00C00000013000000
310
CA0C00003C0000000600000002000000000000C0FF3F8FC00000006086C035C000000000B83D38C0000000C0FF3F8FC000000020A2E338C0000000E07D7731C00C00000013000000D20C00003C0000000600000002000000000000C0FF3F8FC0000000C0514E33C000000080DB7C37C0000000C0FF3F8FC000000020A2E338
310
C0000000E07D7731C00C00000013000000DA0C00003C0000000600000002000000000000C0FF3F8FC0000000A030EC36C0000000A0B1E538C0000000C0FF3F8FC000000020A2E338C0000000E07D7731C00C00000013000000E20C00003C0000000600000002000000000000C0FF3F8FC00000006035FF37C0000000E05D9C
310
39C0000000C0FF3F8FC000000020A2E338C0000000E07D7731C00C00000013000000EA0C00003C0000000600000002000000000000C0FF3F8FC00000006001FC38C0000000A0023D3AC0000000C0FF3F8FC000000020A2E338C0000000E07D7731C00C00000013000000F20C00003C0000000600000002000000000000C0FF
310
3F8FC00000008004D539C0000000E06BAB3AC0000000C0FF3F8FC000000020A2E338C0000000E07D7731C00C00000013000000FA0C00003C0000000600000002000000000000C0FF3F8FC000000020A2E338C0000000E07D7731C0000000C0FF3F8FC0000000A0A3943AC0000000E003EA3AC00C00000013000000020D0000
310
3C0000000600000002000000000000C0FF3F8FC000000020884C3BC0000000A0A0043BC0000000C0FF3F8FC000000020A2E338C0000000E07D7731C00C000000130000000A0D00003C0000000600000002000000000000C0FF3F8FC0000000608B1E3EC0000000A089DC39C0000000C0FF3F8FC0000000A0FE6839C0000000
310
60607B31C00C00000013000000120D00003C0000000600000002000000000000C0FF3F8FC000000020D1AD3DC00000006063453AC0000000C0FF3F8FC0000000A0FE6839C000000060607B31C00C000000130000001A0D00003C0000000600000002000000000000C0FF3F8FC0000000E0DAF63BC0000000201DFE3AC00000
310
00C0FF3F8FC000000020A2E338C0000000E07D7731C00C00000013000000220D00003C0000000600000002000000000000C0FF3F8FC000000020A2E338C0000000E07D7731C0000000C0FF3F8FC0000000E0B4963CC0000000A0FDD93AC00C000000130000002A0D00003C0000000600000002000000000000C0FF3F8FC000
310
0000A0EA283DC0000000A0E49B3AC0000000C0FF3F8FC0000000A0FE6839C000000060607B31C00C00000013000000320D00003C0000000600000002000000000000C0FF3F8FC000000020150A32C000000060316637C0000000C0FF3F8FC0000000E091B7173F00000040FE272AC00C000000130000003A0D00003C000000
310
0600000002000000000000C0FF3F8FC000000020DDB530C000000060B07F37C0000000C0FF3F8FC0000000E091B7173F00000040FE272AC00C00000013000000420D00003C0000000600000002000000000000C0FF3F8FC00000000039A32EC00000004023CD37C0000000C0FF3F8FC0000000E091B7173F00000040FE272A
310
C00C000000130000004A0D00003C0000000600000002000000000000C0FF3F8FC0000000C01BC62BC0000000A0425338C0000000C0FF3F8FC0000000E091B7173F00000040FE272AC00C00000013000000520D00003C0000000600000002000000000000C0FF3F8FC0000000C0E96B173F00000020FFFF35C0000000C0FF3F
310
8FC0000000600FFD28C000000060FD0F39C00C000000130000005A0D00003C0000000600000002000000000000C0FF3F8FC0000000402D5B26C0000000C0AF003AC0000000C0FF3F8FC00000004030AEFFBF00000080099737C00C00000013000000620D00003C0000000600000002000000000000C0FF3F8FC0000000402D
310
5B26C0000000C0AF003AC0000000C0FF3F8FC000000000355C03C000000000F43738C00C000000130000006A0D00003C0000000600000002000000000000C0FF3F8FC0000000807BB704C0000000C084F738C0000000C0FF3F8FC0000000202AF723C0000000601B1D3BC00C00000013000000720D00003C00000006000000
310
02000000000000C0FF3F8FC000000040BFD721C0000000E009643CC0000000C0FF3F8FC00000000053B503C00000008045B939C00C000000130000007A0D00003C0000000600000002000000000000C0FF3F8FC000000000AEAFFFBF000000C066883AC0000000C0FF3F8FC0000000208B1B20C0000000A0DDBF3DC00C0000
310
0013000000820D00003C0000000600000002000000000000C0FF3F8FC0000000A0F1071EC0000000803DD93EC0000000C0FF3F8FC0000000E065F1F2BF0000008006D43BC00C000000130000008A0D00003C0000000600000002000000000000C0FF3F8FC00000002004361CC0000000E0230140C0000000C0FF3F8FC00000
310
00A026A3DEBF00000000BE663DC00C00000013000000920D00003C0000000600000002000000000000C0FF3F8FC00000002066B31AC00000006097A240C0000000C0FF3F8FC000000080AC1F183F0000008094D23EC00C000000130000009A0D00003C0000000600000002000000000000C0FF3F8FC000000080AC1F183F00
310
00008094D23EC0000000C0FF3F8FC0000000E0598619C0000000600D5341C00C00000013000000A20D00003C0000000600000002000000000000C0FF3F8FC00000008044BA18C000000020631442C0000000C0FF3F8FC000000080AC1F183F0000008094D23EC00C00000013000000AA0D00003C0000000600000002000000
310
000000C0FF3F8FC000000080AC1F183F0000008094D23EC0000000C0FF3F8FC0000000C0975E18C0000000609AE842C00C00000013000000B20D00003C0000000600000002000000000000C0FF3F8FC0000000E084AD183F0000000000804BC0000000C0FF3F8FC000000020B6FF0BC000000060DA6E4BC00C000000130000
310
00BA0D00003C0000000600000002000000000000C0FF3F8FC0000000E084AD183F0000000000804BC0000000C0FF3F8FC000000020F6A70DC000000080825A4BC00C00000013000000C20D00003C0000000600000002000000000000C0FF3F8FC0000000E084AD183F0000000000804BC0000000C0FF3F8FC00000002075ED
310
0EC000000080FE3F4BC00C00000013000000CA0D00003C0000000600000002000000000000C0FF3F8FC0000000E084AD183F0000000000804BC0000000C0FF3F8FC000000020FAB90FC00000006022214BC00C00000013000000D20D00003C0000000600000002000000000000C0FF3F8FC000000080E62410C00000000098
310
0448C0000000C0FF3F8FC000000080AC1F183F0000008094D23EC00C00000013000000DA0D00003C0000000600000002000000000000C0FF3F8FC000000080AC1F183F0000008094D23EC0000000C0FF3F8FC000000040D17A18C0000000406FB843C00C00000013000000E20D00003C0000000600000002000000000000C0
310
FF3F8FC0000000C054EF18C0000000409B6F44C0000000C0FF3F8FC000000080AC1F183F0000008094D23EC00C00000013000000EA0D00003C0000000600000002000000000000C0FF3F8FC000000080AC1F183F0000008094D23EC0000000C0FF3F8FC0000000A023B719C0000000401A3045C00C00000013000000F20D00
310
003C0000000600000002000000000000C0FF3F8FC0000000A0BAC51AC0000000C0DDF845C0000000C0FF3F8FC000000080AC1F183F0000008094D23EC00C00000013000000FA0D00003C0000000600000002000000000000C0FF3F8FC000000080AC1F183F0000008094D23EC0000000C0FF3F8FC0000000C0049310C00000
310
00A098CA47C00C00000013000000020E00003C0000000600000002000000000000C0FF3F8FC000000080AC1F183F0000008094D23EC0000000C0FF3F8FC0000000C0864711C000000080729347C00C000000130000000A0E00003C0000000600000002000000000000C0FF3F8FC0000000C0213E12C000000060746047C000
310
0000C0FF3F8FC000000080AC1F183F0000008094D23EC00C00000013000000120E00003C0000000600000002000000000000C0FF3F8FC000000080FF7013C0000000E0D33247C0000000C0FF3F8FC000000080AC1F183F0000008094D23EC00C000000130000001A0E00003C0000000600000002000000000000C0FF3F8FC0
310
000000E081D814C000000000B30B47C0000000C0FF3F8FC000000080AC1F183F0000008094D23EC00C00000013000000220E00003C0000000600000002000000000000C0FF3F8FC000000060206C16C000000000FFEB46C0000000C0FF3F8FC000000080AC1F183F0000008094D23EC00C000000130000002A0E00003C0000
310
000600000002000000000000C0FF3F8FC0000000E0492218C0000000C078D446C0000000C0FF3F8FC000000080AC1F183F0000008094D23EC00C00000013000000320E00003C0000000600000002000000000000C0FF3F8FC0000000E01DF019C0000000C0B5C546C0000000C0FF3F8FC000000080AC1F183F0000008094D2
310
3EC00C000000130000003A0E00003C0000000600000002000000000000C0FF3F8FC000000060258E1BC0000000C0117A46C0000000C0FF3F8FC000000080AC1F183F0000008094D23EC00C00000013000000420E00003C0000000600000002000000000000C0FF3F8FC000000080AC1F183F0000008094D23EC0000000C0FF
310
3F8FC0000000E062941BC000000080678E46C00C000000130000004A0E00003C0000000600000002000000000000C0FF3F8FC000000080AC1F183F0000008094D23EC0000000C0FF3F8FC000000060018A1AC00000000012BF46C00C00000013000000520E00003C0000000600000002000000000000C0FF3F8FC000000080
310
AC1F183F0000008094D23EC0000000C0FF3F8FC0000000E0640B1BC0000000C0BBB246C00C000000130000005A0E00003C0000000600000002000000000000C0FF3F8FC000000080AC1F183F0000008094D23EC0000000C0FF3F8FC00000006045671BC0000000C0F2A146C0
100
AcDbSubDMesh
 71
     2
 72
     0
 91
        0
 92
      200
 10
-999.9998779296875
 20
-3.999907255172729
 30
-48.5
 10
-999.9998779296875
 20
-6.48448896408081
 30
-45.54460906982422
 10
-999.9998779296875
 20
-6.033484935760498
 30
-45.65993499755859
 10
-999.9998779296875
 20
-5.605592250823974
 30
-45.84371948242187
 10
-999.9998779296875
 20
-5.211432933807373
 30
-46.09140014648438
 10
-999.9998779296875
 20
-4.860349655151367
 30
-46.39709091186523
 10
-999.9998779296875
 20
-4.560675621032714
 30
-46.75355148315429
 10
-999.9998779296875
 20
-4.036035537719726
 30
-48.035888671875
 10
-999.9998779296875
 20
-30.96836280822754
 30
-23.10378456115723
 10
-999.9998779296875
 20
-30.99416160583496
 30
-23.74398612976074
 10
-999.9998779296875
 20
-30.11931419372559
 30
-25.86147499084473
 10
-999.9998779296875
 20
-29.6789722442627
 30
-26.27104759216309
 10
-999.9998779296875
 20
-27.96427726745605
 30
-26.99263191223145
 10
-999.9998779296875
 20
-27.29895210266113
 30
-27.01807594299316
 10
-999.9998779296875
 20
-25.83209991455078
 30
-26.66961479187012
 10
-999.9998779296875
 20
-24.98439598083496
 30
-26.23832130432129
 10
-999.9998779296875
 20
-23.99690818786621
 30
-25.61080741882324
 10
-999.9998779296875
 20
-22.92261695861816
 30
-24.89724159240723
 10
-999.9998779296875
 20
-21.75205039978028
 30
-24.2410888671875
 10
-999.9998779296875
 20
-19.30593490600586
 30
-23.48772430419922
 10
-999.9998779296875
 20
-16.71040534973144
 30
-23.4987850189209
 10
-999.9998779296875
 20
-11.17807960510254
 30
-26.00268173217774
 10
-999.9998779296875
 20
-8.921380996704101
 30
-28.39077568054199
 10
-999.9998779296875
 20
-6.675194263458251
 30
-33.27024459838867
 10
-999.9998779296875
 20
-6.181901931762695
 30
-36.15927505493164
 10
-999.9998779296875
 20
-6.233721733093261
 30
-40.8719253540039
 10
-999.9998779296875
 20
-6.693094730377197
 30
-43.94426727294922
 10
-999.9998779296875
 20
-6.888814449310302
 30
-44.95366668701172
 10
-999.9998779296875
 20
-34.99991226196289
 30
-21.50000381469727
 10
-999.9998779296875
 20
-41.14276885986328
 30
-6.06154441833496
 10
-999.9998779296875
 20
-37.92818069458008
 30
-7.605391979217529
 10
-999.9998779296875
 20
-36.44597244262695
 30
-9.753846168518066
 10
-999.9998779296875
 20
-36.09002304077149
 30
-11.01778507232666
 10
-999.9998779296875
 20
-41.99990844726563
 30
-5.071800231933593
 10
-999.9998779296875
 20
-2.999906778335571
 30
-55.0
 10
-999.9998779296875
 20
0.0000941383696045
 30
-55.0
 10
-999.9998779296875
 20
0.0000893460673979
 30
-21.99998664855957
 10
-999.9998779296875
 20
0.0000920247111935
 30
-30.82257843017578
 10
-999.9998779296875
 20
-24.88919258117676
 30
-17.46676445007324
 10
-999.9998779296875
 20
-1.980390548706054
 30
-26.53281784057617
 10
-999.9998779296875
 20
-1.980026483535766
 30
-23.58998870849609
 10
-999.9998779296875
 20
-2.589591026306152
 30
-24.96686935424805
 10
-999.9998779296875
 20
-2.420022964477539
 30
-24.21856689453125
 10
-999.9998779296875
 20
-41.66804504394531
 30
-5.806304931640625
 10
-999.9998779296875
 20
-41.37199401855468
 30
-5.999984741210937
 10
-999.9998779296875
 20
-3.865946054458618
 30
-54.49995422363281
 10
-999.9998779296875
 20
-3.70701241493225
 30
-54.70710754394531
 10
-999.9998779296875
 20
-3.49985909461975
 30
-54.86603927612304
 10
-999.9998779296875
 20
-35.8659553527832
 30
-20.99995613098144
 10
-999.9998779296875
 20
-35.49986648559571
 30
-21.36604309082031
 10
-999.9998779296875
 20
-35.25877761840821
 30
-21.46590614318848
 10
-999.9998779296875
 20
-6.63477087020874
 30
-45.49273681640625
 10
999.9999389648436
 20
-3.999992132186889
 30
-54.0
 10
999.9999389648436
 20
0.0000089382101578
 30
-55.0
 10
999.9999389648436
 20
-3.99999451637268
 30
-48.5
 10
999.9999389648436
 20
-29.99999618530273
 30
0.0000030993685414
 10
999.9999389648436
 20
-41.99999618530273
 30
-0.0000036717506191
 10
999.9999389648436
 20
-41.99999618530273
 30
-5.071800231933593
 10
999.9999389648436
 20
-41.93037033081054
 30
-5.418666839599609
 10
999.9999389648436
 20
-41.66813278198242
 30
-5.806304931640625
 10
999.9999389648436
 20
-41.37208175659179
 30
-5.999984741210937
 10
999.9999389648436
 20
-41.14285659790039
 30
-6.06154441833496
 10
999.9999389648436
 20
-40.18358993530273
 30
-6.291045665740966
 10
999.9999389648436
 20
-38.98346328735352
 30
-6.823907375335693
 10
999.9999389648436
 20
-37.92827224731445
 30
-7.605391979217529
 10
999.9999389648436
 20
-37.06879043579102
 30
-8.5978364944458
 10
999.9999389648436
 20
-36.44606399536133
 30
-9.753844261169433
 10
999.9999389648436
 20
-36.09011459350586
 30
-11.01778507232666
 10
999.9999389648436
 20
-35.99999618530274
 30
-11.99999904632568
 10
999.9999389648436
 20
-27.2061939239502
 30
-15.84444522857666
 10
999.9999389648436
 20
-36.00000381469727
 30
-20.50000381469727
 10
999.9999389648436
 20
-35.96590805053711
 30
-20.75886535644531
 10
999.9999389648436
 20
-35.86604690551758
 30
-20.99995613098144
 10
999.9999389648436
 20
-27.04228019714356
 30
-16.33916282653808
 10
999.9999389648436
 20
-35.70711135864258
 30
-21.20711135864258
 10
999.9999389648436
 20
-35.49995803833008
 30
-21.36604309082031
 10
999.9999389648436
 20
-26.64542579650879
 30
-16.90595817565918
 10
999.9999389648436
 20
-35.25886917114258
 30
-21.46590614318848
 10
999.9999389648436
 20
-35.00000381469727
 30
-21.50000381469727
 10
999.9999389648436
 20
-26.07857131958008
 30
-17.30287742614746
 10
999.9999389648436
 20
-25.41022300720215
 30
-17.4819393157959
 10
999.9999389648436
 20
-30.67424964904785
 30
-21.61298561096192
 10
999.9999389648436
 20
-30.82540702819824
 30
-22.3945140838623
 10
999.9999389648436
 20
-30.96845054626465
 30
-23.10378456115723
 10
999.9999389648436
 20
-30.99424934387207
 30
-23.74398231506348
 10
999.9999389648436
 20
-30.91756248474121
 30
-24.32781028747559
 10
999.9999389648436
 20
-30.74611473083496
 30
-24.87428665161133
 10
999.9999389648436
 20
-30.47347450256348
 30
-25.39687156677246
 10
999.9999389648436
 20
-24.88928031921387
 30
-17.46676445007324
 10
999.9999389648436
 20
-21.75213813781738
 30
-24.2410888671875
 10
999.9999389648436
 20
-20.53461265563965
 30
-23.76372337341309
 10
999.9999389648436
 20
-19.30602264404297
 30
-23.48772430419922
 10
999.9999389648436
 20
-23.99699592590332
 30
-25.61080741882324
 10
999.9999389648436
 20
-22.92270469665528
 30
-24.89724159240723
 10
999.9999389648436
 20
-24.98448371887207
 30
-26.23832130432129
 10
999.9999389648436
 20
-25.83218574523926
 30
-26.66961479187012
 10
999.9999389648436
 20
-27.29903984069824
 30
-27.01807594299316
 10
999.9999389648436
 20
-26.58070945739746
 30
-26.91412162780762
 10
999.9999389648436
 20
-30.1194019317627
 30
-25.86147117614746
 10
999.9999389648436
 20
-29.6790599822998
 30
-26.27104759216309
 10
999.9999389648436
 20
-28.58878517150879
 30
-26.85152626037598
 10
999.9999389648436
 20
-27.96436500549317
 30
-26.99263191223145
 10
999.9999389648436
 20
-29.1599178314209
 30
-26.60895347595215
 10
999.9999389648436
 20
0.0000052732821132
 30
-13.07811164855957
 10
999.9999389648436
 20
-18.03947257995605
 30
-23.39919090270996
 10
999.9999389648436
 20
-16.71049308776855
 30
-23.4987850189209
 10
999.9999389648436
 20
-15.31888198852539
 30
-23.80131912231445
 10
999.9999389648436
 20
-13.88701820373535
 30
-24.32523536682129
 10
999.9999389648436
 20
0.0000022385600005
 30
-21.99998664855957
 10
999.9999389648436
 20
-12.49434661865234
 30
-25.06245994567871
 10
999.9999389648436
 20
-1.980115413665771
 30
-23.58998870849609
 10
999.9999389648436
 20
-11.17816925048828
 30
-26.00268173217774
 10
999.9999389648436
 20
-2.42011022567749
 30
-24.21856689453125
 10
999.9999389648436
 20
-2.589678287506103
 30
-24.96686935424805
 10
999.9999389648436
 20
-9.982831954956054
 30
-27.11369705200195
 10
999.9999389648436
 20
-2.463625431060791
 30
-25.72371673583984
 10
999.9999389648436
 20
-8.92146873474121
 30
-28.39077377319336
 10
999.9999389648436
 20
-1.980477571487426
 30
-26.53281784057617
 10
999.9999389648436
 20
-8.053883552551269
 30
-29.74947547912598
 10
999.9999389648436
 20
-1.184022068977355
 30
-27.82822418212891
 10
999.9999389648436
 20
-7.507843494415283
 30
-30.84859466552734
 10
999.9999389648436
 20
-0.4787950217723847
 30
-29.40133666992188
 10
999.9999389648436
 20
-7.052836894989013
 30
-32.00890731811524
 10
999.9999389648436
 20
0.0000068245526563
 30
-30.82257843017578
 10
999.9999389648436
 20
-6.675281047821044
 30
-33.27024459838867
 10
999.9999389648436
 20
-6.381289005279541
 30
-34.64884567260742
 10
999.9999389648436
 20
-6.181987762451171
 30
-36.15927505493164
 10
999.9999389648436
 20
-6.092462539672851
 30
-37.81721115112305
 10
999.9999389648436
 20
-3.499947309494018
 30
-54.86603927612304
 10
999.9999389648436
 20
-3.258855581283569
 30
-54.96590423583985
 10
999.9999389648436
 20
-2.999994039535522
 30
-55.0
 10
999.9999389648436
 20
-3.707099676132202
 30
-54.70710754394531
 10
999.9999389648436
 20
-3.866033315658569
 30
-54.49995422363281
 10
999.9999389648436
 20
-3.965896368026733
 30
-54.25886154174804
 10
999.9999389648436
 20
-4.036121368408203
 30
-48.035888671875
 10
999.9999389648436
 20
-6.120025634765625
 30
-39.44089508056641
 10
999.9999389648436
 20
-6.233808517456054
 30
-40.8719253540039
 10
999.9999389648436
 20
-6.42893362045288
 30
-42.37580108642577
 10
999.9999389648436
 20
-6.69318151473999
 30
-43.94426727294922
 10
999.9999389648436
 20
-4.319936752319335
 30
-47.15193176269531
 10
999.9999389648436
 20
-4.143659591674804
 30
-47.58278274536133
 10
999.9999389648436
 20
-4.860435485839843
 30
-46.39709091186523
 10
999.9999389648436
 20
-4.560762405395507
 30
-46.75355148315429
 10
999.9999389648436
 20
-5.605679035186767
 30
-45.84371948242187
 10
999.9999389648436
 20
-5.211520671844482
 30
-46.09140014648438
 10
999.9999389648436
 20
-6.484575748443603
 30
-45.54460906982422
 10
999.9999389648436
 20
-6.033571720123291
 30
-45.65993499755859
 10
999.9999389648436
 20
-6.888901233673095
 30
-44.95366668701172
 10
999.9999389648436
 20
-6.894995212554931
 30
-45.11253356933593
 10
999.9999389648436
 20
-6.761213779449462
 30
-45.39635467529296
 10
999.9999389648436
 20
-6.634858608245849
 30
-45.49273681640625
 10
999.9999389648436
 20
-6.850937366485595
 30
-45.26522064208984
 10
-999.9998779296875
 20
-3.999904870986938
 30
-54.0
 10
-999.9998779296875
 20
-4.319849967956542
 30
-47.15193176269531
 10
-999.9998779296875
 20
-4.143572807312011
 30
-47.58278274536133
 10
-999.9998779296875
 20
-30.67416381835938
 30
-21.61298561096192
 10
-999.9998779296875
 20
-30.82532119750977
 30
-22.3945140838623
 10
-999.9998779296875
 20
-30.9174747467041
 30
-24.32781410217285
 10
-999.9998779296875
 20
-30.74602699279785
 30
-24.87428855895996
 10
-999.9998779296875
 20
-30.47338676452637
 30
-25.39687538146973
 10
-999.9998779296875
 20
-29.15983009338379
 30
-26.60895729064942
 10
-999.9998779296875
 20
-28.58869743347168
 30
-26.85152626037598
 10
-999.9998779296875
 20
-26.58062171936035
 30
-26.91412162780762
 10
-999.9998779296875
 20
-20.53452491760254
 30
-23.76372337341309
 10
-999.9998779296875
 20
-18.03938484191894
 30
-23.39919090270996
 10
-999.9998779296875
 20
-15.31879425048828
 30
-23.80131912231445
 10
-999.9998779296875
 20
-13.88693046569824
 30
-24.32523536682129
 10
-999.9998779296875
 20
-12.49425792694092
 30
-25.06245994567871
 10
-999.9998779296875
 20
-9.982743263244628
 30
-27.11369895935059
 10
-999.9998779296875
 20
-8.05379581451416
 30
-29.74947547912598
 10
-999.9998779296875
 20
-7.507757663726806
 30
-30.84859466552734
 10
-999.9998779296875
 20
-7.05275011062622
 30
-32.00890731811524
 10
-999.9998779296875
 20
-6.381202220916748
 30
-34.64884567260742
 10
-999.9998779296875
 20
-6.092375755310058
 30
-37.81721115112305
 10
-999.9998779296875
 20
-6.119938850402832
 30
-39.44089508056641
 10
-999.9998779296875
 20
-6.428846836090087
 30
-42.37580108642577
 10
-999.9998779296875
 20
-35.99990844726562
 30
-12.00000095367431
 10
-999.9998779296875
 20
-35.99991226196289
 30
-20.50000381469727
 10
-999.9998779296875
 20
-40.18350219726563
 30
-6.291045665740966
 10
-999.9998779296875
 20
-38.98337554931641
 30
-6.823907375335693
 10
-999.9998779296875
 20
-37.06869888305664
 30
-8.5978364944458
 10
-999.9998779296875
 20
-41.99990844726563
 30
-0.0000036717547118
 10
-999.9998779296875
 20
-29.99991035461426
 30
0.0000011920158158
 10
-999.9998779296875
 20
0.0000904734406504
 30
-13.07811164855957
 10
-999.9998779296875
 20
-25.41013526916504
 30
-17.4819393157959
 10
-999.9998779296875
 20
-26.07848358154297
 30
-17.30287742614746
 10
-999.9998779296875
 20
-26.64533805847168
 30
-16.90595817565918
 10
-999.9998779296875
 20
-27.04219245910645
 30
-16.33916282653808
 10
-999.9998779296875
 20
-27.20610618591309
 30
-15.84444618225098
 10
-999.9998779296875
 20
-0.4787079393863678
 30
-29.40133666992188
 10
-999.9998779296875
 20
-1.183935046195983
 30
-27.82822418212891
 10
-999.9998779296875
 20
-2.463537216186523
 30
-25.72371673583984
 10
-999.9998779296875
 20
-41.93028259277343
 30
-5.418664932250976
 10
-999.9998779296875
 20
-3.965809106826782
 30
-54.25886154174804
 10
-999.9998779296875
 20
-3.258768320083618
 30
-54.96590423583985
 10
-999.9998779296875
 20
-35.96581649780274
 30
-20.75886535644531
 10
-999.9998779296875
 20
-35.70701980590821
 30
-21.20711135864258
 10
-999.9998779296875
 20
-6.894908428192138
 30
-45.11253356933593
 10
-999.9998779296875
 20
-6.850850582122802
 30
-45.26522064208984
 10
-999.9998779296875
 20
-6.761126995086669
 30
-45.39635467529296
 93
     1182
 90
        4
 90
       56
 90
      181
 90
       33
 90
       57
 90
        4
 90
       57
 90
       33
 90
      192
 90
       58
 90
        4
 90
       58
 90
      192
 90
       43
 90
       59
 90
        4
 90
       59
 90
       43
 90
       44
 90
       60
 90
        4
 90
       60
 90
       44
 90
       29
 90
       61
 90
        4
 90
       61
 90
       29
 90
      178
 90
       62
 90
        4
 90
       62
 90
      178
 90
      179
 90
       63
 90
        4
 90
       63
 90
      179
 90
       30
 90
       64
 90
        4
 90
       64
 90
       30
 90
      180
 90
       65
 90
        4
 90
       65
 90
      180
 90
       31
 90
       66
 90
        4
 90
       66
 90
       31
 90
       32
 90
       67
 90
        4
 90
       67
 90
       32
 90
      176
 90
       68
 90
        4
 90
       68
 90
      176
 90
      177
 90
       70
 90
        4
 90
       70
 90
      177
 90
      195
 90
       71
 90
        4
 90
       71
 90
      195
 90
       48
 90
       72
 90
        4
 90
       72
 90
       48
 90
      196
 90
       74
 90
        4
 90
       74
 90
      196
 90
       49
 90
       75
 90
        4
 90
       75
 90
       49
 90
       50
 90
       77
 90
        4
 90
       77
 90
       50
 90
       28
 90
       78
 90
        4
 90
       78
 90
       28
 90
      155
 90
       81
 90
        4
 90
       81
 90
      155
 90
      156
 90
       82
 90
        4
 90
       82
 90
      156
 90
        8
 90
       83
 90
        4
 90
       83
 90
        8
 90
        9
 90
       84
 90
        4
 90
       84
 90
        9
 90
      157
 90
       85
 90
        4
 90
       85
 90
      157
 90
      158
 90
       86
 90
        4
 90
       86
 90
      158
 90
      159
 90
       87
 90
        4
 90
       87
 90
      159
 90
       10
 90
       98
 90
        4
 90
       98
 90
       10
 90
       11
 90
       99
 90
        4
 90
       99
 90
       11
 90
      160
 90
      102
 90
        4
 90
      102
 90
      160
 90
      161
 90
      100
 90
        4
 90
      100
 90
      161
 90
       12
 90
      101
 90
        4
 90
      101
 90
       12
 90
       13
 90
       96
 90
        4
 90
       96
 90
       13
 90
      162
 90
       97
 90
        4
 90
       97
 90
      162
 90
       14
 90
       95
 90
        4
 90
       95
 90
       14
 90
       15
 90
       94
 90
        4
 90
       94
 90
       15
 90
       16
 90
       92
 90
        4
 90
       92
 90
       16
 90
       17
 90
       93
 90
        4
 90
       93
 90
       17
 90
       18
 90
       89
 90
        4
 90
       89
 90
       18
 90
      163
 90
       90
 90
        4
 90
       90
 90
      163
 90
       19
 90
       91
 90
        4
 90
       91
 90
       19
 90
      164
 90
      104
 90
        4
 90
      104
 90
      164
 90
       20
 90
      105
 90
        4
 90
      105
 90
       20
 90
      165
 90
      106
 90
        4
 90
      106
 90
      165
 90
      166
 90
      107
 90
        4
 90
      107
 90
      166
 90
      167
 90
      109
 90
        4
 90
      109
 90
      167
 90
       21
 90
      111
 90
        4
 90
      111
 90
       21
 90
      168
 90
      114
 90
        4
 90
      114
 90
      168
 90
       22
 90
      116
 90
        4
 90
      116
 90
       22
 90
      169
 90
      118
 90
        4
 90
      118
 90
      169
 90
      170
 90
      120
 90
        4
 90
      120
 90
      170
 90
      171
 90
      122
 90
        4
 90
      122
 90
      171
 90
       23
 90
      124
 90
        4
 90
      124
 90
       23
 90
      172
 90
      125
 90
        4
 90
      125
 90
      172
 90
       24
 90
      126
 90
        4
 90
      126
 90
       24
 90
      173
 90
      127
 90
        4
 90
      127
 90
      173
 90
      174
 90
      135
 90
        4
 90
      135
 90
      174
 90
       25
 90
      136
 90
        4
 90
      136
 90
       25
 90
      175
 90
      137
 90
        4
 90
      137
 90
      175
 90
       26
 90
      138
 90
        4
 90
      138
 90
       26
 90
       27
 90
      147
 90
        4
 90
      147
 90
       27
 90
      197
 90
      148
 90
        4
 90
      148
 90
      197
 90
      198
 90
      151
 90
        4
 90
      151
 90
      198
 90
      199
 90
      149
 90
        4
 90
      149
 90
      199
 90
       51
 90
      150
 90
        4
 90
      150
 90
       51
 90
        1
 90
      145
 90
        4
 90
      145
 90
        1
 90
        2
 90
      146
 90
        4
 90
      146
 90
        2
 90
        3
 90
      143
 90
        4
 90
      143
 90
        3
 90
        4
 90
      144
 90
        4
 90
      144
 90
        4
 90
        5
 90
      141
 90
        4
 90
      141
 90
        5
 90
        6
 90
      142
 90
        4
 90
      142
 90
        6
 90
      153
 90
      139
 90
        4
 90
      139
 90
      153
 90
      154
 90
      140
 90
        4
 90
      140
 90
      154
 90
        7
 90
      134
 90
        4
 90
      134
 90
        7
 90
        0
 90
       54
 90
        4
 90
       54
 90
        0
 90
      152
 90
       52
 90
        4
 90
       52
 90
      152
 90
      193
 90
      133
 90
        4
 90
      133
 90
      193
 90
       45
 90
      132
 90
        4
 90
      132
 90
       45
 90
       46
 90
      131
 90
        4
 90
      131
 90
       46
 90
       47
 90
      128
 90
        4
 90
      128
 90
       47
 90
      194
 90
      129
 90
        4
 90
      129
 90
      194
 90
       34
 90
      130
 90
        4
 90
      130
 90
       34
 90
       35
 90
       53
 90
        4
 90
       53
 90
       35
 90
       37
 90
      123
 90
        4
 90
      123
 90
       37
 90
      189
 90
      121
 90
        4
 90
      121
 90
      189
 90
      190
 90
      119
 90
        4
 90
      119
 90
      190
 90
       39
 90
      117
 90
        4
 90
      117
 90
       39
 90
      191
 90
      115
 90
        4
 90
      115
 90
      191
 90
       41
 90
      113
 90
        4
 90
      113
 90
       41
 90
       42
 90
      112
 90
        4
 90
      112
 90
       42
 90
       40
 90
      110
 90
        4
 90
      110
 90
       40
 90
       36
 90
      108
 90
        4
 90
      108
 90
       36
 90
      183
 90
      103
 90
        4
 90
      103
 90
      183
 90
       38
 90
       88
 90
        4
 90
       88
 90
       38
 90
      184
 90
       80
 90
        4
 90
       80
 90
      184
 90
      185
 90
       79
 90
        4
 90
       79
 90
      185
 90
      186
 90
       76
 90
        4
 90
       76
 90
      186
 90
      187
 90
       73
 90
        4
 90
       73
 90
      187
 90
      188
 90
       69
 90
        4
 90
       69
 90
      188
 90
      182
 90
       55
 90
        4
 90
       55
 90
      182
 90
      181
 90
       56
 90
        3
 90
       52
 90
       53
 90
       54
 90
        3
 90
       55
 90
       56
 90
       57
 90
        3
 90
       55
 90
       57
 90
       58
 90
        3
 90
       55
 90
       58
 90
       59
 90
        3
 90
       55
 90
       59
 90
       60
 90
        3
 90
       55
 90
       60
 90
       61
 90
        3
 90
       55
 90
       61
 90
       62
 90
        3
 90
       55
 90
       62
 90
       63
 90
        3
 90
       55
 90
       63
 90
       64
 90
        3
 90
       55
 90
       64
 90
       65
 90
        3
 90
       55
 90
       65
 90
       66
 90
        3
 90
       55
 90
       66
 90
       67
 90
        3
 90
       55
 90
       67
 90
       68
 90
        4
 90
       69
 90
       55
 90
       68
 90
       70
 90
        3
 90
       69
 90
       70
 90
       71
 90
        3
 90
       69
 90
       71
 90
       72
 90
        4
 90
       73
 90
       69
 90
       72
 90
       74
 90
        3
 90
       73
 90
       74
 90
       75
 90
        4
 90
       76
 90
       73
 90
       75
 90
       77
 90
        3
 90
       76
 90
       77
 90
       78
 90
        4
 90
       79
 90
       76
 90
       78
 90
       81
 90
        4
 90
       80
 90
       79
 90
       81
 90
       82
 90
        3
 90
       80
 90
       82
 90
       83
 90
        3
 90
       80
 90
       83
 90
       84
 90
        3
 90
       80
 90
       84
 90
       85
 90
        3
 90
       80
 90
       85
 90
       86
 90
        3
 90
       80
 90
       86
 90
       87
 90
        3
 90
       88
 90
       89
 90
       90
 90
        3
 90
       88
 90
       90
 90
       91
 90
        3
 90
       88
 90
       92
 90
       93
 90
        3
 90
       88
 90
       93
 90
       89
 90
        3
 90
       88
 90
       94
 90
       92
 90
        3
 90
       88
 90
       95
 90
       94
 90
        3
 90
       88
 90
       96
 90
       97
 90
        3
 90
       88
 90
       97
 90
       95
 90
        3
 90
       80
 90
       87
 90
       98
 90
        3
 90
       80
 90
       98
 90
       99
 90
        3
 90
       88
 90
      100
 90
      101
 90
        3
 90
       88
 90
      101
 90
       96
 90
        4
 90
       88
 90
       80
 90
      102
 90
      100
 90
        3
 90
       80
 90
       99
 90
      102
 90
        4
 90
      103
 90
       88
 90
       91
 90
      104
 90
        3
 90
      103
 90
      104
 90
      105
 90
        3
 90
      103
 90
      105
 90
      106
 90
        3
 90
      103
 90
      106
 90
      107
 90
        4
 90
      108
 90
      103
 90
      107
 90
      109
 90
        4
 90
      110
 90
      108
 90
      109
 90
      111
 90
        3
 90
      112
 90
      110
 90
      111
 90
        4
 90
      113
 90
      112
 90
      111
 90
      114
 90
        4
 90
      115
 90
      113
 90
      114
 90
      116
 90
        4
 90
      117
 90
      115
 90
      116
 90
      118
 90
        4
 90
      119
 90
      117
 90
      118
 90
      120
 90
        4
 90
      121
 90
      119
 90
      120
 90
      122
 90
        4
 90
      123
 90
      121
 90
      122
 90
      124
 90
        3
 90
      123
 90
      124
 90
      125
 90
        3
 90
      123
 90
      125
 90
      126
 90
        3
 90
      123
 90
      126
 90
      127
 90
        4
 90
      128
 90
      129
 90
      130
 90
       53
 90
        3
 90
      131
 90
      128
 90
       53
 90
        3
 90
      132
 90
      131
 90
       53
 90
        3
 90
      133
 90
      132
 90
       53
 90
        3
 90
       52
 90
      133
 90
       53
 90
        4
 90
       53
 90
      123
 90
      134
 90
       54
 90
        3
 90
      123
 90
      127
 90
      135
 90
        3
 90
      123
 90
      135
 90
      136
 90
        3
 90
      123
 90
      136
 90
      137
 90
        3
 90
      123
 90
      137
 90
      138
 90
        3
 90
      123
 90
      139
 90
      140
 90
        3
 90
      123
 90
      140
 90
      134
 90
        3
 90
      123
 90
      141
 90
      142
 90
        3
 90
      123
 90
      142
 90
      139
 90
        3
 90
      123
 90
      143
 90
      144
 90
        3
 90
      123
 90
      144
 90
      141
 90
        3
 90
      123
 90
      145
 90
      146
 90
        3
 90
      123
 90
      146
 90
      143
 90
        3
 90
      123
 90
      138
 90
      147
 90
        3
 90
      123
 90
      147
 90
      148
 90
        3
 90
      123
 90
      149
 90
      150
 90
        3
 90
      123
 90
      150
 90
      145
 90
        3
 90
      123
 90
      148
 90
      151
 90
        3
 90
      123
 90
      151
 90
      149
 90
        3
 90
      152
 90
        0
 90
       35
 90
        3
 90
      182
 90
       33
 90
      181
 90
        3
 90
      182
 90
      192
 90
       33
 90
        3
 90
      182
 90
       43
 90
      192
 90
        3
 90
      182
 90
       44
 90
       43
 90
        3
 90
      182
 90
       29
 90
       44
 90
        3
 90
      182
 90
      178
 90
       29
 90
        3
 90
      182
 90
      179
 90
      178
 90
        3
 90
      182
 90
       30
 90
      179
 90
        3
 90
      182
 90
      180
 90
       30
 90
        3
 90
      182
 90
       31
 90
      180
 90
        3
 90
      182
 90
       32
 90
       31
 90
        3
 90
      182
 90
      176
 90
       32
 90
        4
 90
      188
 90
      177
 90
      176
 90
      182
 90
        3
 90
      188
 90
      195
 90
      177
 90
        3
 90
      188
 90
       48
 90
      195
 90
        4
 90
      187
 90
      196
 90
       48
 90
      188
 90
        3
 90
      187
 90
       49
 90
      196
 90
        4
 90
      186
 90
       50
 90
       49
 90
      187
 90
        3
 90
      186
 90
       28
 90
       50
 90
        4
 90
      185
 90
      155
 90
       28
 90
      186
 90
        4
 90
      184
 90
      156
 90
      155
 90
      185
 90
        3
 90
      184
 90
        8
 90
      156
 90
        3
 90
      184
 90
        9
 90
        8
 90
        3
 90
      184
 90
      157
 90
        9
 90
        3
 90
      184
 90
      158
 90
      157
 90
        3
 90
      184
 90
      159
 90
      158
 90
        3
 90
       38
 90
      163
 90
       18
 90
        3
 90
       38
 90
       19
 90
      163
 90
        3
 90
       38
 90
       17
 90
       16
 90
        3
 90
       38
 90
       18
 90
       17
 90
        3
 90
       38
 90
       16
 90
       15
 90
        3
 90
       38
 90
       15
 90
       14
 90
        3
 90
       38
 90
      162
 90
       13
 90
        3
 90
       38
 90
       14
 90
      162
 90
        3
 90
      184
 90
       10
 90
      159
 90
        3
 90
      184
 90
       11
 90
       10
 90
        3
 90
       38
 90
       12
 90
      161
 90
        3
 90
       38
 90
       13
 90
       12
 90
        4
 90
       38
 90
      161
 90
      160
 90
      184
 90
        3
 90
      184
 90
      160
 90
       11
 90
        4
 90
      183
 90
      164
 90
       19
 90
       38
 90
        3
 90
      183
 90
       20
 90
      164
 90
        3
 90
      183
 90
      165
 90
       20
 90
        3
 90
      183
 90
      166
 90
      165
 90
        4
 90
       36
 90
      167
 90
      166
 90
      183
 90
        4
 90
       40
 90
       21
 90
      167
 90
       36
 90
        3
 90
       42
 90
       21
 90
       40
 90
        4
 90
       41
 90
      168
 90
       21
 90
       42
 90
        4
 90
      191
 90
       22
 90
      168
 90
       41
 90
        4
 90
       39
 90
      169
 90
       22
 90
      191
 90
        4
 90
      190
 90
      170
 90
      169
 90
       39
 90
        4
 90
      189
 90
      171
 90
      170
 90
      190
 90
        4
 90
       37
 90
       23
 90
      171
 90
      189
 90
        3
 90
       37
 90
      172
 90
       23
 90
        3
 90
       37
 90
       24
 90
      172
 90
        3
 90
       37
 90
      173
 90
       24
 90
        4
 90
       47
 90
       35
 90
       34
 90
      194
 90
        3
 90
       46
 90
       35
 90
       47
 90
        3
 90
       45
 90
       35
 90
       46
 90
        3
 90
      193
 90
       35
 90
       45
 90
        3
 90
      152
 90
       35
 90
      193
 90
        4
 90
       35
 90
        0
 90
        7
 90
       37
 90
        3
 90
       37
 90
      174
 90
      173
 90
        3
 90
       37
 90
       25
 90
      174
 90
        3
 90
       37
 90
      175
 90
       25
 90
        3
 90
       37
 90
       26
 90
      175
 90
        3
 90
       37
 90
      154
 90
      153
 90
        3
 90
       37
 90
        7
 90
      154
 90
        3
 90
       37
 90
        6
 90
        5
 90
        3
 90
       37
 90
      153
 90
        6
 90
        3
 90
       37
 90
        4
 90
        3
 90
        3
 90
       37
 90
        5
 90
        4
 90
        3
 90
       37
 90
        2
 90
        1
 90
        3
 90
       37
 90
        3
 90
        2
 90
        3
 90
       37
 90
       27
 90
       26
 90
        3
 90
       37
 90
      197
 90
       27
 90
        3
 90
       37
 90
       51
 90
      199
 90
        3
 90
       37
 90
        1
 90
       51
 90
        3
 90
       37
 90
      198
 90
      197
 90
        3
 90
       37
 90
      199
 90
      198
 94
      460
 90
       56
 90
      181
 90
       33
 90
      181
 90
       33
 90
       57
 90
       56
 90
       57
 90
       33
 90
      192
 90
       58
 90
      192
 90
       57
 90
       58
 90
       43
 90
      192
 90
       43
 90
       59
 90
       58
 90
       59
 90
       43
 90
       44
 90
       44
 90
       60
 90
       59
 90
       60
 90
       29
 90
       44
 90
       29
 90
       61
 90
       60
 90
       61
 90
       29
 90
      178
 90
       62
 90
      178
 90
       61
 90
       62
 90
      178
 90
      179
 90
       63
 90
      179
 90
       62
 90
       63
 90
       30
 90
      179
 90
       30
 90
       64
 90
       63
 90
       64
 90
       30
 90
      180
 90
       65
 90
      180
 90
       64
 90
       65
 90
       31
 90
      180
 90
       31
 90
       66
 90
       65
 90
       66
 90
       31
 90
       32
 90
       32
 90
       67
 90
       66
 90
       67
 90
       32
 90
      176
 90
       68
 90
      176
 90
       67
 90
       68
 90
      176
 90
      177
 90
       70
 90
      177
 90
       68
 90
       70
 90
      177
 90
      195
 90
       71
 90
      195
 90
       70
 90
       71
 90
       48
 90
      195
 90
       48
 90
       72
 90
       71
 90
       72
 90
       48
 90
      196
 90
       74
 90
      196
 90
       72
 90
       74
 90
       49
 90
      196
 90
       49
 90
       75
 90
       74
 90
       75
 90
       49
 90
       50
 90
       50
 90
       77
 90
       75
 90
       77
 90
       28
 90
       50
 90
       28
 90
       78
 90
       77
 90
       78
 90
       28
 90
      155
 90
       81
 90
      155
 90
       78
 90
       81
 90
      155
 90
      156
 90
       82
 90
      156
 90
       81
 90
       82
 90
        8
 90
      156
 90
        8
 90
       83
 90
       82
 90
       83
 90
        8
 90
        9
 90
        9
 90
       84
 90
       83
 90
       84
 90
        9
 90
      157
 90
       85
 90
      157
 90
       84
 90
       85
 90
      157
 90
      158
 90
       86
 90
      158
 90
       85
 90
       86
 90
      158
 90
      159
 90
       87
 90
      159
 90
       86
 90
       87
 90
       10
 90
      159
 90
       10
 90
       98
 90
       87
 90
       98
 90
       10
 90
       11
 90
       11
 90
       99
 90
       98
 90
       99
 90
       11
 90
      160
 90
      102
 90
      160
 90
       99
 90
      102
 90
      160
 90
      161
 90
      100
 90
      161
 90
      100
 90
      102
 90
       12
 90
      161
 90
       12
 90
      101
 90
      100
 90
      101
 90
       12
 90
       13
 90
       13
 90
       96
 90
       96
 90
      101
 90
       13
 90
      162
 90
       97
 90
      162
 90
       96
 90
       97
 90
       14
 90
      162
 90
       14
 90
       95
 90
       95
 90
       97
 90
       14
 90
       15
 90
       15
 90
       94
 90
       94
 90
       95
 90
       15
 90
       16
 90
       16
 90
       92
 90
       92
 90
       94
 90
       16
 90
       17
 90
       17
 90
       93
 90
       92
 90
       93
 90
       17
 90
       18
 90
       18
 90
       89
 90
       89
 90
       93
 90
       18
 90
      163
 90
       90
 90
      163
 90
       89
 90
       90
 90
       19
 90
      163
 90
       19
 90
       91
 90
       90
 90
       91
 90
       19
 90
      164
 90
      104
 90
      164
 90
       91
 90
      104
 90
       20
 90
      164
 90
       20
 90
      105
 90
      104
 90
      105
 90
       20
 90
      165
 90
      106
 90
      165
 90
      105
 90
      106
 90
      165
 90
      166
 90
      107
 90
      166
 90
      106
 90
      107
 90
      166
 90
      167
 90
      109
 90
      167
 90
      107
 90
      109
 90
       21
 90
      167
 90
       21
 90
      111
 90
      109
 90
      111
 90
       21
 90
      168
 90
      114
 90
      168
 90
      111
 90
      114
 90
       22
 90
      168
 90
       22
 90
      116
 90
      114
 90
      116
 90
       22
 90
      169
 90
      118
 90
      169
 90
      116
 90
      118
 90
      169
 90
      170
 90
      120
 90
      170
 90
      118
 90
      120
 90
      170
 90
      171
 90
      122
 90
      171
 90
      120
 90
      122
 90
       23
 90
      171
 90
       23
 90
      124
 90
      122
 90
      124
 90
       23
 90
      172
 90
      125
 90
      172
 90
      124
 90
      125
 90
       24
 90
      172
 90
       24
 90
      126
 90
      125
 90
      126
 90
       24
 90
      173
 90
      127
 90
      173
 90
      126
 90
      127
 90
      173
 90
      174
 90
      135
 90
      174
 90
      127
 90
      135
 90
       25
 90
      174
 90
       25
 90
      136
 90
      135
 90
      136
 90
       25
 90
      175
 90
      137
 90
      175
 90
      136
 90
      137
 90
       26
 90
      175
 90
       26
 90
      138
 90
      137
 90
      138
 90
       26
 90
       27
 90
       27
 90
      147
 90
      138
 90
      147
 90
       27
 90
      197
 90
      148
 90
      197
 90
      147
 90
      148
 90
      197
 90
      198
 90
      151
 90
      198
 90
      148
 90
      151
 90
      198
 90
      199
 90
      149
 90
      199
 90
      149
 90
      151
 90
       51
 90
      199
 90
       51
 90
      150
 90
      149
 90
      150
 90
        1
 90
       51
 90
        1
 90
      145
 90
      145
 90
      150
 90
        1
 90
        2
 90
        2
 90
      146
 90
      145
 90
      146
 90
        2
 90
        3
 90
        3
 90
      143
 90
      143
 90
      146
 90
        3
 90
        4
 90
        4
 90
      144
 90
      143
 90
      144
 90
        4
 90
        5
 90
        5
 90
      141
 90
      141
 90
      144
 90
        5
 90
        6
 90
        6
 90
      142
 90
      141
 90
      142
 90
        6
 90
      153
 90
      139
 90
      153
 90
      139
 90
      142
 90
      153
 90
      154
 90
      140
 90
      154
 90
      139
 90
      140
 90
        7
 90
      154
 90
        7
 90
      134
 90
      134
 90
      140
 90
        0
 90
        7
 90
        0
 90
       54
 90
       54
 90
      134
 90
        0
 90
      152
 90
       52
 90
      152
 90
       52
 90
       54
 90
      152
 90
      193
 90
      133
 90
      193
 90
       52
 90
      133
 90
       45
 90
      193
 90
       45
 90
      132
 90
      132
 90
      133
 90
       45
 90
       46
 90
       46
 90
      131
 90
      131
 90
      132
 90
       46
 90
       47
 90
       47
 90
      128
 90
      128
 90
      131
 90
       47
 90
      194
 90
      129
 90
      194
 90
      128
 90
      129
 90
       34
 90
      194
 90
       34
 90
      130
 90
      129
 90
      130
 90
       34
 90
       35
 90
       35
 90
       53
 90
       53
 90
      130
 90
       35
 90
       37
 90
       37
 90
      123
 90
       53
 90
      123
 90
       37
 90
      189
 90
      121
 90
      189
 90
      121
 90
      123
 90
      189
 90
      190
 90
      119
 90
      190
 90
      119
 90
      121
 90
       39
 90
      190
 90
       39
 90
      117
 90
      117
 90
      119
 90
       39
 90
      191
 90
      115
 90
      191
 90
      115
 90
      117
 90
       41
 90
      191
 90
       41
 90
      113
 90
      113
 90
      115
 90
       41
 90
       42
 90
       42
 90
      112
 90
      112
 90
      113
 90
       40
 90
       42
 90
       40
 90
      110
 90
      110
 90
      112
 90
       36
 90
       40
 90
       36
 90
      108
 90
      108
 90
      110
 90
       36
 90
      183
 90
      103
 90
      183
 90
      103
 90
      108
 90
       38
 90
      183
 90
       38
 90
       88
 90
       88
 90
      103
 90
       38
 90
      184
 90
       80
 90
      184
 90
       80
 90
       88
 90
      184
 90
      185
 90
       79
 90
      185
 90
       79
 90
       80
 90
      185
 90
      186
 90
       76
 90
      186
 90
       76
 90
       79
 90
      186
 90
      187
 90
       73
 90
      187
 90
       73
 90
       76
 90
      187
 90
      188
 90
       69
 90
      188
 90
       69
 90
       73
 90
      182
 90
      188
 90
       55
 90
      182
 90
       55
 90
       69
 90
      181
 90
      182
 90
       55
 90
       56
 90
       52
 90
       53
 90
       53
 90
       54
 90
       55
 90
       57
 90
       55
 90
       58
 90
       55
 90
       59
 90
       55
 90
       60
 90
       55
 90
       61
 90
       55
 90
       62
 90
       55
 90
       63
 90
       55
 90
       64
 90
       55
 90
       65
 90
       55
 90
       66
 90
       55
 90
       67
 90
       55
 90
       68
 90
       69
 90
       70
 90
       69
 90
       71
 90
       69
 90
       72
 90
       73
 90
       74
 90
       73
 90
       75
 90
       76
 90
       77
 90
       76
 90
       78
 90
       79
 90
       81
 90
       80
 90
       82
 90
       80
 90
       83
 90
       80
 90
       84
 90
       80
 90
       85
 90
       80
 90
       86
 90
       80
 90
       87
 90
       88
 90
       89
 90
       88
 90
       90
 90
       88
 90
       91
 90
       88
 90
       92
 90
       88
 90
       93
 90
       88
 90
       94
 90
       88
 90
       95
 90
       88
 90
       96
 90
       88
 90
       97
 90
       80
 90
       98
 90
       80
 90
       99
 90
       88
 90
      100
 90
       88
 90
      101
 90
       80
 90
      102
 90
      103
 90
      104
 90
      103
 90
      105
 90
      103
 90
      106
 90
      103
 90
      107
 90
      108
 90
      109
 90
      110
 90
      111
 90
      111
 90
      112
 90
      113
 90
      114
 90
      115
 90
      116
 90
      117
 90
      118
 90
      119
 90
      120
 90
      121
 90
      122
 90
      123
 90
      124
 90
      123
 90
      125
 90
      123
 90
      126
 90
      123
 90
      127
 90
       53
 90
      128
 90
       53
 90
      131
 90
       53
 90
      132
 90
       53
 90
      133
 90
      123
 90
      134
 90
      123
 90
      135
 90
      123
 90
      136
 90
      123
 90
      137
 90
      123
 90
      138
 90
      123
 90
      139
 90
      123
 90
      140
 90
      123
 90
      141
 90
      123
 90
      142
 90
      123
 90
      143
 90
      123
 90
      144
 90
      123
 90
      145
 90
      123
 90
      146
 90
      123
 90
      147
 90
      123
 90
      148
 90
      123
 90
      149
 90
      123
 90
      150
 90
      123
 90
      151
 90
        0
 90
       35
 90
       35
 90
      152
 90
       33
 90
      182
 90
      182
 90
      192
 90
       43
 90
      182
 90
       44
 90
      182
 90
       29
 90
      182
 90
      178
 90
      182
 90
      179
 90
      182
 90
       30
 90
      182
 90
      180
 90
      182
 90
       31
 90
      182
 90
       32
 90
      182
 90
      176
 90
      182
 90
      177
 90
      188
 90
      188
 90
      195
 90
       48
 90
      188
 90
      187
 90
      196
 90
       49
 90
      187
 90
       50
 90
      186
 90
       28
 90
      186
 90
      155
 90
      185
 90
      156
 90
      184
 90
        8
 90
      184
 90
        9
 90
      184
 90
      157
 90
      184
 90
      158
 90
      184
 90
      159
 90
      184
 90
       38
 90
      163
 90
       18
 90
       38
 90
       19
 90
       38
 90
       17
 90
       38
 90
       16
 90
       38
 90
       15
 90
       38
 90
       14
 90
       38
 90
       38
 90
      162
 90
       13
 90
       38
 90
       10
 90
      184
 90
       11
 90
      184
 90
       12
 90
       38
 90
       38
 90
      161
 90
      160
 90
      184
 90
      164
 90
      183
 90
       20
 90
      183
 90
      165
 90
      183
 90
      166
 90
      183
 90
       36
 90
      167
 90
       21
 90
       40
 90
       21
 90
       42
 90
       41
 90
      168
 90
       22
 90
      191
 90
       39
 90
      169
 90
      170
 90
      190
 90
      171
 90
      189
 90
       23
 90
       37
 90
       37
 90
      172
 90
       24
 90
       37
 90
       37
 90
      173
 90
       35
 90
       47
 90
       35
 90
       46
 90
       35
 90
       45
 90
       35
 90
      193
 90
        7
 90
       37
 90
       37
 90
      174
 90
       25
 90
       37
 90
       37
 90
      175
 90
       26
 90
       37
 90
       37
 90
      154
 90
       37
 90
      153
 90
        6
 90
       37
 90
        5
 90
       37
 90
        4
 90
       37
 90
        3
 90
       37
 90
        2
 90
       37
 90
        1
 90
       37
 90
       27
 90
       37
 90
       37
 90
      197
 90
       37
 90
       51
 90
       37
 90
      199
 90
       37
 90
      198
 95
      460
140
0.0
140
0.0
140
0.0
140
0.0
140
0.0
140
0.0
140
0.0
140
0.0
140
0.0
140
0.0
140
0.0
140
0.0
140
0.0
140
0.0
140
0.0
140
0.0
140
0.0
140
0.0
140
0.0
140
0.0
140
0.0
140
0.0
140
0.0
140
0.0
140
0.0
140
0.0
140
0.0
140
0.0
140
0.0
140
0.0
140
0.0
140
0.0
140
0.0
140
0.0
140
0.0
140
0.0
140
0.0
140
0.0
140
0.0
140
0.0
140
0.0
140
0.0
140
0.0
140
0.0
140
0.0
140
0.0
140
0.0
140
0.0
140
0.0
140
0.0
140
0.0
140
0.0
140
0.0
140
0.0
140
0.0
140
0.0
140
0.0
140
0.0
140
0.0
140
0.0
140
0.0
140
0.0
140
0.0
140
0.0
140
0.0
140
0.0
140
0.0
140
0.0
140
0.0
140
0.0
140
0.0
140
0.0
140
0.0
140
0.0
140
0.0
140
0.0
140
0.0
140
0.0
140
0.0
140
0.0
140
0.0
140
0.0
140
0.0
140
0.0
140
0.0
140
0.0
140
0.0
140
0.0
140
0.0
140
0.0
140
0.0
140
0.0
140
0.0
140
0.0
140
0.0
140
0.0
140
0.0
140
0.0
140
0.0
140
0.0
140
0.0
140
0.0
140
0.0
140
0.0
140
0.0
140
0.0
140
0.0
140
0.0
140
0.0
140
0.0
140
0.0
140
0.0
140
0.0
140
0.0
140
0.0
140
0.0
140
0.0
140
0.0
140
0.0
140
0.0
140
0.0
140
0.0
140
0.0
140
0.0
140
0.0
140
0.0
140
0.0
140
0.0
140
0.0
140
0.0
140
0.0
140
0.0
140
0.0
140
0.0
140
0.0
140
0.0
140
0.0
140
0.0
140
0.0
140
0.0
140
0.0
140
0.0
140
0.0
140
0.0
140
0.0
140
0.0
140
0.0
140
0.0
140
0.0
140
0.0
140
0.0
140
0.0
140
0.0
140
0.0
140
0.0
140
0.0
140
0.0
140
0.0
140
0.0
140
0.0
140
0.0
140
0.0
140
0.0
140
0.0
140
0.0
140
0.0
140
0.0
140
0.0
140
0.0
140
0.0
140
0.0
140
0.0
140
0.0
140
0.0
140
0.0
140
0.0
140
0.0
140
0.0
140
0.0
140
0.0
140
0.0
140
0.0
140
0.0
140
0.0
140
0.0
140
0.0
140
0.0
140
0.0
140
0.0
140
0.0
140
0.0
140
0.0
140
0.0
140
0.0
140
0.0
140
0.0
140
0.0
140
0.0
140
0.0
140
0.0
140
0.0
140
0.0
140
0.0
140
0.0
140
0.0
140
0.0
140
0.0
140
0.0
140
0.0
140
0.0
140
0.0
140
0.0
140
0.0
140
0.0
140
0.0
140
0.0
140
0.0
140
0.0
140
0.0
140
0.0
140
0.0
140
0.0
140
0.0
140
0.0
140
0.0
140
0.0
140
0.0
140
0.0
140
0.0
140
0.0
140
0.0
140
0.0
140
0.0
140
0.0
140
0.0
140
0.0
140
0.0
140
0.0
140
0.0
140
0.0
140
0.0
140
0.0
140
0.0
140
0.0
140
0.0
140
0.0
140
0.0
140
0.0
140
0.0
140
0.0
140
0.0
140
0.0
140
0.0
140
0.0
140
0.0
140
0.0
140
0.0
140
0.0
140
0.0
140
0.0
140
0.0
140
0.0
140
0.0
140
0.0
140
0.0
140
0.0
140
0.0
140
0.0
140
0.0
140
0.0
140
0.0
140
0.0
140
0.0
140
0.0
140
0.0
140
0.0
140
0.0
140
0.0
140
0.0
140
0.0
140
0.0
140
0.0
140
0.0
140
0.0
140
0.0
140
0.0
140
0.0
140
0.0
140
0.0
140
0.0
140
0.0
140
0.0
140
0.0
140
0.0
140
0.0
140
0.0
140
0.0
140
0.0
140
0.0
140
0.0
140
0.0
140
0.0
140
0.0
140
0.0
140
0.0
140
0.0
140
0.0
140
0.0
140
0.0
140
0.0
140
0.0
140
0.0
140
0.0
140
0.0
140
0.0
140
0.0
140
0.0
140
0.0
140
0.0
140
0.0
140
0.0
140
0.0
140
0.0
140
0.0
140
0.0
140
0.0
140
0.0
140
0.0
140
0.0
140
0.0
140
0.0
140
0.0
140
0.0
140
0.0
140
0.0
140
0.0
140
0.0
140
0.0
140
0.0
140
0.0
140
0.0
140
0.0
140
0.0
140
0.0
140
0.0
140
0.0
140
0.0
140
0.0
140
0.0
140
0.0
140
0.0
140
0.0
140
0.0
140
0.0
140
0.0
140
0.0
140
0.0
140
0.0
140
0.0
140
0.0
140
0.0
140
0.0
140
0.0
140
0.0
140
0.0
140
0.0
140
0.0
140
0.0
140
0.0
140
0.0
140
0.0
140
0.0
140
0.0
140
0.0
140
0.0
140
0.0
140
0.0
140
0.0
140
0.0
140
0.0
140
0.0
140
0.0
140
0.0
140
0.0
140
0.0
140
0.0
140
0.0
140
0.0
140
0.0
140
0.0
140
0.0
140
0.0
140
0.0
140
0.0
140
0.0
140
0.0
140
0.0
140
0.0
140
0.0
140
0.0
140
0.0
140
0.0
140
0.0
140
0.0
140
0.0
140
0.0
140
0.0
140
0.0
140
0.0
140
0.0
140
0.0
140
0.0
140
0.0
140
0.0
140
0.0
140
0.0
140
0.0
140
0.0
140
0.0
140
0.0
140
0.0
140
0.0
140
0.0
140
0.0
140
0.0
140
0.0
140
0.0
140
0.0
140
0.0
140
0.0
140
0.0
140
0.0
140
0.0
140
0.0
140
0.0
140
0.0
140
0.0
140
0.0
140
0.0
140
0.0
140
0.0
140
0.0
140
0.0
140
0.0
140
0.0
140
0.0
140
0.0
140
0.0
140
0.0
140
0.0
140
0.0
140
0.0
140
0.0
140
0.0
140
0.0
140
0.0
140
0.0
140
0.0
140
0.0
140
0.0
 90
        0
  0
POLYLINE
  5
FA
330
1F
100
AcDbEntity
  8
OracDecor_cornice_mouldings
 62
   234
420
 11606872
100
AcDb2dPolyline
 66
     1
 10
0.0
 20
0.0
 30
0.0000050743992688
 70
     1
210
-0.9999999999999769
220
0.0000001788139343
230
-0.0000001192092896
  0
VERTEX
  5
FB
330
FA
100
AcDbEntity
  8
OracDecor_cornice_mouldings
 62
   234
420
 11606872
100
AcDbVertex
100
AcDb2dVertex
 10
-3.999911546707153
 20
-48.5
 30
0.0000050743992688
  0
VERTEX
  5
FC
330
FA
100
AcDbEntity
  8
OracDecor_cornice_mouldings
 62
   234
420
 11606872
100
AcDbVertex
100
AcDb2dVertex
 10
-3.99990963935852
 20
-54.0
 30
0.0000050743992688
  0
VERTEX
  5
FD
330
FA
100
AcDbEntity
  8
OracDecor_cornice_mouldings
 62
   234
420
 11606872
100
AcDbVertex
100
AcDb2dVertex
 10
-3.965813875198364
 20
-54.25886154174804
 30
0.0000050743992688
  0
VERTEX
  5
FE
330
FA
100
AcDbEntity
  8
OracDecor_cornice_mouldings
 62
   234
420
 11606872
100
AcDbVertex
100
AcDb2dVertex
 10
-3.8659508228302
 20
-54.49995422363281
 30
0.0000050743992688
  0
VERTEX
  5
FF
330
FA
100
AcDbEntity
  8
OracDecor_cornice_mouldings
 62
   234
420
 11606872
100
AcDbVertex
100
AcDb2dVertex
 10
-3.707017183303833
 20
-54.70710754394531
 30
0.0000050743992688
  0
VERTEX
  5
100
330
FA
100
AcDbEntity
  8
OracDecor_cornice_mouldings
 62
   234
420
 11606872
100
AcDbVertex
100
AcDb2dVertex
 10
-3.499863862991333
 20
-54.86603927612304
 30
0.0000050743992688
  0
VERTEX
  5
101
330
FA
100
AcDbEntity
  8
OracDecor_cornice_mouldings
 62
   234
420
 11606872
100
AcDbVertex
100
AcDb2dVertex
 10
-3.2587730884552
 20
-54.96590423583985
 30
0.0000050743992688
  0
VERTEX
  5
102
330
FA
100
AcDbEntity
  8
OracDecor_cornice_mouldings
 62
   234
420
 11606872
100
AcDbVertex
100
AcDb2dVertex
 10
-2.999911546707153
 20
-55.0
 30
0.0000050743992688
  0
VERTEX
  5
103
330
FA
100
AcDbEntity
  8
OracDecor_cornice_mouldings
 62
   234
420
 11606872
100
AcDbVertex
100
AcDb2dVertex
 10
0.0000893301184988
 20
-55.0
 30
0.0000050743992688
  0
VERTEX
  5
104
330
FA
100
AcDbEntity
  8
OracDecor_cornice_mouldings
 62
   234
420
 11606872
100
AcDbVertex
100
AcDb2dVertex
 10
0.0000893301184988
 20
-30.82257843017578
 30
0.0000050743992688
  0
VERTEX
  5
105
330
FA
100
AcDbEntity
  8
OracDecor_cornice_mouldings
 62
   234
420
 11606872
100
AcDbVertex
100
AcDb2dVertex
 10
-0.4787105023860932
 20
-29.40133666992188
 30
0.0000050743992688
  0
VERTEX
  5
106
330
FA
100
AcDbEntity
  8
OracDecor_cornice_mouldings
 62
   234
420
 11606872
100
AcDbVertex
100
AcDb2dVertex
 10
-1.183937430381774
 20
-27.82822418212891
 30
0.0000050743992688
  0
VERTEX
  5
107
330
FA
100
AcDbEntity
  8
OracDecor_cornice_mouldings
 62
   234
420
 11606872
100
AcDbVertex
100
AcDb2dVertex
 10
-1.980392813682556
 20
-26.53281784057617
 30
0.0000050743992688
  0
VERTEX
  5
108
330
FA
100
AcDbEntity
  8
OracDecor_cornice_mouldings
 62
   234
420
 11606872
100
AcDbVertex
100
AcDb2dVertex
 10
-2.463539361953735
 20
-25.72371673583984
 30
0.0000050743992688
  0
VERTEX
  5
109
330
FA
100
AcDbEntity
  8
OracDecor_cornice_mouldings
 62
   234
420
 11606872
100
AcDbVertex
100
AcDb2dVertex
 10
-2.589593172073364
 20
-24.96686935424805
 30
0.0000050743992688
  0
VERTEX
  5
10A
330
FA
100
AcDbEntity
  8
OracDecor_cornice_mouldings
 62
   234
420
 11606872
100
AcDbVertex
100
AcDb2dVertex
 10
-2.42002511024475
 20
-24.21856689453125
 30
0.0000050743992688
  0
VERTEX
  5
10B
330
FA
100
AcDbEntity
  8
OracDecor_cornice_mouldings
 62
   234
420
 11606872
100
AcDbVertex
100
AcDb2dVertex
 10
-1.980028510093688
 20
-23.58998870849609
 30
0.0000050743992688
  0
VERTEX
  5
10C
330
FA
100
AcDbEntity
  8
OracDecor_cornice_mouldings
 62
   234
420
 11606872
100
AcDbVertex
100
AcDb2dVertex
 10
0.000087422769866
 20
-21.99998664855957
 30
0.0000050743992688
  0
VERTEX
  5
10D
330
FA
100
AcDbEntity
  8
OracDecor_cornice_mouldings
 62
   234
420
 11606872
100
AcDbVertex
100
AcDb2dVertex
 10
0.0000893301184988
 20
-13.07811164855957
 30
0.0000050743992688
  0
VERTEX
  5
10E
330
FA
100
AcDbEntity
  8
OracDecor_cornice_mouldings
 62
   234
420
 11606872
100
AcDbVertex
100
AcDb2dVertex
 10
-24.88919448852539
 20
-17.46676445007324
 30
0.0000050743992688
  0
VERTEX
  5
10F
330
FA
100
AcDbEntity
  8
OracDecor_cornice_mouldings
 62
   234
420
 11606872
100
AcDbVertex
100
AcDb2dVertex
 10
-25.41013717651367
 20
-17.4819393157959
 30
0.0000050743992688
  0
VERTEX
  5
110
330
FA
100
AcDbEntity
  8
OracDecor_cornice_mouldings
 62
   234
420
 11606872
100
AcDbVertex
100
AcDb2dVertex
 10
-26.0784854888916
 20
-17.30287742614746
 30
0.0000050743992688
  0
VERTEX
  5
111
330
FA
100
AcDbEntity
  8
OracDecor_cornice_mouldings
 62
   234
420
 11606872
100
AcDbVertex
100
AcDb2dVertex
 10
-26.64533996582032
 20
-16.90595817565918
 30
0.0000050743992688
  0
VERTEX
  5
112
330
FA
100
AcDbEntity
  8
OracDecor_cornice_mouldings
 62
   234
420
 11606872
100
AcDbVertex
100
AcDb2dVertex
 10
-27.04219436645508
 20
-16.33916282653808
 30
0.0000050743992688
  0
VERTEX
  5
113
330
FA
100
AcDbEntity
  8
OracDecor_cornice_mouldings
 62
   234
420
 11606872
100
AcDbVertex
100
AcDb2dVertex
 10
-27.20610809326172
 20
-15.84444618225098
 30
0.0000050743992688
  0
VERTEX
  5
114
330
FA
100
AcDbEntity
  8
OracDecor_cornice_mouldings
 62
   234
420
 11606872
100
AcDbVertex
100
AcDb2dVertex
 10
-29.99991035461426
 20
0.0000020265574676
 30
0.0000050743992688
  0
VERTEX
  5
115
330
FA
100
AcDbEntity
  8
OracDecor_cornice_mouldings
 62
   234
420
 11606872
100
AcDbVertex
100
AcDb2dVertex
 10
-41.99990844726563
 20
-0.0000025033957627
 30
0.0000050743992688
  0
VERTEX
  5
116
330
FA
100
AcDbEntity
  8
OracDecor_cornice_mouldings
 62
   234
420
 11606872
100
AcDbVertex
100
AcDb2dVertex
 10
-41.99990844726563
 20
-5.071798801422119
 30
0.0000050743992688
  0
VERTEX
  5
117
330
FA
100
AcDbEntity
  8
OracDecor_cornice_mouldings
 62
   234
420
 11606872
100
AcDbVertex
100
AcDb2dVertex
 10
-41.93028259277343
 20
-5.418663501739501
 30
0.0000050743992688
  0
VERTEX
  5
118
330
FA
100
AcDbEntity
  8
OracDecor_cornice_mouldings
 62
   234
420
 11606872
100
AcDbVertex
100
AcDb2dVertex
 10
-41.66804504394531
 20
-5.80630350112915
 30
0.0000050743992688
  0
VERTEX
  5
119
330
FA
100
AcDbEntity
  8
OracDecor_cornice_mouldings
 62
   234
420
 11606872
100
AcDbVertex
100
AcDb2dVertex
 10
-41.37199401855468
 20
-5.999983310699462
 30
0.0000050743992688
  0
VERTEX
  5
11A
330
FA
100
AcDbEntity
  8
OracDecor_cornice_mouldings
 62
   234
420
 11606872
100
AcDbVertex
100
AcDb2dVertex
 10
-41.14276885986328
 20
-6.061542987823486
 30
0.0000050743992688
  0
VERTEX
  5
11B
330
FA
100
AcDbEntity
  8
OracDecor_cornice_mouldings
 62
   234
420
 11606872
100
AcDbVertex
100
AcDb2dVertex
 10
-40.18350219726563
 20
-6.29104471206665
 30
0.0000050743992688
  0
VERTEX
  5
11C
330
FA
100
AcDbEntity
  8
OracDecor_cornice_mouldings
 62
   234
420
 11606872
100
AcDbVertex
100
AcDb2dVertex
 10
-38.98337554931641
 20
-6.823906421661376
 30
0.0000050743992688
  0
VERTEX
  5
11D
330
FA
100
AcDbEntity
  8
OracDecor_cornice_mouldings
 62
   234
420
 11606872
100
AcDbVertex
100
AcDb2dVertex
 10
-37.92818069458008
 20
-7.605391025543212
 30
0.0000050743992688
  0
VERTEX
  5
11E
330
FA
100
AcDbEntity
  8
OracDecor_cornice_mouldings
 62
   234
420
 11606872
100
AcDbVertex
100
AcDb2dVertex
 10
-37.06869888305664
 20
-8.597835540771484
 30
0.0000050743992688
  0
VERTEX
  5
11F
330
FA
100
AcDbEntity
  8
OracDecor_cornice_mouldings
 62
   234
420
 11606872
100
AcDbVertex
100
AcDb2dVertex
 10
-36.44597244262695
 20
-9.75384521484375
 30
0.0000050743992688
  0
VERTEX
  5
120
330
FA
100
AcDbEntity
  8
OracDecor_cornice_mouldings
 62
   234
420
 11606872
100
AcDbVertex
100
AcDb2dVertex
 10
-36.09002304077149
 20
-11.01778411865234
 30
0.0000050743992688
  0
VERTEX
  5
121
330
FA
100
AcDbEntity
  8
OracDecor_cornice_mouldings
 62
   234
420
 11606872
100
AcDbVertex
100
AcDb2dVertex
 10
-35.99990844726562
 20
-12.0
 30
0.0000050743992688
  0
VERTEX
  5
122
330
FA
100
AcDbEntity
  8
OracDecor_cornice_mouldings
 62
   234
420
 11606872
100
AcDbVertex
100
AcDb2dVertex
 10
-35.99991226196289
 20
-20.50000190734863
 30
0.0000050743992688
  0
VERTEX
  5
123
330
FA
100
AcDbEntity
  8
OracDecor_cornice_mouldings
 62
   234
420
 11606872
100
AcDbVertex
100
AcDb2dVertex
 10
-35.96581649780274
 20
-20.75886344909668
 30
0.0000050743992688
  0
VERTEX
  5
124
330
FA
100
AcDbEntity
  8
OracDecor_cornice_mouldings
 62
   234
420
 11606872
100
AcDbVertex
100
AcDb2dVertex
 10
-35.8659553527832
 20
-20.99995422363281
 30
0.0000050743992688
  0
VERTEX
  5
125
330
FA
100
AcDbEntity
  8
OracDecor_cornice_mouldings
 62
   234
420
 11606872
100
AcDbVertex
100
AcDb2dVertex
 10
-35.70701980590821
 20
-21.20710945129395
 30
0.0000050743992688
  0
VERTEX
  5
126
330
FA
100
AcDbEntity
  8
OracDecor_cornice_mouldings
 62
   234
420
 11606872
100
AcDbVertex
100
AcDb2dVertex
 10
-35.49986648559571
 20
-21.36604118347168
 30
0.0000050743992688
  0
VERTEX
  5
127
330
FA
100
AcDbEntity
  8
OracDecor_cornice_mouldings
 62
   234
420
 11606872
100
AcDbVertex
100
AcDb2dVertex
 10
-35.25877761840821
 20
-21.46590423583984
 30
0.0000050743992688
  0
VERTEX
  5
128
330
FA
100
AcDbEntity
  8
OracDecor_cornice_mouldings
 62
   234
420
 11606872
100
AcDbVertex
100
AcDb2dVertex
 10
-34.99991226196289
 20
-21.50000190734863
 30
0.0000050743992688
  0
VERTEX
  5
129
330
FA
100
AcDbEntity
  8
OracDecor_cornice_mouldings
 62
   234
420
 11606872
100
AcDbVertex
100
AcDb2dVertex
 10
-30.67416572570801
 20
-21.61298561096192
 30
0.0000050743992688
  0
VERTEX
  5
12A
330
FA
100
AcDbEntity
  8
OracDecor_cornice_mouldings
 62
   234
420
 11606872
100
AcDbVertex
100
AcDb2dVertex
 10
-30.8253231048584
 20
-22.3945140838623
 30
0.0000050743992688
  0
VERTEX
  5
12B
330
FA
100
AcDbEntity
  8
OracDecor_cornice_mouldings
 62
   234
420
 11606872
100
AcDbVertex
100
AcDb2dVertex
 10
-30.96836471557617
 20
-23.10378456115723
 30
0.0000050743992688
  0
VERTEX
  5
12C
330
FA
100
AcDbEntity
  8
OracDecor_cornice_mouldings
 62
   234
420
 11606872
100
AcDbVertex
100
AcDb2dVertex
 10
-30.99416351318359
 20
-23.74398612976074
 30
0.0000050743992688
  0
VERTEX
  5
12D
330
FA
100
AcDbEntity
  8
OracDecor_cornice_mouldings
 62
   234
420
 11606872
100
AcDbVertex
100
AcDb2dVertex
 10
-30.91747665405274
 20
-24.32781410217285
 30
0.0000050743992688
  0
VERTEX
  5
12E
330
FA
100
AcDbEntity
  8
OracDecor_cornice_mouldings
 62
   234
420
 11606872
100
AcDbVertex
100
AcDb2dVertex
 10
-30.74602890014649
 20
-24.87428855895996
 30
0.0000050743992688
  0
VERTEX
  5
12F
330
FA
100
AcDbEntity
  8
OracDecor_cornice_mouldings
 62
   234
420
 11606872
100
AcDbVertex
100
AcDb2dVertex
 10
-30.473388671875
 20
-25.39687538146973
 30
0.0000050743992688
  0
VERTEX
  5
130
330
FA
100
AcDbEntity
  8
OracDecor_cornice_mouldings
 62
   234
420
 11606872
100
AcDbVertex
100
AcDb2dVertex
 10
-30.11931610107422
 20
-25.86147499084473
 30
0.0000050743992688
  0
VERTEX
  5
131
330
FA
100
AcDbEntity
  8
OracDecor_cornice_mouldings
 62
   234
420
 11606872
100
AcDbVertex
100
AcDb2dVertex
 10
-29.67897415161133
 20
-26.27104759216309
 30
0.0000050743992688
  0
VERTEX
  5
132
330
FA
100
AcDbEntity
  8
OracDecor_cornice_mouldings
 62
   234
420
 11606872
100
AcDbVertex
100
AcDb2dVertex
 10
-29.15983200073242
 20
-26.60895729064942
 30
0.0000050743992688
  0
VERTEX
  5
133
330
FA
100
AcDbEntity
  8
OracDecor_cornice_mouldings
 62
   234
420
 11606872
100
AcDbVertex
100
AcDb2dVertex
 10
-28.58869934082031
 20
-26.85152626037598
 30
0.0000050743992688
  0
VERTEX
  5
134
330
FA
100
AcDbEntity
  8
OracDecor_cornice_mouldings
 62
   234
420
 11606872
100
AcDbVertex
100
AcDb2dVertex
 10
-27.96427917480469
 20
-26.99263191223145
 30
0.0000050743992688
  0
VERTEX
  5
135
330
FA
100
AcDbEntity
  8
OracDecor_cornice_mouldings
 62
   234
420
 11606872
100
AcDbVertex
100
AcDb2dVertex
 10
-27.29895401000977
 20
-27.01807594299316
 30
0.0000050743992688
  0
VERTEX
  5
136
330
FA
100
AcDbEntity
  8
OracDecor_cornice_mouldings
 62
   234
420
 11606872
100
AcDbVertex
100
AcDb2dVertex
 10
-26.58062362670899
 20
-26.91412162780762
 30
0.0000050743992688
  0
VERTEX
  5
137
330
FA
100
AcDbEntity
  8
OracDecor_cornice_mouldings
 62
   234
420
 11606872
100
AcDbVertex
100
AcDb2dVertex
 10
-25.83210182189942
 20
-26.66961479187012
 30
0.0000050743992688
  0
VERTEX
  5
138
330
FA
100
AcDbEntity
  8
OracDecor_cornice_mouldings
 62
   234
420
 11606872
100
AcDbVertex
100
AcDb2dVertex
 10
-24.98439788818359
 20
-26.23832130432129
 30
0.0000050743992688
  0
VERTEX
  5
139
330
FA
100
AcDbEntity
  8
OracDecor_cornice_mouldings
 62
   234
420
 11606872
100
AcDbVertex
100
AcDb2dVertex
 10
-23.99691009521484
 20
-25.61080741882324
 30
0.0000050743992688
  0
VERTEX
  5
13A
330
FA
100
AcDbEntity
  8
OracDecor_cornice_mouldings
 62
   234
420
 11606872
100
AcDbVertex
100
AcDb2dVertex
 10
-22.9226188659668
 20
-24.89724159240723
 30
0.0000050743992688
  0
VERTEX
  5
13B
330
FA
100
AcDbEntity
  8
OracDecor_cornice_mouldings
 62
   234
420
 11606872
100
AcDbVertex
100
AcDb2dVertex
 10
-21.75205230712891
 20
-24.2410888671875
 30
0.0000050743992688
  0
VERTEX
  5
13C
330
FA
100
AcDbEntity
  8
OracDecor_cornice_mouldings
 62
   234
420
 11606872
100
AcDbVertex
100
AcDb2dVertex
 10
-20.53452682495117
 20
-23.76372337341309
 30
0.0000050743992688
  0
VERTEX
  5
13D
330
FA
100
AcDbEntity
  8
OracDecor_cornice_mouldings
 62
   234
420
 11606872
100
AcDbVertex
100
AcDb2dVertex
 10
-19.30593681335449
 20
-23.48772430419922
 30
0.0000050743992688
  0
VERTEX
  5
13E
330
FA
100
AcDbEntity
  8
OracDecor_cornice_mouldings
 62
   234
420
 11606872
100
AcDbVertex
100
AcDb2dVertex
 10
-18.03938674926758
 20
-23.39919090270996
 30
0.0000050743992688
  0
VERTEX
  5
13F
330
FA
100
AcDbEntity
  8
OracDecor_cornice_mouldings
 62
   234
420
 11606872
100
AcDbVertex
100
AcDb2dVertex
 10
-16.71040725708008
 20
-23.4987850189209
 30
0.0000050743992688
  0
VERTEX
  5
140
330
FA
100
AcDbEntity
  8
OracDecor_cornice_mouldings
 62
   234
420
 11606872
100
AcDbVertex
100
AcDb2dVertex
 10
-15.31879615783691
 20
-23.80131721496582
 30
0.0000050743992688
  0
VERTEX
  5
141
330
FA
100
AcDbEntity
  8
OracDecor_cornice_mouldings
 62
   234
420
 11606872
100
AcDbVertex
100
AcDb2dVertex
 10
-13.88693237304687
 20
-24.32523345947266
 30
0.0000050743992688
  0
VERTEX
  5
142
330
FA
100
AcDbEntity
  8
OracDecor_cornice_mouldings
 62
   234
420
 11606872
100
AcDbVertex
100
AcDb2dVertex
 10
-12.49425983428955
 20
-25.06245803833008
 30
0.0000050743992688
  0
VERTEX
  5
143
330
FA
100
AcDbEntity
  8
OracDecor_cornice_mouldings
 62
   234
420
 11606872
100
AcDbVertex
100
AcDb2dVertex
 10
-11.17808151245117
 20
-26.0026798248291
 30
0.0000050743992688
  0
VERTEX
  5
144
330
FA
100
AcDbEntity
  8
OracDecor_cornice_mouldings
 62
   234
420
 11606872
100
AcDbVertex
100
AcDb2dVertex
 10
-9.982745170593261
 20
-27.11369895935059
 30
0.0000050743992688
  0
VERTEX
  5
145
330
FA
100
AcDbEntity
  8
OracDecor_cornice_mouldings
 62
   234
420
 11606872
100
AcDbVertex
100
AcDb2dVertex
 10
-8.92138385772705
 20
-28.39077568054199
 30
0.0000050743992688
  0
VERTEX
  5
146
330
FA
100
AcDbEntity
  8
OracDecor_cornice_mouldings
 62
   234
420
 11606872
100
AcDbVertex
100
AcDb2dVertex
 10
-8.053798675537109
 20
-29.74947547912598
 30
0.0000050743992688
  0
VERTEX
  5
147
330
FA
100
AcDbEntity
  8
OracDecor_cornice_mouldings
 62
   234
420
 11606872
100
AcDbVertex
100
AcDb2dVertex
 10
-7.507760524749755
 20
-30.84859466552734
 30
0.0000050743992688
  0
VERTEX
  5
148
330
FA
100
AcDbEntity
  8
OracDecor_cornice_mouldings
 62
   234
420
 11606872
100
AcDbVertex
100
AcDb2dVertex
 10
-7.052752971649169
 20
-32.00890731811524
 30
0.0000050743992688
  0
VERTEX
  5
149
330
FA
100
AcDbEntity
  8
OracDecor_cornice_mouldings
 62
   234
420
 11606872
100
AcDbVertex
100
AcDb2dVertex
 10
-6.675197124481201
 20
-33.27024459838867
 30
0.0000050743992688
  0
VERTEX
  5
14A
330
FA
100
AcDbEntity
  8
OracDecor_cornice_mouldings
 62
   234
420
 11606872
100
AcDbVertex
100
AcDb2dVertex
 10
-6.381205081939697
 20
-34.64884567260742
 30
0.0000050743992688
  0
VERTEX
  5
14B
330
FA
100
AcDbEntity
  8
OracDecor_cornice_mouldings
 62
   234
420
 11606872
100
AcDbVertex
100
AcDb2dVertex
 10
-6.181905269622802
 20
-36.15927505493164
 30
0.0000050743992688
  0
VERTEX
  5
14C
330
FA
100
AcDbEntity
  8
OracDecor_cornice_mouldings
 62
   234
420
 11606872
100
AcDbVertex
100
AcDb2dVertex
 10
-6.092379093170166
 20
-37.81721115112305
 30
0.0000050743992688
  0
VERTEX
  5
14D
330
FA
100
AcDbEntity
  8
OracDecor_cornice_mouldings
 62
   234
420
 11606872
100
AcDbVertex
100
AcDb2dVertex
 10
-6.119942188262939
 20
-39.44089508056641
 30
0.0000050743992688
  0
VERTEX
  5
14E
330
FA
100
AcDbEntity
  8
OracDecor_cornice_mouldings
 62
   234
420
 11606872
100
AcDbVertex
100
AcDb2dVertex
 10
-6.233725070953369
 20
-40.8719253540039
 30
0.0000050743992688
  0
VERTEX
  5
14F
330
FA
100
AcDbEntity
  8
OracDecor_cornice_mouldings
 62
   234
420
 11606872
100
AcDbVertex
100
AcDb2dVertex
 10
-6.428850650787353
 20
-42.37580108642577
 30
0.0000050743992688
  0
VERTEX
  5
150
330
FA
100
AcDbEntity
  8
OracDecor_cornice_mouldings
 62
   234
420
 11606872
100
AcDbVertex
100
AcDb2dVertex
 10
-6.693098545074462
 20
-43.94426727294922
 30
0.0000050743992688
  0
VERTEX
  5
151
330
FA
100
AcDbEntity
  8
OracDecor_cornice_mouldings
 62
   234
420
 11606872
100
AcDbVertex
100
AcDb2dVertex
 10
-6.888818264007568
 20
-44.95366668701172
 30
0.0000050743992688
  0
VERTEX
  5
152
330
FA
100
AcDbEntity
  8
OracDecor_cornice_mouldings
 62
   234
420
 11606872
100
AcDbVertex
100
AcDb2dVertex
 10
-6.894912242889404
 20
-45.11253356933593
 30
0.0000050743992688
  0
VERTEX
  5
153
330
FA
100
AcDbEntity
  8
OracDecor_cornice_mouldings
 62
   234
420
 11606872
100
AcDbVertex
100
AcDb2dVertex
 10
-6.850854396820068
 20
-45.26522064208984
 30
0.0000050743992688
  0
VERTEX
  5
154
330
FA
100
AcDbEntity
  8
OracDecor_cornice_mouldings
 62
   234
420
 11606872
100
AcDbVertex
100
AcDb2dVertex
 10
-6.761130809783935
 20
-45.39635467529296
 30
0.0000050743992688
  0
VERTEX
  5
155
330
FA
100
AcDbEntity
  8
OracDecor_cornice_mouldings
 62
   234
420
 11606872
100
AcDbVertex
100
AcDb2dVertex
 10
-6.634774684906005
 20
-45.49273681640625
 30
0.0000050743992688
  0
VERTEX
  5
156
330
FA
100
AcDbEntity
  8
OracDecor_cornice_mouldings
 62
   234
420
 11606872
100
AcDbVertex
100
AcDb2dVertex
 10
-6.484492778778076
 20
-45.54460906982422
 30
0.0000050743992688
  0
VERTEX
  5
157
330
FA
100
AcDbEntity
  8
OracDecor_cornice_mouldings
 62
   234
420
 11606872
100
AcDbVertex
100
AcDb2dVertex
 10
-6.033488750457763
 20
-45.65993499755859
 30
0.0000050743992688
  0
VERTEX
  5
158
330
FA
100
AcDbEntity
  8
OracDecor_cornice_mouldings
 62
   234
420
 11606872
100
AcDbVertex
100
AcDb2dVertex
 10
-5.60559606552124
 20
-45.84371948242187
 30
0.0000050743992688
  0
VERTEX
  5
159
330
FA
100
AcDbEntity
  8
OracDecor_cornice_mouldings
 62
   234
420
 11606872
100
AcDbVertex
100
AcDb2dVertex
 10
-5.211436748504638
 20
-46.09140014648438
 30
0.0000050743992688
  0
VERTEX
  5
15A
330
FA
100
AcDbEntity
  8
OracDecor_cornice_mouldings
 62
   234
420
 11606872
100
AcDbVertex
100
AcDb2dVertex
 10
-4.860353946685791
 20
-46.39709091186523
 30
0.0000050743992688
  0
VERTEX
  5
15B
330
FA
100
AcDbEntity
  8
OracDecor_cornice_mouldings
 62
   234
420
 11606872
100
AcDbVertex
100
AcDb2dVertex
 10
-4.560679912567138
 20
-46.75355148315429
 30
0.0000050743992688
  0
VERTEX
  5
15C
330
FA
100
AcDbEntity
  8
OracDecor_cornice_mouldings
 62
   234
420
 11606872
100
AcDbVertex
100
AcDb2dVertex
 10
-4.319854259490966
 20
-47.15193176269531
 30
0.0000050743992688
  0
VERTEX
  5
15D
330
FA
100
AcDbEntity
  8
OracDecor_cornice_mouldings
 62
   234
420
 11606872
100
AcDbVertex
100
AcDb2dVertex
 10
-4.143577098846435
 20
-47.58278274536133
 30
0.0000050743992688
  0
VERTEX
  5
15E
330
FA
100
AcDbEntity
  8
OracDecor_cornice_mouldings
 62
   234
420
 11606872
100
AcDbVertex
100
AcDb2dVertex
 10
-4.03603982925415
 20
-48.035888671875
 30
0.0000050743992688
  0
SEQEND
  5
15F
330
FA
100
AcDbEntity
  8
OracDecor_cornice_mouldings
 62
   234
420
 11606872
  0
ENDSEC
  0
SECTION
  2
OBJECTS
  0
DICTIONARY
  5
C
330
0
100
AcDbDictionary
281
     1
  3
ACAD_COLOR
350
DC
  3
ACAD_DETAILVIEWSTYLE
350
F5
  3
ACAD_GROUP
350
D
  3
ACAD_LAYOUT
350
1A
  3
ACAD_MATERIAL
350
AA
  3
ACAD_MLEADERSTYLE
350
F1
  3
ACAD_MLINESTYLE
350
17
  3
ACAD_PLOTSETTINGS
350
19
  3
ACAD_PLOTSTYLENAME
350
E
  3
ACAD_SCALELIST
350
DF
  3
ACAD_SECTIONVIEWSTYLE
350
F3
  3
ACAD_TABLESTYLE
350
DD
  3
ACAD_VISUALSTYLE
350
C3
  3
ACDB_RECOMPOSE_DATA
350
16C
  3
AcDbVariableDictionary
350
160
  0
DICTIONARY
  5
DC
102
{ACAD_REACTORS
330
C
102
}
330
C
100
AcDbDictionary
281
     1
  0
DICTIONARY
  5
F5
102
{ACAD_REACTORS
330
C
102
}
330
C
100
AcDbDictionary
281
     1
  3
Imperial24
350
F6
  0
DICTIONARY
  5
D
102
{ACAD_REACTORS
330
C
102
}
330
C
100
AcDbDictionary
281
     1
  0
DICTIONARY
  5
1A
102
{ACAD_REACTORS
330
C
102
}
330
C
100
AcDbDictionary
281
     1
  3
Layout1
350
1E
  3
Layout2
350
26
  3
Model
350
22
  0
DICTIONARY
  5
AA
102
{ACAD_REACTORS
330
C
102
}
330
C
100
AcDbDictionary
281
     1
  3
ByBlock
350
B3
  3
ByLayer
350
AB
  3
Global
350
BB
  0
DICTIONARY
  5
F1
102
{ACAD_REACTORS
330
C
102
}
330
C
100
AcDbDictionary
281
     1
  3
Standard
350
F2
  0
DICTIONARY
  5
17
102
{ACAD_REACTORS
330
C
102
}
330
C
100
AcDbDictionary
281
     1
  3
Standard
350
18
  0
DICTIONARY
  5
19
102
{ACAD_REACTORS
330
C
102
}
330
C
100
AcDbDictionary
281
     1
  0
ACDBDICTIONARYWDFLT
  5
E
102
{ACAD_REACTORS
330
C
102
}
330
C
100
AcDbDictionary
281
     1
  3
ByLayer
350
2D
  3
Normal
350
F
100
AcDbDictionaryWithDefault
340
F
  0
DICTIONARY
  5
DF
102
{ACAD_REACTORS
330
C
102
}
330
C
100
AcDbDictionary
281
     1
  3
A0
350
E0
  3
A1
350
E1
  3
A2
350
E2
  3
A3
350
E3
  3
A4
350
E4
  3
A5
350
E5
  3
A6
350
E6
  3
A7
350
E7
  3
A8
350
E8
  3
A9
350
E9
  3
B0
350
EA
  3
B1
350
EB
  3
B2
350
EC
  3
B3
350
ED
  3
B4
350
EE
  3
B5
350
EF
  3
B6
350
F0
  0
DICTIONARY
  5
F3
102
{ACAD_REACTORS
330
C
102
}
330
C
100
AcDbDictionary
281
     1
  3
Imperial24
350
F4
  0
DICTIONARY
  5
DD
102
{ACAD_REACTORS
330
C
102
}
330
C
100
AcDbDictionary
281
     1
  3
Standard
350
DE
  0
DICTIONARY
  5
C3
102
{ACAD_REACTORS
330
C
102
}
330
C
100
AcDbDictionary
281
     1
  3
2dWireframe
350
C9
  3
Basic
350
C8
  3
Brighten
350
CF
  3
ColorChange
350
D3
  3
Conceptual
350
CC
  3
Dim
350
CE
  3
EdgeColorOff
350
DB
  3
Facepattern
350
D2
  3
Flat
350
C4
  3
FlatWithEdges
350
C5
  3
Gouraud
350
C6
  3
GouraudWithEdges
350
C7
  3
Hidden
350
CB
  3
JitterOff
350
D9
  3
Linepattern
350
D1
  3
OverhangOff
350
DA
  3
Realistic
350
CD
  3
Shaded
350
D8
  3
Shaded with edges
350
D7
  3
Shades of Gray
350
D4
  3
Sketchy
350
D5
  3
Thicken
350
D0
  3
Wireframe
350
CA
  3
X-Ray
350
D6
  0
XRECORD
  5
16C
102
{ACAD_REACTORS
330
C
102
}
330
C
100
AcDbXrecord
280
     1
 90
        1
330
DE
  0
DICTIONARY
  5
160
102
{ACAD_REACTORS
330
C
102
}
330
C
100
AcDbDictionary
281
     1
  3
CANNOSCALE
350
166
  3
CMLEADERSTYLE
350
162
  3
CTABLESTYLE
350
161
  3
CVIEWDETAILSTYLE
350
163
  3
CVIEWSECTIONSTYLE
350
164
  3
LAYEREVAL
350
168
  3
LAYERNOTIFY
350
169
  3
LIGHTINGUNITS
350
167
  3
MSLTSCALE
350
165
  0
ACDBDETAILVIEWSTYLE
  5
F6
102
{ACAD_XDICTIONARY
360
1A1
102
}
102
{ACAD_REACTORS
330
F5
102
}
330
F5
100
AcDbModelDocViewStyle
 70
     0
  3
Imperial24
290
     0
100
AcDbDetailViewStyle
 70
     0
 71
     0
 90
        3
 71
     1
340
11
 62
   256
 40
0.24
340
0
 62
   256
 40
0.24
300

 40
0.36
280
     3
 71
     2
340
16
 90
       25
 62
   256
 71
     3
340
11
 62
   256
 40
0.24
 90
        1
 40
0.75
 90
        1
300
%<\AcVar ViewType \f "%tc1">% %<\AcVar ViewDetailId>%\PSCALE %<\AcVar ViewScale \f "%sn">%
 71
     4
340
16
 90
       25
 62
   256
340
16
 90
       25
 62
   256
280
     0
  0
LAYOUT
  5
1E
102
{ACAD_REACTORS
330
1A
102
}
330
1A
100
AcDbPlotSettings
  1

  2
\\KTXNTBDC\CASF2PN1
  4

  6

 40
0.0
 41
0.0
 42
0.0
 43
0.0
 44
0.0
 45
0.0
 46
0.0
 47
0.0
 48
0.0
 49
0.0
140
0.0
141
0.0
142
1.0
143
1.0
 70
   688
 72
     0
 73
     0
 74
     5
  7

 75
    16
147
1.0
 76
     0
 77
     2
 78
   300
148
0.0
149
0.0
100
AcDbLayout
  1
Layout1
 70
     1
 71
     1
 10
0.0
 20
0.0
 11
12.0
 21
9.0
 12
0.0
 22
0.0
 32
0.0
 14
1.000000000000000E+20
 24
1.000000000000000E+20
 34
1.000000000000000E+20
 15
-1.000000000000000E+20
 25
-1.000000000000000E+20
 35
-1.000000000000000E+20
146
0.0
 13
0.0
 23
0.0
 33
0.0
 16
1.0
 26
0.0
 36
0.0
 17
0.0
 27
1.0
 37
0.0
 76
     0
330
1B
  0
LAYOUT
  5
26
102
{ACAD_REACTORS
330
1A
102
}
330
1A
100
AcDbPlotSettings
  1

  2
\\KTXNTBDC\CASF2PN1
  4

  6

 40
0.0
 41
0.0
 42
0.0
 43
0.0
 44
0.0
 45
0.0
 46
0.0
 47
0.0
 48
0.0
 49
0.0
140
0.0
141
0.0
142
1.0
143
1.0
 70
   688
 72
     0
 73
     0
 74
     5
  7

 75
    16
147
1.0
 76
     0
 77
     2
 78
   300
148
0.0
149
0.0
100
AcDbLayout
  1
Layout2
 70
     1
 71
     2
 10
0.0
 20
0.0
 11
12.0
 21
9.0
 12
0.0
 22
0.0
 32
0.0
 14
0.0
 24
0.0
 34
0.0
 15
0.0
 25
0.0
 35
0.0
146
0.0
 13
0.0
 23
0.0
 33
0.0
 16
1.0
 26
0.0
 36
0.0
 17
0.0
 27
1.0
 37
0.0
 76
     0
330
23
  0
LAYOUT
  5
22
102
{ACAD_REACTORS
330
1A
102
}
330
1A
100
AcDbPlotSettings
  1

  2
\\KTXNTBDC\CASF2PN1
  4

  6

 40
0.0
 41
0.0
 42
0.0
 43
0.0
 44
0.0
 45
0.0
 46
0.0
 47
0.0
 48
0.0
 49
0.0
140
0.0
141
0.0
142
1.0
143
1.0
 70
  1712
 72
     0
 73
     0
 74
     0
  7

 75
     0
147
1.0
 76
     0
 77
     2
 78
   300
148
0.0
149
0.0
100
AcDbLayout
  1
Model
 70
     1
 71
     0
 10
0.0
 20
0.0
 11
12.0
 21
9.0
 12
0.0
 22
0.0
 32
0.0
 14
0.0
 24
0.0
 34
0.0
 15
0.0
 25
0.0
 35
0.0
146
0.0
 13
0.0
 23
0.0
 33
0.0
 16
1.0
 26
0.0
 36
0.0
 17
0.0
 27
1.0
 37
0.0
 76
     0
330
1F
  0
MATERIAL
  5
B3
102
{ACAD_XDICTIONARY
360
B4
102
}
102
{ACAD_REACTORS
330
AA
102
}
330
AA
100
AcDbMaterial
  1
ByBlock
 72
     0
 43
0.0208333333333333
 43
0.0
 43
0.0
 43
0.0
 43
0.0
 43
0.0208333333333333
 43
0.0
 43
0.0
 43
0.0
 43
0.0
 43
1.0
 43
0.0
 43
0.0
 43
0.0
 43
0.0
 43
1.0
 77
     0
 47
0.0208333333333333
 47
0.0
 47
0.0
 47
0.0
 47
0.0
 47
0.0208333333333333
 47
0.0
 47
0.0
 47
0.0
 47
0.0
 47
1.0
 47
0.0
 47
0.0
 47
0.0
 47
0.0
 47
1.0
171
     0
 49
0.0208333333333333
 49
0.0
 49
0.0
 49
0.0
 49
0.0
 49
0.0208333333333333
 49
0.0
 49
0.0
 49
0.0
 49
0.0
 49
1.0
 49
0.0
 49
0.0
 49
0.0
 49
0.0
 49
1.0
175
     0
142
0.0208333333333333
142
0.0
142
0.0
142
0.0
142
0.0
142
0.0208333333333333
142
0.0
142
0.0
142
0.0
142
0.0
142
1.0
142
0.0
142
0.0
142
0.0
142
0.0
142
1.0
179
     0
144
0.0208333333333333
144
0.0
144
0.0
144
0.0
144
0.0
144
0.0208333333333333
144
0.0
144
0.0
144
0.0
144
0.0
144
1.0
144
0.0
144
0.0
144
0.0
144
0.0
144
1.0
147
0.0208333333333333
147
0.0
147
0.0
147
0.0
147
0.0
147
0.0208333333333333
147
0.0
147
0.0
147
0.0
147
0.0
147
1.0
147
0.0
147
0.0
147
0.0
147
0.0
147
1.0
  0
MATERIAL
  5
AB
102
{ACAD_XDICTIONARY
360
AC
102
}
102
{ACAD_REACTORS
330
AA
102
}
330
AA
100
AcDbMaterial
  1
ByLayer
 72
     0
 43
0.0208333333333333
 43
0.0
 43
0.0
 43
0.0
 43
0.0
 43
0.0208333333333333
 43
0.0
 43
0.0
 43
0.0
 43
0.0
 43
1.0
 43
0.0
 43
0.0
 43
0.0
 43
0.0
 43
1.0
 77
     0
 47
0.0208333333333333
 47
0.0
 47
0.0
 47
0.0
 47
0.0
 47
0.0208333333333333
 47
0.0
 47
0.0
 47
0.0
 47
0.0
 47
1.0
 47
0.0
 47
0.0
 47
0.0
 47
0.0
 47
1.0
171
     0
 49
0.0208333333333333
 49
0.0
 49
0.0
 49
0.0
 49
0.0
 49
0.0208333333333333
 49
0.0
 49
0.0
 49
0.0
 49
0.0
 49
1.0
 49
0.0
 49
0.0
 49
0.0
 49
0.0
 49
1.0
175
     0
142
0.0208333333333333
142
0.0
142
0.0
142
0.0
142
0.0
142
0.0208333333333333
142
0.0
142
0.0
142
0.0
142
0.0
142
1.0
142
0.0
142
0.0
142
0.0
142
0.0
142
1.0
179
     0
144
0.0208333333333333
144
0.0
144
0.0
144
0.0
144
0.0
144
0.0208333333333333
144
0.0
144
0.0
144
0.0
144
0.0
144
1.0
144
0.0
144
0.0
144
0.0
144
0.0
144
1.0
147
0.0208333333333333
147
0.0
147
0.0
147
0.0
147
0.0
147
0.0208333333333333
147
0.0
147
0.0
147
0.0
147
0.0
147
1.0
147
0.0
147
0.0
147
0.0
147
0.0
147
1.0
  0
MATERIAL
  5
BB
102
{ACAD_XDICTIONARY
360
BC
102
}
102
{ACAD_REACTORS
330
AA
102
}
330
AA
100
AcDbMaterial
  1
Global
 72
     0
 43
0.0208333333333333
 43
0.0
 43
0.0
 43
0.0
 43
0.0
 43
0.0208333333333333
 43
0.0
 43
0.0
 43
0.0
 43
0.0
 43
1.0
 43
0.0
 43
0.0
 43
0.0
 43
0.0
 43
1.0
 77
     0
 47
0.0208333333333333
 47
0.0
 47
0.0
 47
0.0
 47
0.0
 47
0.0208333333333333
 47
0.0
 47
0.0
 47
0.0
 47
0.0
 47
1.0
 47
0.0
 47
0.0
 47
0.0
 47
0.0
 47
1.0
171
     0
 49
0.0208333333333333
 49
0.0
 49
0.0
 49
0.0
 49
0.0
 49
0.0208333333333333
 49
0.0
 49
0.0
 49
0.0
 49
0.0
 49
1.0
 49
0.0
 49
0.0
 49
0.0
 49
0.0
 49
1.0
175
     0
142
0.0208333333333333
142
0.0
142
0.0
142
0.0
142
0.0
142
0.0208333333333333
142
0.0
142
0.0
142
0.0
142
0.0
142
1.0
142
0.0
142
0.0
142
0.0
142
0.0
142
1.0
179
     0
144
0.0208333333333333
144
0.0
144
0.0
144
0.0
144
0.0
144
0.0208333333333333
144
0.0
144
0.0
144
0.0
144
0.0
144
1.0
144
0.0
144
0.0
144
0.0
144
0.0
144
1.0
147
0.0208333333333333
147
0.0
147
0.0
147
0.0
147
0.0
147
0.0208333333333333
147
0.0
147
0.0
147
0.0
147
0.0
147
1.0
147
0.0
147
0.0
147
0.0
147
0.0
147
1.0
  0
MLEADERSTYLE
  5
F2
102
{ACAD_XDICTIONARY
360
19D
102
}
102
{ACAD_REACTORS
330
F1
102
}
330
F1
100
AcDbMLeaderStyle
179
     2
170
     2
171
     1
172
     0
 90
        2
 40
0.0
 41
0.0
173
     1
 91
-1056964608
340
14
 92
       -2
290
     1
 42
0.09
291
     1
 43
0.36
  3
Standard
 44
0.18
300

342
11
174
     1
178
     6
175
     1
176
     0
 93
-1056964608
 45
0.18
292
     0
297
     0
 46
0.18
 94
-1056964608
 47
1.0
 49
1.0
140
1.0
293
     1
141
0.0
294
     1
177
     0
142
1.0
295
     0
296
     0
143
0.125
271
     0
272
     9
273
     9
  0
MLINESTYLE
  5
18
102
{ACAD_REACTORS
330
17
102
}
330
17
100
AcDbMlineStyle
  2
STANDARD
 70
     0
  3

 62
   256
 51
90.0
 52
90.0
 71
     2
 49
0.5
 62
   256
  6
BYLAYER
 49
-0.5
 62
   256
  6
BYLAYER
  0
ACDBPLACEHOLDER
  5
2D
102
{ACAD_REACTORS
330
E
102
}
330
E
  0
ACDBPLACEHOLDER
  5
F
102
{ACAD_REACTORS
330
E
102
}
330
E
  0
SCALE
  5
E0
102
{ACAD_REACTORS
330
DF
102
}
330
DF
100
AcDbScale
 70
     0
300
1:1
140
1.0
141
1.0
290
     1
  0
SCALE
  5
E1
102
{ACAD_REACTORS
330
DF
102
}
330
DF
100
AcDbScale
 70
     0
300
1/128" = 1'-0"
140
0.0078125
141
12.0
290
     0
  0
SCALE
  5
E2
102
{ACAD_REACTORS
330
DF
102
}
330
DF
100
AcDbScale
 70
     0
300
1/64" = 1'-0"
140
0.015625
141
12.0
290
     0
  0
SCALE
  5
E3
102
{ACAD_REACTORS
330
DF
102
}
330
DF
100
AcDbScale
 70
     0
300
1/32" = 1'-0"
140
0.03125
141
12.0
290
     0
  0
SCALE
  5
E4
102
{ACAD_REACTORS
330
DF
102
}
330
DF
100
AcDbScale
 70
     0
300
1/16" = 1'-0"
140
0.0625
141
12.0
290
     0
  0
SCALE
  5
E5
102
{ACAD_REACTORS
330
DF
102
}
330
DF
100
AcDbScale
 70
     0
300
3/32" = 1'-0"
140
0.09375
141
12.0
290
     0
  0
SCALE
  5
E6
102
{ACAD_REACTORS
330
DF
102
}
330
DF
100
AcDbScale
 70
     0
300
1/8" = 1'-0"
140
0.125
141
12.0
290
     0
  0
SCALE
  5
E7
102
{ACAD_REACTORS
330
DF
102
}
330
DF
100
AcDbScale
 70
     0
300
3/16" = 1'-0"
140
0.1875
141
12.0
290
     0
  0
SCALE
  5
E8
102
{ACAD_REACTORS
330
DF
102
}
330
DF
100
AcDbScale
 70
     0
300
1/4" = 1'-0"
140
0.25
141
12.0
290
     0
  0
SCALE
  5
E9
102
{ACAD_REACTORS
330
DF
102
}
330
DF
100
AcDbScale
 70
     0
300
3/8" = 1'-0"
140
0.375
141
12.0
290
     0
  0
SCALE
  5
EA
102
{ACAD_REACTORS
330
DF
102
}
330
DF
100
AcDbScale
 70
     0
300
1/2" = 1'-0"
140
0.5
141
12.0
290
     0
  0
SCALE
  5
EB
102
{ACAD_REACTORS
330
DF
102
}
330
DF
100
AcDbScale
 70
     0
300
3/4" = 1'-0"
140
0.75
141
12.0
290
     0
  0
SCALE
  5
EC
102
{ACAD_REACTORS
330
DF
102
}
330
DF
100
AcDbScale
 70
     0
300
1" = 1'-0"
140
1.0
141
12.0
290
     0
  0
SCALE
  5
ED
102
{ACAD_REACTORS
330
DF
102
}
330
DF
100
AcDbScale
 70
     0
300
1-1/2" = 1'-0"
140
1.5
141
12.0
290
     0
  0
SCALE
  5
EE
102
{ACAD_REACTORS
330
DF
102
}
330
DF
100
AcDbScale
 70
     0
300
3" = 1'-0"
140
3.0
141
12.0
290
     0
  0
SCALE
  5
EF
102
{ACAD_REACTORS
330
DF
102
}
330
DF
100
AcDbScale
 70
     0
300
6" = 1'-0"
140
6.0
141
12.0
290
     0
  0
SCALE
  5
F0
102
{ACAD_REACTORS
330
DF
102
}
330
DF
100
AcDbScale
 70
     0
300
1'-0" = 1'-0"
140
12.0
141
12.0
290
     0
  0
ACDBSECTIONVIEWSTYLE
  5
F4
102
{ACAD_XDICTIONARY
360
19F
102
}
102
{ACAD_REACTORS
330
F3
102
}
330
F3
100
AcDbModelDocViewStyle
 70
     0
  3
Imperial24
290
     0
100
AcDbSectionViewStyle
 70
     0
 71
     0
 90
       78
 71
     1
340
11
 62
   256
 40
0.24
340
0
340
0
 62
   256
 40
0.24
300
I, O, Q, S, X, Z
 40
0.48
 90
        3
 40
0.18
 90
        1
 71
     2
340
16
 90
       25
 62
   256
340
16
 90
       50
 62
   256
 40
0.24
 40
0.0
 40
0.24
 71
     3
340
11
 62
   256
 40
0.24
 90
        1
 40
0.75
 90
        1
300
%<\AcVar ViewType \f "%tc1">% %<\AcVar ViewSectionStartId>%-%<\AcVar ViewSectionEndId>%\PSCALE %<\AcVar ViewScale \f "%sn">%
 71
     4
 62
   256
 62
   257
300
ANSI31
 40
1.0
 90
        0
290
     0
290
     0
 90
        6
 40
0.0
 40
1.570796326794896
 40
0.2617993877991494
 40
1.308996938995747
 40
-0.2617993877991494
 40
1.832595714594046
  0
TABLESTYLE
  5
DE
102
{ACAD_XDICTIONARY
360
16A
102
}
102
{ACAD_REACTORS
330
DD
102
}
330
DD
100
AcDbTableStyle
280
     0
  3
Standard
 70
     0
 71
     0
 40
0.06
 41
0.06
280
     0
281
     0
  7
Standard
140
0.18
170
     2
 62
     0
 63
     7
283
     0
 90
      512
 91
        0
  1

274
    -2
284
     1
 64
     0
275
    -2
285
     1
 65
     0
276
    -2
286
     1
 66
     0
277
    -2
287
     1
 67
     0
278
    -2
288
     1
 68
     0
279
    -2
289
     1
 69
     0
  7
Standard
140
0.25
170
     5
 62
     0
 63
     7
283
     0
 90
      512
 91
        0
  1

274
    -2
284
     1
 64
     0
275
    -2
285
     1
 65
     0
276
    -2
286
     1
 66
     0
277
    -2
287
     1
 67
     0
278
    -2
288
     1
 68
     0
279
    -2
289
     1
 69
     0
  7
Standard
140
0.18
170
     5
 62
     0
 63
     7
283
     0
 90
      512
 91
        0
  1

274
    -2
284
     1
 64
     0
275
    -2
285
     1
 65
     0
276
    -2
286
     1
 66
     0
277
    -2
287
     1
 67
     0
278
    -2
288
     1
 68
     0
279
    -2
289
     1
 69
     0
  0
VISUALSTYLE
  5
C9
102
{ACAD_XDICTIONARY
360
177
102
}
102
{ACAD_REACTORS
330
C3
102
}
330
C3
100
AcDbVisualStyle
  2
2dWireframe
 70
     4
177
     2
291
     0
 71
     0
176
     1
 72
     2
176
     1
 73
     0
176
     1
 90
        0
176
     1
 40
0.6
176
     1
 41
30.0
176
     1
 63
     7
421
 16777215
176
     1
 74
     1
176
     1
 91
        4
176
     1
 64
     7
176
     1
 65
   257
176
     1
 75
     1
176
     1
175
     1
176
     1
 42
1.0
176
     1
 92
        0
176
     1
 66
   257
176
     1
 43
1.0
176
     1
 76
     1
176
     1
 77
     6
176
     1
 78
     2
176
     1
 67
     7
176
     1
 79
     5
176
     1
170
     0
176
     1
171
     0
176
     1
290
     0
176
     1
 93
        1
176
     1
 44
0.0
176
     1
173
     0
176
     1
1001
ACAD
1000
AcDbSavedByObjectVersion
1070
     0
  0
VISUALSTYLE
  5
C8
102
{ACAD_XDICTIONARY
360
175
102
}
102
{ACAD_REACTORS
330
C3
102
}
330
C3
100
AcDbVisualStyle
  2
Basic
 70
     7
177
     2
291
     1
 71
     1
176
     1
 72
     0
176
     1
 73
     1
176
     1
 90
        0
176
     1
 40
0.6
176
     1
 41
30.0
176
     1
 63
     7
421
 16777215
176
     1
 74
     0
176
     1
 91
        4
176
     1
 64
     7
176
     1
 65
   257
176
     1
 75
     1
176
     1
175
     1
176
     1
 42
1.0
176
     1
 92
        8
176
     1
 66
     7
176
     1
 43
1.0
176
     1
 76
     1
176
     1
 77
     6
176
     1
 78
     2
176
     1
 67
     7
176
     1
 79
     5
176
     1
170
     0
176
     1
171
     0
176
     1
290
     0
176
     1
 93
        1
176
     1
 44
0.0
176
     1
173
     0
176
     1
1001
ACAD
1000
AcDbSavedByObjectVersion
1070
     0
  0
VISUALSTYLE
  5
CF
102
{ACAD_XDICTIONARY
360
183
102
}
102
{ACAD_REACTORS
330
C3
102
}
330
C3
100
AcDbVisualStyle
  2
Brighten
 70
    12
177
     2
291
     1
 71
     2
176
     1
 72
     2
176
     1
 73
     0
176
     1
 90
        0
176
     1
 40
0.6
176
     1
 41
30.0
176
     1
 63
     7
421
 16777215
176
     1
 74
     1
176
     1
 91
        4
176
     1
 64
     7
176
     1
 65
   257
176
     1
 75
     1
176
     1
175
     1
176
     1
 42
1.0
176
     1
 92
        8
176
     1
 66
     7
176
     1
 43
1.0
176
     1
 76
     1
176
     1
 77
     6
176
     1
 78
     2
176
     1
 67
     7
176
     1
 79
     5
176
     1
170
     0
176
     1
171
     0
176
     1
290
     0
176
     1
 93
        1
176
     1
 44
50.0
176
     1
173
     0
176
     1
1001
ACAD
1000
AcDbSavedByObjectVersion
1070
     0
  0
VISUALSTYLE
  5
D3
102
{ACAD_XDICTIONARY
360
18B
102
}
102
{ACAD_REACTORS
330
C3
102
}
330
C3
100
AcDbVisualStyle
  2
ColorChange
 70
    16
177
     2
291
     1
 71
     2
176
     1
 72
     2
176
     1
 73
     3
176
     1
 90
        0
176
     1
 40
0.6
176
     1
 41
30.0
176
     1
 63
     8
421
  8421504
176
     1
 74
     1
176
     1
 91
        4
176
     1
 64
     7
176
     1
 65
   257
176
     1
 75
     1
176
     1
175
     1
176
     1
 42
1.0
176
     1
 92
        8
176
     1
 66
     8
424
  8421504
176
     1
 43
1.0
176
     1
 76
     1
176
     1
 77
     6
176
     1
 78
     2
176
     1
 67
     7
176
     1
 79
     5
176
     1
170
     0
176
     1
171
     0
176
     1
290
     0
176
     1
 93
        1
176
     1
 44
0.0
176
     1
173
     0
176
     1
1001
ACAD
1000
AcDbSavedByObjectVersion
1070
     0
  0
VISUALSTYLE
  5
CC
102
{ACAD_XDICTIONARY
360
17D
102
}
102
{ACAD_REACTORS
330
C3
102
}
330
C3
100
AcDbVisualStyle
  2
Conceptual
 70
     9
177
     2
291
     0
 71
     3
176
     1
 72
     2
176
     1
 73
     0
176
     1
 90
        0
176
     1
 40
0.6
176
     1
 41
30.0
176
     1
 63
     7
421
 16777215
176
     1
 74
     2
176
     1
 91
        2
176
     1
 64
     7
176
     1
 65
   257
176
     1
 75
     1
176
     1
175
     1
176
     1
 42
179.0
176
     1
 92
        8
176
     1
 66
     7
176
     1
 43
1.0
176
     1
 76
     1
176
     1
 77
     6
176
     1
 78
     2
176
     1
 67
     7
176
     1
 79
     3
176
     1
170
     0
176
     1
171
     0
176
     1
290
     0
176
     1
 93
        1
176
     1
 44
0.0
176
     1
173
     0
176
     1
1001
ACAD
1000
AcDbSavedByObjectVersion
1070
     0
  0
VISUALSTYLE
  5
CE
102
{ACAD_XDICTIONARY
360
181
102
}
102
{ACAD_REACTORS
330
C3
102
}
330
C3
100
AcDbVisualStyle
  2
Dim
 70
    11
177
     2
291
     1
 71
     2
176
     1
 72
     2
176
     1
 73
     0
176
     1
 90
        0
176
     1
 40
0.6
176
     1
 41
30.0
176
     1
 63
     7
421
 16777215
176
     1
 74
     1
176
     1
 91
        4
176
     1
 64
     7
176
     1
 65
   257
176
     1
 75
     1
176
     1
175
     1
176
     1
 42
1.0
176
     1
 92
        8
176
     1
 66
     7
176
     1
 43
1.0
176
     1
 76
     1
176
     1
 77
     6
176
     1
 78
     2
176
     1
 67
     7
176
     1
 79
     5
176
     1
170
     0
176
     1
171
     0
176
     1
290
     0
176
     1
 93
        1
176
     1
 44
-50.0
176
     1
173
     0
176
     1
1001
ACAD
1000
AcDbSavedByObjectVersion
1070
     0
  0
VISUALSTYLE
  5
DB
102
{ACAD_XDICTIONARY
360
19B
102
}
102
{ACAD_REACTORS
330
C3
102
}
330
C3
100
AcDbVisualStyle
  2
EdgeColorOff
 70
    22
177
     2
291
     1
 71
     2
176
     0
 72
     2
176
     0
 73
     0
176
     0
 90
        0
176
     0
 40
0.6
176
     0
 41
30.0
176
     0
 63
     7
421
 16777215
176
     0
 74
     1
176
     0
 91
        4
176
     0
 64
     7
176
     0
 65
   257
176
     0
 75
     1
176
     0
175
     1
176
     0
 42
1.0
176
     0
 92
        8
176
     2
 66
     7
176
     0
 43
1.0
176
     0
 76
     1
176
     0
 77
     6
176
     0
 78
     2
176
     0
 67
     7
176
     0
 79
     5
176
     0
170
     0
176
     0
171
     0
176
     0
290
     0
176
     0
 93
        1
176
     0
 44
0.0
176
     0
173
     0
176
     0
1001
ACAD
1000
AcDbSavedByObjectVersion
1070
     0
  0
VISUALSTYLE
  5
D2
102
{ACAD_XDICTIONARY
360
189
102
}
102
{ACAD_REACTORS
330
C3
102
}
330
C3
100
AcDbVisualStyle
  2
Facepattern
 70
    15
177
     2
291
     1
 71
     2
176
     1
 72
     2
176
     1
 73
     0
176
     1
 90
        0
176
     1
 40
0.6
176
     1
 41
30.0
176
     1
 63
     7
421
 16777215
176
     1
 74
     1
176
     1
 91
        4
176
     1
 64
     7
176
     1
 65
   257
176
     1
 75
     1
176
     1
175
     1
176
     1
 42
1.0
176
     1
 92
        8
176
     1
 66
     7
176
     1
 43
1.0
176
     1
 76
     1
176
     1
 77
     6
176
     1
 78
     2
176
     1
 67
     7
176
     1
 79
     5
176
     1
170
     0
176
     1
171
     0
176
     1
290
     0
176
     1
 93
        1
176
     1
 44
0.0
176
     1
173
     0
176
     1
1001
ACAD
1000
AcDbSavedByObjectVersion
1070
     0
  0
VISUALSTYLE
  5
C4
102
{ACAD_XDICTIONARY
360
16D
102
}
102
{ACAD_REACTORS
330
C3
102
}
330
C3
100
AcDbVisualStyle
  2
Flat
 70
     0
177
     2
291
     1
 71
     2
176
     1
 72
     1
176
     1
 73
     1
176
     1
 90
        2
176
     1
 40
0.6
176
     1
 41
30.0
176
     1
 63
     7
421
 16777215
176
     1
 74
     0
176
     1
 91
        0
176
     1
 64
     7
176
     1
 65
   257
176
     1
 75
     1
176
     1
175
     1
176
     1
 42
1.0
176
     1
 92
        8
176
     1
 66
     7
176
     1
 43
1.0
176
     1
 76
     1
176
     1
 77
     6
176
     1
 78
     2
176
     1
 67
     7
176
     1
 79
     5
176
     1
170
     0
176
     1
171
     0
176
     1
290
     0
176
     1
 93
       13
176
     1
 44
0.0
176
     1
173
     0
176
     1
1001
ACAD
1000
AcDbSavedByObjectVersion
1070
     0
  0
VISUALSTYLE
  5
C5
102
{ACAD_XDICTIONARY
360
16F
102
}
102
{ACAD_REACTORS
330
C3
102
}
330
C3
100
AcDbVisualStyle
  2
FlatWithEdges
 70
     1
177
     2
291
     1
 71
     2
176
     1
 72
     1
176
     1
 73
     1
176
     1
 90
        2
176
     1
 40
0.6
176
     1
 41
30.0
176
     1
 63
     7
421
 16777215
176
     1
 74
     1
176
     1
 91
        0
176
     1
 64
     7
176
     1
 65
   257
176
     1
 75
     1
176
     1
175
     1
176
     1
 42
1.0
176
     1
 92
        0
176
     1
 66
   257
176
     1
 43
1.0
176
     1
 76
     1
176
     1
 77
     6
176
     1
 78
     2
176
     1
 67
     7
176
     1
 79
     5
176
     1
170
     0
176
     1
171
     0
176
     1
290
     0
176
     1
 93
       13
176
     1
 44
0.0
176
     1
173
     0
176
     1
1001
ACAD
1000
AcDbSavedByObjectVersion
1070
     0
  0
VISUALSTYLE
  5
C6
102
{ACAD_XDICTIONARY
360
171
102
}
102
{ACAD_REACTORS
330
C3
102
}
330
C3
100
AcDbVisualStyle
  2
Gouraud
 70
     2
177
     2
291
     1
 71
     2
176
     1
 72
     2
176
     1
 73
     1
176
     1
 90
        2
176
     1
 40
0.6
176
     1
 41
30.0
176
     1
 63
     7
421
 16777215
176
     1
 74
     0
176
     1
 91
        0
176
     1
 64
     7
176
     1
 65
   257
176
     1
 75
     1
176
     1
175
     1
176
     1
 42
1.0
176
     1
 92
        0
176
     1
 66
     7
176
     1
 43
1.0
176
     1
 76
     1
176
     1
 77
     6
176
     1
 78
     2
176
     1
 67
     7
176
     1
 79
     5
176
     1
170
     0
176
     1
171
     0
176
     1
290
     0
176
     1
 93
       13
176
     1
 44
0.0
176
     1
173
     0
176
     1
1001
ACAD
1000
AcDbSavedByObjectVersion
1070
     0
  0
VISUALSTYLE
  5
C7
102
{ACAD_XDICTIONARY
360
173
102
}
102
{ACAD_REACTORS
330
C3
102
}
330
C3
100
AcDbVisualStyle
  2
GouraudWithEdges
 70
     3
177
     2
291
     1
 71
     2
176
     1
 72
     2
176
     1
 73
     1
176
     1
 90
        2
176
     1
 40
0.6
176
     1
 41
30.0
176
     1
 63
     7
421
 16777215
176
     1
 74
     1
176
     1
 91
        0
176
     1
 64
     7
176
     1
 65
   257
176
     1
 75
     1
176
     1
175
     1
176
     1
 42
1.0
176
     1
 92
        0
176
     1
 66
   257
176
     1
 43
1.0
176
     1
 76
     1
176
     1
 77
     6
176
     1
 78
     2
176
     1
 67
     7
176
     1
 79
     5
176
     1
170
     0
176
     1
171
     0
176
     1
290
     0
176
     1
 93
       13
176
     1
 44
0.0
176
     1
173
     0
176
     1
1001
ACAD
1000
AcDbSavedByObjectVersion
1070
     0
  0
VISUALSTYLE
  5
CB
102
{ACAD_XDICTIONARY
360
17B
102
}
102
{ACAD_REACTORS
330
C3
102
}
330
C3
100
AcDbVisualStyle
  2
Hidden
 70
     6
177
     2
291
     0
 71
     1
176
     1
 72
     2
176
     1
 73
     2
176
     1
 90
        0
176
     1
 40
0.6
176
     1
 41
30.0
176
     1
 63
     7
421
 16777215
176
     1
 74
     2
176
     1
 91
        2
176
     1
 64
     7
176
     1
 65
   257
176
     1
 75
     2
176
     1
175
     1
176
     1
 42
40.0
176
     1
 92
        0
176
     1
 66
   257
176
     1
 43
1.0
176
     1
 76
     1
176
     1
 77
     6
176
     1
 78
     2
176
     1
 67
     7
176
     1
 79
     3
176
     1
170
     0
176
     1
171
     0
176
     1
290
     0
176
     1
 93
        1
176
     1
 44
0.0
176
     1
173
     0
176
     1
1001
ACAD
1000
AcDbSavedByObjectVersion
1070
     0
  0
VISUALSTYLE
  5
D9
102
{ACAD_XDICTIONARY
360
197
102
}
102
{ACAD_REACTORS
330
C3
102
}
330
C3
100
AcDbVisualStyle
  2
JitterOff
 70
    20
177
     2
291
     1
 71
     2
176
     0
 72
     2
176
     0
 73
     0
176
     0
 90
        0
176
     0
 40
0.6
176
     0
 41
30.0
176
     0
 63
     7
421
 16777215
176
     0
 74
     1
176
     0
 91
        4
176
     0
 64
     7
176
     0
 65
   257
176
     0
 75
     1
176
     0
175
     1
176
     0
 42
1.0
176
     0
 92
       10
176
     2
 66
     7
176
     0
 43
1.0
176
     0
 76
     1
176
     0
 77
     6
176
     0
 78
     2
176
     0
 67
     7
176
     0
 79
     5
176
     0
170
     0
176
     0
171
     0
176
     0
290
     0
176
     0
 93
        1
176
     0
 44
0.0
176
     0
173
     0
176
     0
1001
ACAD
1000
AcDbSavedByObjectVersion
1070
     0
  0
VISUALSTYLE
  5
D1
102
{ACAD_XDICTIONARY
360
187
102
}
102
{ACAD_REACTORS
330
C3
102
}
330
C3
100
AcDbVisualStyle
  2
Linepattern
 70
    14
177
     2
291
     1
 71
     2
176
     1
 72
     2
176
     1
 73
     0
176
     1
 90
        0
176
     1
 40
0.6
176
     1
 41
30.0
176
     1
 63
     7
421
 16777215
176
     1
 74
     1
176
     1
 91
        4
176
     1
 64
     7
176
     1
 65
   257
176
     1
 75
     7
176
     1
175
     7
176
     1
 42
1.0
176
     1
 92
        8
176
     1
 66
     7
176
     1
 43
1.0
176
     1
 76
     1
176
     1
 77
     6
176
     1
 78
     2
176
     1
 67
     7
176
     1
 79
     5
176
     1
170
     0
176
     1
171
     0
176
     1
290
     0
176
     1
 93
        1
176
     1
 44
0.0
176
     1
173
     0
176
     1
1001
ACAD
1000
AcDbSavedByObjectVersion
1070
     0
  0
VISUALSTYLE
  5
DA
102
{ACAD_XDICTIONARY
360
199
102
}
102
{ACAD_REACTORS
330
C3
102
}
330
C3
100
AcDbVisualStyle
  2
OverhangOff
 70
    21
177
     2
291
     1
 71
     2
176
     0
 72
     2
176
     0
 73
     0
176
     0
 90
        0
176
     0
 40
0.6
176
     0
 41
30.0
176
     0
 63
     7
421
 16777215
176
     0
 74
     1
176
     0
 91
        4
176
     0
 64
     7
176
     0
 65
   257
176
     0
 75
     1
176
     0
175
     1
176
     0
 42
1.0
176
     0
 92
        9
176
     2
 66
     7
176
     0
 43
1.0
176
     0
 76
     1
176
     0
 77
     6
176
     0
 78
     2
176
     0
 67
     7
176
     0
 79
     5
176
     0
170
     0
176
     0
171
     0
176
     0
290
     0
176
     0
 93
        1
176
     0
 44
0.0
176
     0
173
     0
176
     0
1001
ACAD
1000
AcDbSavedByObjectVersion
1070
     0
  0
VISUALSTYLE
  5
CD
102
{ACAD_XDICTIONARY
360
17F
102
}
102
{ACAD_REACTORS
330
C3
102
}
330
C3
100
AcDbVisualStyle
  2
Realistic
 70
     8
177
     2
291
     0
 71
     2
176
     1
 72
     3
176
     1
 73
     0
176
     1
 90
        2
176
     1
 40
0.6
176
     1
 41
30.0
176
     1
 63
     7
421
 16777215
176
     1
 74
     0
176
     1
 91
        0
176
     1
 64
     7
176
     1
 65
   257
176
     1
 75
     1
176
     1
175
     1
176
     1
 42
1.0
176
     1
 92
        8
176
     1
 66
   257
176
     1
 43
1.0
176
     1
 76
     1
176
     1
 77
     6
176
     1
 78
     2
176
     1
 67
     7
176
     1
 79
     3
176
     1
170
     0
176
     1
171
     0
176
     1
290
     0
176
     1
 93
       13
176
     1
 44
0.0
176
     1
173
     0
176
     1
1001
ACAD
1000
AcDbSavedByObjectVersion
1070
     0
  0
VISUALSTYLE
  5
D8
102
{ACAD_XDICTIONARY
360
195
102
}
102
{ACAD_REACTORS
330
C3
102
}
330
C3
100
AcDbVisualStyle
  2
Shaded
 70
    27
177
     2
291
     0
 71
     2
176
     1
 72
     2
176
     1
 73
     1
176
     1
 90
        2
176
     1
 40
0.6
176
     1
 41
30.0
176
     1
 63
     7
421
 16777215
176
     1
 74
     0
176
     1
 91
        4
176
     1
 64
     7
176
     1
 65
   257
176
     1
 75
     1
176
     1
175
     1
176
     1
 42
1.0
176
     1
 92
        8
176
     1
 66
   257
176
     1
 43
1.0
176
     1
 76
     1
176
     1
 77
     6
176
     1
 78
     2
176
     1
 67
     8
425
  7895160
176
     1
 79
     3
176
     1
170
     0
176
     1
171
     0
176
     1
290
     0
176
     1
 93
        5
176
     1
 44
0.0
176
     1
173
     0
176
     1
1001
ACAD
1000
AcDbSavedByObjectVersion
1070
     0
  0
VISUALSTYLE
  5
D7
102
{ACAD_XDICTIONARY
360
193
102
}
102
{ACAD_REACTORS
330
C3
102
}
330
C3
100
AcDbVisualStyle
  2
Shaded with edges
 70
    26
177
     2
291
     0
 71
     2
176
     1
 72
     2
176
     1
 73
     1
176
     1
 90
        2
176
     1
 40
0.6
176
     1
 41
30.0
176
     1
 63
     7
421
 16777215
176
     1
 74
     1
176
     1
 91
       10
176
     1
 64
     7
176
     1
 65
   257
176
     1
 75
     2
176
     1
175
     1
176
     1
 42
1.0
176
     1
 92
        8
176
     1
 66
   257
176
     1
 43
1.0
176
     1
 76
     1
176
     1
 77
     6
176
     1
 78
     2
176
     1
 67
     7
176
     1
 79
     3
176
     1
170
     0
176
     1
171
     0
176
     1
290
     0
176
     1
 93
        5
176
     1
 44
0.0
176
     1
173
     0
176
     1
1001
ACAD
1000
AcDbSavedByObjectVersion
1070
     0
  0
VISUALSTYLE
  5
D4
102
{ACAD_XDICTIONARY
360
18D
102
}
102
{ACAD_REACTORS
330
C3
102
}
330
C3
100
AcDbVisualStyle
  2
Shades of Gray
 70
    23
177
     2
291
     0
 71
     2
176
     1
 72
     2
176
     1
 73
     3
176
     1
 90
        0
176
     1
 40
0.6
176
     1
 41
30.0
176
     1
 63
     7
421
 16777215
176
     1
 74
     2
176
     1
 91
        2
176
     1
 64
     7
176
     1
 65
     7
176
     1
 75
     1
176
     1
175
     1
176
     1
 42
40.0
176
     1
 92
        8
176
     1
 66
     7
176
     1
 43
1.0
176
     1
 76
     1
176
     1
 77
     6
176
     1
 78
     2
176
     1
 67
     7
176
     1
 79
     3
176
     1
170
     0
176
     1
171
     0
176
     1
290
     0
176
     1
 93
        1
176
     1
 44
0.0
176
     1
173
     0
176
     1
1001
ACAD
1000
AcDbSavedByObjectVersion
1070
     0
  0
VISUALSTYLE
  5
D5
102
{ACAD_XDICTIONARY
360
18F
102
}
102
{ACAD_REACTORS
330
C3
102
}
330
C3
100
AcDbVisualStyle
  2
Sketchy
 70
    24
177
     2
291
     0
 71
     1
176
     1
 72
     2
176
     1
 73
     2
176
     1
 90
        0
176
     1
 40
0.6
176
     1
 41
30.0
176
     1
 63
     7
421
 16777215
176
     1
 74
     2
176
     1
 91
        2
176
     1
 64
     7
176
     1
 65
     7
176
     1
 75
     1
176
     1
175
     1
176
     1
 42
40.0
176
     1
 92
       11
176
     1
 66
     7
176
     1
 43
1.0
176
     1
 76
     1
176
     1
 77
     6
176
     1
 78
     2
176
     1
 67
     7
176
     1
 79
     6
176
     1
170
     0
176
     1
171
     0
176
     1
290
     0
176
     1
 93
        1
176
     1
 44
0.0
176
     1
173
     0
176
     1
1001
ACAD
1000
AcDbSavedByObjectVersion
1070
     0
  0
VISUALSTYLE
  5
D0
102
{ACAD_XDICTIONARY
360
185
102
}
102
{ACAD_REACTORS
330
C3
102
}
330
C3
100
AcDbVisualStyle
  2
Thicken
 70
    13
177
     2
291
     1
 71
     2
176
     1
 72
     2
176
     1
 73
     0
176
     1
 90
        0
176
     1
 40
0.6
176
     1
 41
30.0
176
     1
 63
     7
421
 16777215
176
     1
 74
     1
176
     1
 91
        4
176
     1
 64
     7
176
     1
 65
   257
176
     1
 75
     1
176
     1
175
     1
176
     1
 42
1.0
176
     1
 92
       12
176
     1
 66
     7
176
     1
 43
1.0
176
     1
 76
     1
176
     1
 77
     6
176
     1
 78
     2
176
     1
 67
     7
176
     1
 79
     5
176
     1
170
     0
176
     1
171
     0
176
     1
290
     0
176
     1
 93
        1
176
     1
 44
0.0
176
     1
173
     0
176
     1
1001
ACAD
1000
AcDbSavedByObjectVersion
1070
     0
  0
VISUALSTYLE
  5
CA
102
{ACAD_XDICTIONARY
360
179
102
}
102
{ACAD_REACTORS
330
C3
102
}
330
C3
100
AcDbVisualStyle
  2
Wireframe
 70
     5
177
     2
291
     0
 71
     0
176
     1
 72
     2
176
     1
 73
     0
176
     1
 90
        0
176
     1
 40
0.6
176
     1
 41
30.0
176
     1
 63
     7
421
 16777215
176
     1
 74
     1
176
     1
 91
        4
176
     1
 64
     7
176
     1
 65
   257
176
     1
 75
     1
176
     1
175
     1
176
     1
 42
1.0
176
     1
 92
        0
176
     1
 66
   257
176
     1
 43
1.0
176
     1
 76
     1
176
     1
 77
     6
176
     1
 78
     2
176
     1
 67
     7
176
     1
 79
     3
176
     1
170
     0
176
     1
171
     0
176
     1
290
     0
176
     1
 93
        1
176
     1
 44
0.0
176
     1
173
     0
176
     1
1001
ACAD
1000
AcDbSavedByObjectVersion
1070
     0
  0
VISUALSTYLE
  5
D6
102
{ACAD_XDICTIONARY
360
191
102
}
102
{ACAD_REACTORS
330
C3
102
}
330
C3
100
AcDbVisualStyle
  2
X-Ray
 70
    25
177
     2
291
     0
 71
     2
176
     1
 72
     2
176
     1
 73
     1
176
     1
 90
        1
176
     1
 40
0.5
176
     1
 41
30.0
176
     1
 63
     7
421
 16777215
176
     1
 74
     1
176
     1
 91
        0
176
     1
 64
     7
176
     1
 65
   257
176
     1
 75
     1
176
     1
175
     1
176
     1
 42
1.0
176
     1
 92
        8
176
     1
 66
     7
176
     1
 43
1.0
176
     1
 76
     1
176
     1
 77
     6
176
     1
 78
     2
176
     1
 67
     7
176
     1
 79
     3
176
     1
170
     0
176
     1
171
     0
176
     1
290
     0
176
     1
 93
       13
176
     1
 44
0.0
176
     1
173
     0
176
     1
1001
ACAD
1000
AcDbSavedByObjectVersion
1070
     0
  0
DICTIONARYVAR
  5
166
102
{ACAD_REACTORS
330
160
102
}
330
160
100
DictionaryVariables
280
     0
  1
1:1
  0
DICTIONARYVAR
  5
162
102
{ACAD_REACTORS
330
160
102
}
330
160
100
DictionaryVariables
280
     0
  1
STANDARD
  0
DICTIONARYVAR
  5
161
102
{ACAD_REACTORS
330
160
102
}
330
160
100
DictionaryVariables
280
     0
  1
STANDARD
  0
DICTIONARYVAR
  5
163
102
{ACAD_REACTORS
330
160
102
}
330
160
100
DictionaryVariables
280
     0
  1
Imperial24
  0
DICTIONARYVAR
  5
164
102
{ACAD_REACTORS
330
160
102
}
330
160
100
DictionaryVariables
280
     0
  1
Imperial24
  0
DICTIONARYVAR
  5
168
102
{ACAD_REACTORS
330
160
102
}
330
160
100
DictionaryVariables
280
     0
  1
1
  0
DICTIONARYVAR
  5
169
102
{ACAD_REACTORS
330
160
102
}
330
160
100
DictionaryVariables
280
     0
  1
15
  0
DICTIONARYVAR
  5
167
102
{ACAD_REACTORS
330
160
102
}
330
160
100
DictionaryVariables
280
     0
  1
0
  0
DICTIONARYVAR
  5
165
102
{ACAD_REACTORS
330
160
102
}
330
160
100
DictionaryVariables
280
     0
  1
0
  0
DICTIONARY
  5
1A1
330
F6
100
AcDbDictionary
280
     1
281
     1
  3
ACAD_XREC_ROUNDTRIP
360
1A2
  0
DICTIONARY
  5
B4
330
B3
100
AcDbDictionary
280
     1
281
     1
  3
BUMPTILE
360
B6
  3
DIFFUSETILE
360
B5
  3
OPACITYTILE
360
B9
  3
REFLECTIONTILE
360
B8
  3
REFRACTIONTILE
360
BA
  3
SPECULARTILE
360
B7
  0
DICTIONARY
  5
AC
330
AB
100
AcDbDictionary
280
     1
281
     1
  3
BUMPTILE
360
AE
  3
DIFFUSETILE
360
AD
  3
OPACITYTILE
360
B1
  3
REFLECTIONTILE
360
B0
  3
REFRACTIONTILE
360
B2
  3
SPECULARTILE
360
AF
  0
DICTIONARY
  5
BC
330
BB
100
AcDbDictionary
280
     1
281
     1
  3
BUMPTILE
360
BE
  3
DIFFUSETILE
360
BD
  3
OPACITYTILE
360
C1
  3
REFLECTIONTILE
360
C0
  3
REFRACTIONTILE
360
C2
  3
SPECULARTILE
360
BF
  0
DICTIONARY
  5
19D
330
F2
100
AcDbDictionary
280
     1
281
     1
  3
ACAD_XREC_ROUNDTRIP
360
19E
  0
DICTIONARY
  5
19F
330
F4
100
AcDbDictionary
280
     1
281
     1
  3
ACAD_XREC_ROUNDTRIP
360
1A0
  0
DICTIONARY
  5
16A
330
DE
100
AcDbDictionary
280
     1
281
     1
  3
ACAD_ROUNDTRIP_2008_TABLESTYLE_CELLSTYLEMAP
360
16B
  0
DICTIONARY
  5
177
330
C9
100
AcDbDictionary
280
     1
281
     1
  3
ACAD_XREC_ROUNDTRIP
360
178
  0
DICTIONARY
  5
175
330
C8
100
AcDbDictionary
280
     1
281
     1
  3
ACAD_XREC_ROUNDTRIP
360
176
  0
DICTIONARY
  5
183
330
CF
100
AcDbDictionary
280
     1
281
     1
  3
ACAD_XREC_ROUNDTRIP
360
184
  0
DICTIONARY
  5
18B
330
D3
100
AcDbDictionary
280
     1
281
     1
  3
ACAD_XREC_ROUNDTRIP
360
18C
  0
DICTIONARY
  5
17D
330
CC
100
AcDbDictionary
280
     1
281
     1
  3
ACAD_XREC_ROUNDTRIP
360
17E
  0
DICTIONARY
  5
181
330
CE
100
AcDbDictionary
280
     1
281
     1
  3
ACAD_XREC_ROUNDTRIP
360
182
  0
DICTIONARY
  5
19B
330
DB
100
AcDbDictionary
280
     1
281
     1
  3
ACAD_XREC_ROUNDTRIP
360
19C
  0
DICTIONARY
  5
189
330
D2
100
AcDbDictionary
280
     1
281
     1
  3
ACAD_XREC_ROUNDTRIP
360
18A
  0
DICTIONARY
  5
16D
330
C4
100
AcDbDictionary
280
     1
281
     1
  3
ACAD_XREC_ROUNDTRIP
360
16E
  0
DICTIONARY
  5
16F
330
C5
100
AcDbDictionary
280
     1
281
     1
  3
ACAD_XREC_ROUNDTRIP
360
170
  0
DICTIONARY
  5
171
330
C6
100
AcDbDictionary
280
     1
281
     1
  3
ACAD_XREC_ROUNDTRIP
360
172
  0
DICTIONARY
  5
173
330
C7
100
AcDbDictionary
280
     1
281
     1
  3
ACAD_XREC_ROUNDTRIP
360
174
  0
DICTIONARY
  5
17B
330
CB
100
AcDbDictionary
280
     1
281
     1
  3
ACAD_XREC_ROUNDTRIP
360
17C
  0
DICTIONARY
  5
197
330
D9
100
AcDbDictionary
280
     1
281
     1
  3
ACAD_XREC_ROUNDTRIP
360
198
  0
DICTIONARY
  5
187
330
D1
100
AcDbDictionary
280
     1
281
     1
  3
ACAD_XREC_ROUNDTRIP
360
188
  0
DICTIONARY
  5
199
330
DA
100
AcDbDictionary
280
     1
281
     1
  3
ACAD_XREC_ROUNDTRIP
360
19A
  0
DICTIONARY
  5
17F
330
CD
100
AcDbDictionary
280
     1
281
     1
  3
ACAD_XREC_ROUNDTRIP
360
180
  0
DICTIONARY
  5
195
330
D8
100
AcDbDictionary
280
     1
281
     1
  3
ACAD_XREC_ROUNDTRIP
360
196
  0
DICTIONARY
  5
193
330
D7
100
AcDbDictionary
280
     1
281
     1
  3
ACAD_XREC_ROUNDTRIP
360
194
  0
DICTIONARY
  5
18D
330
D4
100
AcDbDictionary
280
     1
281
     1
  3
ACAD_XREC_ROUNDTRIP
360
18E
  0
DICTIONARY
  5
18F
330
D5
100
AcDbDictionary
280
     1
281
     1
  3
ACAD_XREC_ROUNDTRIP
360
190
  0
DICTIONARY
  5
185
330
D0
100
AcDbDictionary
280
     1
281
     1
  3
ACAD_XREC_ROUNDTRIP
360
186
  0
DICTIONARY
  5
179
330
CA
100
AcDbDictionary
280
     1
281
     1
  3
ACAD_XREC_ROUNDTRIP
360
17A
  0
DICTIONARY
  5
191
330
D6
100
AcDbDictionary
280
     1
281
     1
  3
ACAD_XREC_ROUNDTRIP
360
192
  0
XRECORD
  5
1A2
102
{ACAD_REACTORS
330
1A1
102
}
330
1A1
100
AcDbXrecord
280
     1
102
DISPLAYNAME
  1
Imperial24
102
FLAGS
 90
        0
  0
XRECORD
  5
B6
102
{ACAD_REACTORS
330
B4
102
}
330
B4
100
AcDbXrecord
280
     1
270
     1
271
     1
  0
XRECORD
  5
B5
102
{ACAD_REACTORS
330
B4
102
}
330
B4
100
AcDbXrecord
280
     1
270
     1
271
     1
  0
XRECORD
  5
B9
102
{ACAD_REACTORS
330
B4
102
}
330
B4
100
AcDbXrecord
280
     1
270
     1
271
     1
  0
XRECORD
  5
B8
102
{ACAD_REACTORS
330
B4
102
}
330
B4
100
AcDbXrecord
280
     1
270
     1
271
     1
  0
XRECORD
  5
BA
102
{ACAD_REACTORS
330
B4
102
}
330
B4
100
AcDbXrecord
280
     1
270
     1
271
     1
  0
XRECORD
  5
B7
102
{ACAD_REACTORS
330
B4
102
}
330
B4
100
AcDbXrecord
280
     1
270
     1
271
     1
  0
XRECORD
  5
AE
102
{ACAD_REACTORS
330
AC
102
}
330
AC
100
AcDbXrecord
280
     1
270
     1
271
     1
  0
XRECORD
  5
AD
102
{ACAD_REACTORS
330
AC
102
}
330
AC
100
AcDbXrecord
280
     1
270
     1
271
     1
  0
XRECORD
  5
B1
102
{ACAD_REACTORS
330
AC
102
}
330
AC
100
AcDbXrecord
280
     1
270
     1
271
     1
  0
XRECORD
  5
B0
102
{ACAD_REACTORS
330
AC
102
}
330
AC
100
AcDbXrecord
280
     1
270
     1
271
     1
  0
XRECORD
  5
B2
102
{ACAD_REACTORS
330
AC
102
}
330
AC
100
AcDbXrecord
280
     1
270
     1
271
     1
  0
XRECORD
  5
AF
102
{ACAD_REACTORS
330
AC
102
}
330
AC
100
AcDbXrecord
280
     1
270
     1
271
     1
  0
XRECORD
  5
BE
102
{ACAD_REACTORS
330
BC
102
}
330
BC
100
AcDbXrecord
280
     1
270
     1
271
     1
  0
XRECORD
  5
BD
102
{ACAD_REACTORS
330
BC
102
}
330
BC
100
AcDbXrecord
280
     1
270
     1
271
     1
  0
XRECORD
  5
C1
102
{ACAD_REACTORS
330
BC
102
}
330
BC
100
AcDbXrecord
280
     1
270
     1
271
     1
  0
XRECORD
  5
C0
102
{ACAD_REACTORS
330
BC
102
}
330
BC
100
AcDbXrecord
280
     1
270
     1
271
     1
  0
XRECORD
  5
C2
102
{ACAD_REACTORS
330
BC
102
}
330
BC
100
AcDbXrecord
280
     1
270
     1
271
     1
  0
XRECORD
  5
BF
102
{ACAD_REACTORS
330
BC
102
}
330
BC
100
AcDbXrecord
280
     1
270
     1
271
     1
  0
XRECORD
  5
19E
102
{ACAD_REACTORS
330
19D
102
}
330
19D
100
AcDbXrecord
280
     1
102
ACAD_ROUNDTRIP_2012_MLEADER_STYLE
298
     1
  0
XRECORD
  5
1A0
102
{ACAD_REACTORS
330
19F
102
}
330
19F
100
AcDbXrecord
280
     1
102
DISPLAYNAME
  1
Imperial24
102
FLAGS
 90
        0
  0
CELLSTYLEMAP
  5
16B
102
{ACAD_REACTORS
330
16A
102
}
330
16A
100
AcDbCellStyleMap
 90
        3
300
CELLSTYLE
  1
TABLEFORMAT_BEGIN
 90
        5
170
     1
 91
        0
 92
    32768
 62
   257
 93
        1
300
CONTENTFORMAT
  1
CONTENTFORMAT_BEGIN
 90
        0
 91
        0
 92
      512
 93
        0
300

 40
0.0
140
1.0
 94
        5
 62
     0
340
11
144
0.25
309
CONTENTFORMAT_END
171
     0
 94
        0
309
TABLEFORMAT_END
  1
CELLSTYLE_BEGIN
 90
        1
 91
        1
300
_TITLE
309
CELLSTYLE_END
300
CELLSTYLE
  1
TABLEFORMAT_BEGIN
 90
        5
170
     1
 91
        0
 92
        0
 62
   257
 93
        1
300
CONTENTFORMAT
  1
CONTENTFORMAT_BEGIN
 90
        0
 91
        0
 92
      512
 93
        0
300

 40
0.0
140
1.0
 94
        5
 62
     0
340
11
144
0.18
309
CONTENTFORMAT_END
171
     0
 94
        0
309
TABLEFORMAT_END
  1
CELLSTYLE_BEGIN
 90
        2
 91
        1
300
_HEADER
309
CELLSTYLE_END
300
CELLSTYLE
  1
TABLEFORMAT_BEGIN
 90
        5
170
     1
 91
        0
 92
        0
 62
   257
 93
        1
300
CONTENTFORMAT
  1
CONTENTFORMAT_BEGIN
 90
        0
 91
        0
 92
      512
 93
        0
300

 40
0.0
140
1.0
 94
        2
 62
     0
340
11
144
0.18
309
CONTENTFORMAT_END
171
     0
 94
        0
309
TABLEFORMAT_END
  1
CELLSTYLE_BEGIN
 90
        3
 91
        2
300
_DATA
309
CELLSTYLE_END
  0
XRECORD
  5
178
102
{ACAD_REACTORS
330
177
102
}
330
177
100
AcDbXrecord
280
     1
102
RTVSPost2010Prop28
280
     1
102
RTVSPost2010PropOp28
 70
     1
102
RTVSPost2010Prop29
280
     1
102
RTVSPost2010PropOp29
 70
     1
102
RTVSPost2010Prop30
280
     0
102
RTVSPost2010PropOp30
 70
     1
102
RTVSPost2010Prop31
280
     0
102
RTVSPost2010PropOp31
 70
     1
102
RTVSPost2010Prop32
280
     0
102
RTVSPost2010PropOp32
 70
     1
102
RTVSPost2010Prop33
280
     0
102
RTVSPost2010PropOp33
 70
     1
102
RTVSPost2010Prop34
280
     0
102
RTVSPost2010PropOp34
 70
     1
102
RTVSPost2010Prop35
280
     0
102
RTVSPost2010PropOp35
 70
     1
102
RTVSPost2010Prop36
280
     0
102
RTVSPost2010PropOp36
 70
     1
102
RTVSPost2010Prop37
 90
       50
102
RTVSPost2010PropOp37
 70
     1
102
RTVSPost2010Prop38
140
0.0
102
RTVSPost2010PropOp38
 70
     1
102
RTVSPost2010Prop39
140
1.0
102
RTVSPost2010PropOp39
 70
     1
102
RTVSPost2010Prop40
 90
        0
102
RTVSPost2010PropOp40
 70
     1
102
RTVSPost2010Prop41ColorIndex
 90
       18
102
RTVSPost2010Prop41ColorRGB
 90
        0
102
RTVSPost2010PropOp41
 70
     1
102
RTVSPost2010Prop42
 90
       50
102
RTVSPost2010PropOp42
 70
     1
102
RTVSPost2010Prop43
 90
        3
102
RTVSPost2010PropOp43
 70
     1
102
RTVSPost2010Prop44ColorIndex
 90
        5
102
RTVSPost2010Prop44ColorRGB
 90
      255
102
RTVSPost2010PropOp44
 70
     1
102
RTVSPost2010Prop45
280
     0
102
RTVSPost2010PropOp45
 70
     1
102
RTVSPost2010Prop46
 90
       50
102
RTVSPost2010PropOp46
 70
     1
102
RTVSPost2010Prop47
 90
       50
102
RTVSPost2010PropOp47
 70
     1
102
RTVSPost2010Prop48
 90
       50
102
RTVSPost2010PropOp48
 70
     1
102
RTVSPost2010Prop49
280
     0
102
RTVSPost2010PropOp49
 70
     1
102
RTVSPost2010Prop50
 90
       50
102
RTVSPost2010PropOp50
 70
     1
102
RTVSPost2010Prop51ColorIndex
 90
      256
102
RTVSPost2010Prop51ColorRGB
 90
-16777216
102
RTVSPost2010PropOp51
 70
     0
102
RTVSPost2010Prop52
140
1.0
102
RTVSPost2010PropOp52
 70
     0
102
RTVSPost2010Prop53
 90
        2
102
RTVSPost2010PropOp53
 70
     1
102
RTVSPost2010Prop54
  1
strokes_ogs.tif
102
RTVSPost2010PropOp54
 70
     1
102
RTVSPost2010Prop55
280
     0
102
RTVSPost2010PropOp55
 70
     1
102
RTVSPost2010Prop56
140
1.0
102
RTVSPost2010PropOp56
 70
     1
102
RTVSPost2010Prop57
140
1.0
102
RTVSPost2010PropOp57
 70
     1
  0
XRECORD
  5
176
102
{ACAD_REACTORS
330
175
102
}
330
175
100
AcDbXrecord
280
     1
102
RTVSPost2010Prop28
280
     0
102
RTVSPost2010PropOp28
 70
     1
102
RTVSPost2010Prop29
280
     1
102
RTVSPost2010PropOp29
 70
     1
102
RTVSPost2010Prop30
280
     1
102
RTVSPost2010PropOp30
 70
     1
102
RTVSPost2010Prop31
280
     0
102
RTVSPost2010PropOp31
 70
     1
102
RTVSPost2010Prop32
280
     0
102
RTVSPost2010PropOp32
 70
     1
102
RTVSPost2010Prop33
280
     0
102
RTVSPost2010PropOp33
 70
     1
102
RTVSPost2010Prop34
280
     0
102
RTVSPost2010PropOp34
 70
     1
102
RTVSPost2010Prop35
280
     0
102
RTVSPost2010PropOp35
 70
     1
102
RTVSPost2010Prop36
280
     0
102
RTVSPost2010PropOp36
 70
     1
102
RTVSPost2010Prop37
 90
       50
102
RTVSPost2010PropOp37
 70
     1
102
RTVSPost2010Prop38
140
0.0
102
RTVSPost2010PropOp38
 70
     1
102
RTVSPost2010Prop39
140
1.0
102
RTVSPost2010PropOp39
 70
     1
102
RTVSPost2010Prop40
 90
        0
102
RTVSPost2010PropOp40
 70
     1
102
RTVSPost2010Prop41ColorIndex
 90
       18
102
RTVSPost2010Prop41ColorRGB
 90
        0
102
RTVSPost2010PropOp41
 70
     1
102
RTVSPost2010Prop42
 90
       50
102
RTVSPost2010PropOp42
 70
     1
102
RTVSPost2010Prop43
 90
        3
102
RTVSPost2010PropOp43
 70
     1
102
RTVSPost2010Prop44ColorIndex
 90
        5
102
RTVSPost2010Prop44ColorRGB
 90
      255
102
RTVSPost2010PropOp44
 70
     1
102
RTVSPost2010Prop45
280
     0
102
RTVSPost2010PropOp45
 70
     1
102
RTVSPost2010Prop46
 90
       50
102
RTVSPost2010PropOp46
 70
     1
102
RTVSPost2010Prop47
 90
       50
102
RTVSPost2010PropOp47
 70
     1
102
RTVSPost2010Prop48
 90
       50
102
RTVSPost2010PropOp48
 70
     1
102
RTVSPost2010Prop49
280
     0
102
RTVSPost2010PropOp49
 70
     1
102
RTVSPost2010Prop50
 90
       50
102
RTVSPost2010PropOp50
 70
     1
102
RTVSPost2010Prop51ColorIndex
 90
      256
102
RTVSPost2010Prop51ColorRGB
 90
-16777216
102
RTVSPost2010PropOp51
 70
     0
102
RTVSPost2010Prop52
140
1.0
102
RTVSPost2010PropOp52
 70
     0
102
RTVSPost2010Prop53
 90
        2
102
RTVSPost2010PropOp53
 70
     1
102
RTVSPost2010Prop54
  1
strokes_ogs.tif
102
RTVSPost2010PropOp54
 70
     1
102
RTVSPost2010Prop55
280
     0
102
RTVSPost2010PropOp55
 70
     1
102
RTVSPost2010Prop56
140
1.0
102
RTVSPost2010PropOp56
 70
     1
102
RTVSPost2010Prop57
140
1.0
102
RTVSPost2010PropOp57
 70
     1
  0
XRECORD
  5
184
102
{ACAD_REACTORS
330
183
102
}
330
183
100
AcDbXrecord
280
     1
102
RTVSPost2010Prop28
280
     0
102
RTVSPost2010PropOp28
 70
     1
102
RTVSPost2010Prop29
280
     1
102
RTVSPost2010PropOp29
 70
     1
102
RTVSPost2010Prop30
280
     1
102
RTVSPost2010PropOp30
 70
     1
102
RTVSPost2010Prop31
280
     0
102
RTVSPost2010PropOp31
 70
     1
102
RTVSPost2010Prop32
280
     0
102
RTVSPost2010PropOp32
 70
     1
102
RTVSPost2010Prop33
280
     0
102
RTVSPost2010PropOp33
 70
     1
102
RTVSPost2010Prop34
280
     0
102
RTVSPost2010PropOp34
 70
     1
102
RTVSPost2010Prop35
280
     0
102
RTVSPost2010PropOp35
 70
     1
102
RTVSPost2010Prop36
280
     0
102
RTVSPost2010PropOp36
 70
     1
102
RTVSPost2010Prop37
 90
       50
102
RTVSPost2010PropOp37
 70
     1
102
RTVSPost2010Prop38
140
0.0
102
RTVSPost2010PropOp38
 70
     1
102
RTVSPost2010Prop39
140
1.0
102
RTVSPost2010PropOp39
 70
     1
102
RTVSPost2010Prop40
 90
        0
102
RTVSPost2010PropOp40
 70
     1
102
RTVSPost2010Prop41ColorIndex
 90
       18
102
RTVSPost2010Prop41ColorRGB
 90
        0
102
RTVSPost2010PropOp41
 70
     1
102
RTVSPost2010Prop42
 90
       50
102
RTVSPost2010PropOp42
 70
     1
102
RTVSPost2010Prop43
 90
        3
102
RTVSPost2010PropOp43
 70
     1
102
RTVSPost2010Prop44ColorIndex
 90
        5
102
RTVSPost2010Prop44ColorRGB
 90
      255
102
RTVSPost2010PropOp44
 70
     1
102
RTVSPost2010Prop45
280
     0
102
RTVSPost2010PropOp45
 70
     1
102
RTVSPost2010Prop46
 90
       50
102
RTVSPost2010PropOp46
 70
     1
102
RTVSPost2010Prop47
 90
       50
102
RTVSPost2010PropOp47
 70
     1
102
RTVSPost2010Prop48
 90
       50
102
RTVSPost2010PropOp48
 70
     1
102
RTVSPost2010Prop49
280
     0
102
RTVSPost2010PropOp49
 70
     1
102
RTVSPost2010Prop50
 90
       50
102
RTVSPost2010PropOp50
 70
     1
102
RTVSPost2010Prop51ColorIndex
 90
      256
102
RTVSPost2010Prop51ColorRGB
 90
-16777216
102
RTVSPost2010PropOp51
 70
     0
102
RTVSPost2010Prop52
140
1.0
102
RTVSPost2010PropOp52
 70
     0
102
RTVSPost2010Prop53
 90
        2
102
RTVSPost2010PropOp53
 70
     1
102
RTVSPost2010Prop54
  1
strokes_ogs.tif
102
RTVSPost2010PropOp54
 70
     1
102
RTVSPost2010Prop55
280
     0
102
RTVSPost2010PropOp55
 70
     1
102
RTVSPost2010Prop56
140
1.0
102
RTVSPost2010PropOp56
 70
     1
102
RTVSPost2010Prop57
140
1.0
102
RTVSPost2010PropOp57
 70
     1
  0
XRECORD
  5
18C
102
{ACAD_REACTORS
330
18B
102
}
330
18B
100
AcDbXrecord
280
     1
102
RTVSPost2010Prop28
280
     0
102
RTVSPost2010PropOp28
 70
     1
102
RTVSPost2010Prop29
280
     1
102
RTVSPost2010PropOp29
 70
     1
102
RTVSPost2010Prop30
280
     1
102
RTVSPost2010PropOp30
 70
     1
102
RTVSPost2010Prop31
280
     0
102
RTVSPost2010PropOp31
 70
     1
102
RTVSPost2010Prop32
280
     0
102
RTVSPost2010PropOp32
 70
     1
102
RTVSPost2010Prop33
280
     0
102
RTVSPost2010PropOp33
 70
     1
102
RTVSPost2010Prop34
280
     0
102
RTVSPost2010PropOp34
 70
     1
102
RTVSPost2010Prop35
280
     0
102
RTVSPost2010PropOp35
 70
     1
102
RTVSPost2010Prop36
280
     0
102
RTVSPost2010PropOp36
 70
     1
102
RTVSPost2010Prop37
 90
       50
102
RTVSPost2010PropOp37
 70
     1
102
RTVSPost2010Prop38
140
0.0
102
RTVSPost2010PropOp38
 70
     1
102
RTVSPost2010Prop39
140
1.0
102
RTVSPost2010PropOp39
 70
     1
102
RTVSPost2010Prop40
 90
        0
102
RTVSPost2010PropOp40
 70
     1
102
RTVSPost2010Prop41ColorIndex
 90
       18
102
RTVSPost2010Prop41ColorRGB
 90
        0
102
RTVSPost2010PropOp41
 70
     1
102
RTVSPost2010Prop42
 90
       50
102
RTVSPost2010PropOp42
 70
     1
102
RTVSPost2010Prop43
 90
        3
102
RTVSPost2010PropOp43
 70
     1
102
RTVSPost2010Prop44ColorIndex
 90
        5
102
RTVSPost2010Prop44ColorRGB
 90
      255
102
RTVSPost2010PropOp44
 70
     1
102
RTVSPost2010Prop45
280
     0
102
RTVSPost2010PropOp45
 70
     1
102
RTVSPost2010Prop46
 90
       50
102
RTVSPost2010PropOp46
 70
     1
102
RTVSPost2010Prop47
 90
       50
102
RTVSPost2010PropOp47
 70
     1
102
RTVSPost2010Prop48
 90
       50
102
RTVSPost2010PropOp48
 70
     1
102
RTVSPost2010Prop49
280
     0
102
RTVSPost2010PropOp49
 70
     1
102
RTVSPost2010Prop50
 90
       50
102
RTVSPost2010PropOp50
 70
     1
102
RTVSPost2010Prop51ColorIndex
 90
      256
102
RTVSPost2010Prop51ColorRGB
 90
-16777216
102
RTVSPost2010PropOp51
 70
     0
102
RTVSPost2010Prop52
140
1.0
102
RTVSPost2010PropOp52
 70
     0
102
RTVSPost2010Prop53
 90
        2
102
RTVSPost2010PropOp53
 70
     1
102
RTVSPost2010Prop54
  1
strokes_ogs.tif
102
RTVSPost2010PropOp54
 70
     1
102
RTVSPost2010Prop55
280
     0
102
RTVSPost2010PropOp55
 70
     1
102
RTVSPost2010Prop56
140
1.0
102
RTVSPost2010PropOp56
 70
     1
102
RTVSPost2010Prop57
140
1.0
102
RTVSPost2010PropOp57
 70
     1
  0
XRECORD
  5
17E
102
{ACAD_REACTORS
330
17D
102
}
330
17D
100
AcDbXrecord
280
     1
102
RTVSPost2010Prop28
280
     0
102
RTVSPost2010PropOp28
 70
     1
102
RTVSPost2010Prop29
280
     1
102
RTVSPost2010PropOp29
 70
     1
102
RTVSPost2010Prop30
280
     1
102
RTVSPost2010PropOp30
 70
     1
102
RTVSPost2010Prop31
280
     0
102
RTVSPost2010PropOp31
 70
     1
102
RTVSPost2010Prop32
280
     0
102
RTVSPost2010PropOp32
 70
     1
102
RTVSPost2010Prop33
280
     0
102
RTVSPost2010PropOp33
 70
     1
102
RTVSPost2010Prop34
280
     0
102
RTVSPost2010PropOp34
 70
     1
102
RTVSPost2010Prop35
280
     0
102
RTVSPost2010PropOp35
 70
     1
102
RTVSPost2010Prop36
280
     0
102
RTVSPost2010PropOp36
 70
     1
102
RTVSPost2010Prop37
 90
       50
102
RTVSPost2010PropOp37
 70
     1
102
RTVSPost2010Prop38
140
0.0
102
RTVSPost2010PropOp38
 70
     1
102
RTVSPost2010Prop39
140
1.0
102
RTVSPost2010PropOp39
 70
     1
102
RTVSPost2010Prop40
 90
        0
102
RTVSPost2010PropOp40
 70
     1
102
RTVSPost2010Prop41ColorIndex
 90
       18
102
RTVSPost2010Prop41ColorRGB
 90
        0
102
RTVSPost2010PropOp41
 70
     1
102
RTVSPost2010Prop42
 90
       50
102
RTVSPost2010PropOp42
 70
     1
102
RTVSPost2010Prop43
 90
        3
102
RTVSPost2010PropOp43
 70
     1
102
RTVSPost2010Prop44ColorIndex
 90
        5
102
RTVSPost2010Prop44ColorRGB
 90
      255
102
RTVSPost2010PropOp44
 70
     1
102
RTVSPost2010Prop45
280
     0
102
RTVSPost2010PropOp45
 70
     1
102
RTVSPost2010Prop46
 90
       50
102
RTVSPost2010PropOp46
 70
     1
102
RTVSPost2010Prop47
 90
       50
102
RTVSPost2010PropOp47
 70
     1
102
RTVSPost2010Prop48
 90
       50
102
RTVSPost2010PropOp48
 70
     1
102
RTVSPost2010Prop49
280
     0
102
RTVSPost2010PropOp49
 70
     1
102
RTVSPost2010Prop50
 90
       50
102
RTVSPost2010PropOp50
 70
     1
102
RTVSPost2010Prop51ColorIndex
 90
      256
102
RTVSPost2010Prop51ColorRGB
 90
-16777216
102
RTVSPost2010PropOp51
 70
     0
102
RTVSPost2010Prop52
140
1.0
102
RTVSPost2010PropOp52
 70
     0
102
RTVSPost2010Prop53
 90
        2
102
RTVSPost2010PropOp53
 70
     1
102
RTVSPost2010Prop54
  1
strokes_ogs.tif
102
RTVSPost2010PropOp54
 70
     1
102
RTVSPost2010Prop55
280
     0
102
RTVSPost2010PropOp55
 70
     1
102
RTVSPost2010Prop56
140
1.0
102
RTVSPost2010PropOp56
 70
     1
102
RTVSPost2010Prop57
140
1.0
102
RTVSPost2010PropOp57
 70
     1
  0
XRECORD
  5
182
102
{ACAD_REACTORS
330
181
102
}
330
181
100
AcDbXrecord
280
     1
102
RTVSPost2010Prop28
280
     0
102
RTVSPost2010PropOp28
 70
     1
102
RTVSPost2010Prop29
280
     1
102
RTVSPost2010PropOp29
 70
     1
102
RTVSPost2010Prop30
280
     1
102
RTVSPost2010PropOp30
 70
     1
102
RTVSPost2010Prop31
280
     0
102
RTVSPost2010PropOp31
 70
     1
102
RTVSPost2010Prop32
280
     0
102
RTVSPost2010PropOp32
 70
     1
102
RTVSPost2010Prop33
280
     0
102
RTVSPost2010PropOp33
 70
     1
102
RTVSPost2010Prop34
280
     0
102
RTVSPost2010PropOp34
 70
     1
102
RTVSPost2010Prop35
280
     0
102
RTVSPost2010PropOp35
 70
     1
102
RTVSPost2010Prop36
280
     0
102
RTVSPost2010PropOp36
 70
     1
102
RTVSPost2010Prop37
 90
       50
102
RTVSPost2010PropOp37
 70
     1
102
RTVSPost2010Prop38
140
0.0
102
RTVSPost2010PropOp38
 70
     1
102
RTVSPost2010Prop39
140
1.0
102
RTVSPost2010PropOp39
 70
     1
102
RTVSPost2010Prop40
 90
        0
102
RTVSPost2010PropOp40
 70
     1
102
RTVSPost2010Prop41ColorIndex
 90
       18
102
RTVSPost2010Prop41ColorRGB
 90
        0
102
RTVSPost2010PropOp41
 70
     1
102
RTVSPost2010Prop42
 90
       50
102
RTVSPost2010PropOp42
 70
     1
102
RTVSPost2010Prop43
 90
        3
102
RTVSPost2010PropOp43
 70
     1
102
RTVSPost2010Prop44ColorIndex
 90
        5
102
RTVSPost2010Prop44ColorRGB
 90
      255
102
RTVSPost2010PropOp44
 70
     1
102
RTVSPost2010Prop45
280
     0
102
RTVSPost2010PropOp45
 70
     1
102
RTVSPost2010Prop46
 90
       50
102
RTVSPost2010PropOp46
 70
     1
102
RTVSPost2010Prop47
 90
       50
102
RTVSPost2010PropOp47
 70
     1
102
RTVSPost2010Prop48
 90
       50
102
RTVSPost2010PropOp48
 70
     1
102
RTVSPost2010Prop49
280
     0
102
RTVSPost2010PropOp49
 70
     1
102
RTVSPost2010Prop50
 90
       50
102
RTVSPost2010PropOp50
 70
     1
102
RTVSPost2010Prop51ColorIndex
 90
      256
102
RTVSPost2010Prop51ColorRGB
 90
-16777216
102
RTVSPost2010PropOp51
 70
     0
102
RTVSPost2010Prop52
140
1.0
102
RTVSPost2010PropOp52
 70
     0
102
RTVSPost2010Prop53
 90
        2
102
RTVSPost2010PropOp53
 70
     1
102
RTVSPost2010Prop54
  1
strokes_ogs.tif
102
RTVSPost2010PropOp54
 70
     1
102
RTVSPost2010Prop55
280
     0
102
RTVSPost2010PropOp55
 70
     1
102
RTVSPost2010Prop56
140
1.0
102
RTVSPost2010PropOp56
 70
     1
102
RTVSPost2010Prop57
140
1.0
102
RTVSPost2010PropOp57
 70
     1
  0
XRECORD
  5
19C
102
{ACAD_REACTORS
330
19B
102
}
330
19B
100
AcDbXrecord
280
     1
102
RTVSPost2010Prop28
280
     0
102
RTVSPost2010PropOp28
 70
     0
102
RTVSPost2010Prop29
280
     1
102
RTVSPost2010PropOp29
 70
     0
102
RTVSPost2010Prop30
280
     1
102
RTVSPost2010PropOp30
 70
     0
102
RTVSPost2010Prop31
280
     0
102
RTVSPost2010PropOp31
 70
     0
102
RTVSPost2010Prop32
280
     0
102
RTVSPost2010PropOp32
 70
     0
102
RTVSPost2010Prop33
280
     0
102
RTVSPost2010PropOp33
 70
     0
102
RTVSPost2010Prop34
280
     0
102
RTVSPost2010PropOp34
 70
     0
102
RTVSPost2010Prop35
280
     0
102
RTVSPost2010PropOp35
 70
     0
102
RTVSPost2010Prop36
280
     0
102
RTVSPost2010PropOp36
 70
     0
102
RTVSPost2010Prop37
 90
       50
102
RTVSPost2010PropOp37
 70
     0
102
RTVSPost2010Prop38
140
0.0
102
RTVSPost2010PropOp38
 70
     0
102
RTVSPost2010Prop39
140
1.0
102
RTVSPost2010PropOp39
 70
     0
102
RTVSPost2010Prop40
 90
        0
102
RTVSPost2010PropOp40
 70
     0
102
RTVSPost2010Prop41ColorIndex
 90
       18
102
RTVSPost2010Prop41ColorRGB
 90
        0
102
RTVSPost2010PropOp41
 70
     0
102
RTVSPost2010Prop42
 90
       50
102
RTVSPost2010PropOp42
 70
     0
102
RTVSPost2010Prop43
 90
        3
102
RTVSPost2010PropOp43
 70
     0
102
RTVSPost2010Prop44ColorIndex
 90
        5
102
RTVSPost2010Prop44ColorRGB
 90
      255
102
RTVSPost2010PropOp44
 70
     0
102
RTVSPost2010Prop45
280
     0
102
RTVSPost2010PropOp45
 70
     0
102
RTVSPost2010Prop46
 90
       50
102
RTVSPost2010PropOp46
 70
     0
102
RTVSPost2010Prop47
 90
       50
102
RTVSPost2010PropOp47
 70
     0
102
RTVSPost2010Prop48
 90
       50
102
RTVSPost2010PropOp48
 70
     0
102
RTVSPost2010Prop49
280
     0
102
RTVSPost2010PropOp49
 70
     0
102
RTVSPost2010Prop50
 90
       50
102
RTVSPost2010PropOp50
 70
     0
102
RTVSPost2010Prop51ColorIndex
 90
      256
102
RTVSPost2010Prop51ColorRGB
 90
-16777216
102
RTVSPost2010PropOp51
 70
     0
102
RTVSPost2010Prop52
140
1.0
102
RTVSPost2010PropOp52
 70
     0
102
RTVSPost2010Prop53
 90
        2
102
RTVSPost2010PropOp53
 70
     0
102
RTVSPost2010Prop54
  1
strokes_ogs.tif
102
RTVSPost2010PropOp54
 70
     0
102
RTVSPost2010Prop55
280
     0
102
RTVSPost2010PropOp55
 70
     0
102
RTVSPost2010Prop56
140
1.0
102
RTVSPost2010PropOp56
 70
     0
102
RTVSPost2010Prop57
140
1.0
102
RTVSPost2010PropOp57
 70
     0
  0
XRECORD
  5
18A
102
{ACAD_REACTORS
330
189
102
}
330
189
100
AcDbXrecord
280
     1
102
RTVSPost2010Prop28
280
     0
102
RTVSPost2010PropOp28
 70
     1
102
RTVSPost2010Prop29
280
     1
102
RTVSPost2010PropOp29
 70
     1
102
RTVSPost2010Prop30
280
     1
102
RTVSPost2010PropOp30
 70
     1
102
RTVSPost2010Prop31
280
     0
102
RTVSPost2010PropOp31
 70
     1
102
RTVSPost2010Prop32
280
     0
102
RTVSPost2010PropOp32
 70
     1
102
RTVSPost2010Prop33
280
     0
102
RTVSPost2010PropOp33
 70
     1
102
RTVSPost2010Prop34
280
     0
102
RTVSPost2010PropOp34
 70
     1
102
RTVSPost2010Prop35
280
     0
102
RTVSPost2010PropOp35
 70
     1
102
RTVSPost2010Prop36
280
     0
102
RTVSPost2010PropOp36
 70
     1
102
RTVSPost2010Prop37
 90
       50
102
RTVSPost2010PropOp37
 70
     1
102
RTVSPost2010Prop38
140
0.0
102
RTVSPost2010PropOp38
 70
     1
102
RTVSPost2010Prop39
140
1.0
102
RTVSPost2010PropOp39
 70
     1
102
RTVSPost2010Prop40
 90
        0
102
RTVSPost2010PropOp40
 70
     1
102
RTVSPost2010Prop41ColorIndex
 90
       18
102
RTVSPost2010Prop41ColorRGB
 90
        0
102
RTVSPost2010PropOp41
 70
     1
102
RTVSPost2010Prop42
 90
       50
102
RTVSPost2010PropOp42
 70
     1
102
RTVSPost2010Prop43
 90
        3
102
RTVSPost2010PropOp43
 70
     1
102
RTVSPost2010Prop44ColorIndex
 90
        5
102
RTVSPost2010Prop44ColorRGB
 90
      255
102
RTVSPost2010PropOp44
 70
     1
102
RTVSPost2010Prop45
280
     0
102
RTVSPost2010PropOp45
 70
     1
102
RTVSPost2010Prop46
 90
       50
102
RTVSPost2010PropOp46
 70
     1
102
RTVSPost2010Prop47
 90
       50
102
RTVSPost2010PropOp47
 70
     1
102
RTVSPost2010Prop48
 90
       50
102
RTVSPost2010PropOp48
 70
     1
102
RTVSPost2010Prop49
280
     0
102
RTVSPost2010PropOp49
 70
     1
102
RTVSPost2010Prop50
 90
       50
102
RTVSPost2010PropOp50
 70
     1
102
RTVSPost2010Prop51ColorIndex
 90
      256
102
RTVSPost2010Prop51ColorRGB
 90
-16777216
102
RTVSPost2010PropOp51
 70
     0
102
RTVSPost2010Prop52
140
1.0
102
RTVSPost2010PropOp52
 70
     0
102
RTVSPost2010Prop53
 90
        2
102
RTVSPost2010PropOp53
 70
     1
102
RTVSPost2010Prop54
  1
strokes_ogs.tif
102
RTVSPost2010PropOp54
 70
     1
102
RTVSPost2010Prop55
280
     0
102
RTVSPost2010PropOp55
 70
     1
102
RTVSPost2010Prop56
140
1.0
102
RTVSPost2010PropOp56
 70
     1
102
RTVSPost2010Prop57
140
1.0
102
RTVSPost2010PropOp57
 70
     1
  0
XRECORD
  5
16E
102
{ACAD_REACTORS
330
16D
102
}
330
16D
100
AcDbXrecord
280
     1
102
RTVSPost2010Prop28
280
     0
102
RTVSPost2010PropOp28
 70
     1
102
RTVSPost2010Prop29
280
     1
102
RTVSPost2010PropOp29
 70
     1
102
RTVSPost2010Prop30
280
     1
102
RTVSPost2010PropOp30
 70
     1
102
RTVSPost2010Prop31
280
     0
102
RTVSPost2010PropOp31
 70
     1
102
RTVSPost2010Prop32
280
     0
102
RTVSPost2010PropOp32
 70
     1
102
RTVSPost2010Prop33
280
     0
102
RTVSPost2010PropOp33
 70
     1
102
RTVSPost2010Prop34
280
     0
102
RTVSPost2010PropOp34
 70
     1
102
RTVSPost2010Prop35
280
     0
102
RTVSPost2010PropOp35
 70
     1
102
RTVSPost2010Prop36
280
     0
102
RTVSPost2010PropOp36
 70
     1
102
RTVSPost2010Prop37
 90
       50
102
RTVSPost2010PropOp37
 70
     1
102
RTVSPost2010Prop38
140
0.0
102
RTVSPost2010PropOp38
 70
     1
102
RTVSPost2010Prop39
140
1.0
102
RTVSPost2010PropOp39
 70
     1
102
RTVSPost2010Prop40
 90
        0
102
RTVSPost2010PropOp40
 70
     1
102
RTVSPost2010Prop41ColorIndex
 90
       18
102
RTVSPost2010Prop41ColorRGB
 90
        0
102
RTVSPost2010PropOp41
 70
     1
102
RTVSPost2010Prop42
 90
       50
102
RTVSPost2010PropOp42
 70
     1
102
RTVSPost2010Prop43
 90
        3
102
RTVSPost2010PropOp43
 70
     1
102
RTVSPost2010Prop44ColorIndex
 90
        5
102
RTVSPost2010Prop44ColorRGB
 90
      255
102
RTVSPost2010PropOp44
 70
     1
102
RTVSPost2010Prop45
280
     0
102
RTVSPost2010PropOp45
 70
     1
102
RTVSPost2010Prop46
 90
       50
102
RTVSPost2010PropOp46
 70
     1
102
RTVSPost2010Prop47
 90
       50
102
RTVSPost2010PropOp47
 70
     1
102
RTVSPost2010Prop48
 90
       50
102
RTVSPost2010PropOp48
 70
     1
102
RTVSPost2010Prop49
280
     0
102
RTVSPost2010PropOp49
 70
     1
102
RTVSPost2010Prop50
 90
       50
102
RTVSPost2010PropOp50
 70
     1
102
RTVSPost2010Prop51ColorIndex
 90
      256
102
RTVSPost2010Prop51ColorRGB
 90
-16777216
102
RTVSPost2010PropOp51
 70
     0
102
RTVSPost2010Prop52
140
1.0
102
RTVSPost2010PropOp52
 70
     0
102
RTVSPost2010Prop53
 90
        2
102
RTVSPost2010PropOp53
 70
     1
102
RTVSPost2010Prop54
  1
strokes_ogs.tif
102
RTVSPost2010PropOp54
 70
     1
102
RTVSPost2010Prop55
280
     0
102
RTVSPost2010PropOp55
 70
     1
102
RTVSPost2010Prop56
140
1.0
102
RTVSPost2010PropOp56
 70
     1
102
RTVSPost2010Prop57
140
1.0
102
RTVSPost2010PropOp57
 70
     1
  0
XRECORD
  5
170
102
{ACAD_REACTORS
330
16F
102
}
330
16F
100
AcDbXrecord
280
     1
102
RTVSPost2010Prop28
280
     0
102
RTVSPost2010PropOp28
 70
     1
102
RTVSPost2010Prop29
280
     1
102
RTVSPost2010PropOp29
 70
     1
102
RTVSPost2010Prop30
280
     1
102
RTVSPost2010PropOp30
 70
     1
102
RTVSPost2010Prop31
280
     0
102
RTVSPost2010PropOp31
 70
     1
102
RTVSPost2010Prop32
280
     0
102
RTVSPost2010PropOp32
 70
     1
102
RTVSPost2010Prop33
280
     0
102
RTVSPost2010PropOp33
 70
     1
102
RTVSPost2010Prop34
280
     0
102
RTVSPost2010PropOp34
 70
     1
102
RTVSPost2010Prop35
280
     0
102
RTVSPost2010PropOp35
 70
     1
102
RTVSPost2010Prop36
280
     0
102
RTVSPost2010PropOp36
 70
     1
102
RTVSPost2010Prop37
 90
       50
102
RTVSPost2010PropOp37
 70
     1
102
RTVSPost2010Prop38
140
0.0
102
RTVSPost2010PropOp38
 70
     1
102
RTVSPost2010Prop39
140
1.0
102
RTVSPost2010PropOp39
 70
     1
102
RTVSPost2010Prop40
 90
        0
102
RTVSPost2010PropOp40
 70
     1
102
RTVSPost2010Prop41ColorIndex
 90
       18
102
RTVSPost2010Prop41ColorRGB
 90
        0
102
RTVSPost2010PropOp41
 70
     1
102
RTVSPost2010Prop42
 90
       50
102
RTVSPost2010PropOp42
 70
     1
102
RTVSPost2010Prop43
 90
        3
102
RTVSPost2010PropOp43
 70
     1
102
RTVSPost2010Prop44ColorIndex
 90
        5
102
RTVSPost2010Prop44ColorRGB
 90
      255
102
RTVSPost2010PropOp44
 70
     1
102
RTVSPost2010Prop45
280
     0
102
RTVSPost2010PropOp45
 70
     1
102
RTVSPost2010Prop46
 90
       50
102
RTVSPost2010PropOp46
 70
     1
102
RTVSPost2010Prop47
 90
       50
102
RTVSPost2010PropOp47
 70
     1
102
RTVSPost2010Prop48
 90
       50
102
RTVSPost2010PropOp48
 70
     1
102
RTVSPost2010Prop49
280
     0
102
RTVSPost2010PropOp49
 70
     1
102
RTVSPost2010Prop50
 90
       50
102
RTVSPost2010PropOp50
 70
     1
102
RTVSPost2010Prop51ColorIndex
 90
      256
102
RTVSPost2010Prop51ColorRGB
 90
-16777216
102
RTVSPost2010PropOp51
 70
     0
102
RTVSPost2010Prop52
140
1.0
102
RTVSPost2010PropOp52
 70
     0
102
RTVSPost2010Prop53
 90
        2
102
RTVSPost2010PropOp53
 70
     1
102
RTVSPost2010Prop54
  1
strokes_ogs.tif
102
RTVSPost2010PropOp54
 70
     1
102
RTVSPost2010Prop55
280
     0
102
RTVSPost2010PropOp55
 70
     1
102
RTVSPost2010Prop56
140
1.0
102
RTVSPost2010PropOp56
 70
     1
102
RTVSPost2010Prop57
140
1.0
102
RTVSPost2010PropOp57
 70
     1
  0
XRECORD
  5
172
102
{ACAD_REACTORS
330
171
102
}
330
171
100
AcDbXrecord
280
     1
102
RTVSPost2010Prop28
280
     0
102
RTVSPost2010PropOp28
 70
     1
102
RTVSPost2010Prop29
280
     1
102
RTVSPost2010PropOp29
 70
     1
102
RTVSPost2010Prop30
280
     1
102
RTVSPost2010PropOp30
 70
     1
102
RTVSPost2010Prop31
280
     0
102
RTVSPost2010PropOp31
 70
     1
102
RTVSPost2010Prop32
280
     0
102
RTVSPost2010PropOp32
 70
     1
102
RTVSPost2010Prop33
280
     0
102
RTVSPost2010PropOp33
 70
     1
102
RTVSPost2010Prop34
280
     0
102
RTVSPost2010PropOp34
 70
     1
102
RTVSPost2010Prop35
280
     0
102
RTVSPost2010PropOp35
 70
     1
102
RTVSPost2010Prop36
280
     0
102
RTVSPost2010PropOp36
 70
     1
102
RTVSPost2010Prop37
 90
       50
102
RTVSPost2010PropOp37
 70
     1
102
RTVSPost2010Prop38
140
0.0
102
RTVSPost2010PropOp38
 70
     1
102
RTVSPost2010Prop39
140
1.0
102
RTVSPost2010PropOp39
 70
     1
102
RTVSPost2010Prop40
 90
        0
102
RTVSPost2010PropOp40
 70
     1
102
RTVSPost2010Prop41ColorIndex
 90
       18
102
RTVSPost2010Prop41ColorRGB
 90
        0
102
RTVSPost2010PropOp41
 70
     1
102
RTVSPost2010Prop42
 90
       50
102
RTVSPost2010PropOp42
 70
     1
102
RTVSPost2010Prop43
 90
        3
102
RTVSPost2010PropOp43
 70
     1
102
RTVSPost2010Prop44ColorIndex
 90
        5
102
RTVSPost2010Prop44ColorRGB
 90
      255
102
RTVSPost2010PropOp44
 70
     1
102
RTVSPost2010Prop45
280
     0
102
RTVSPost2010PropOp45
 70
     1
102
RTVSPost2010Prop46
 90
       50
102
RTVSPost2010PropOp46
 70
     1
102
RTVSPost2010Prop47
 90
       50
102
RTVSPost2010PropOp47
 70
     1
102
RTVSPost2010Prop48
 90
       50
102
RTVSPost2010PropOp48
 70
     1
102
RTVSPost2010Prop49
280
     0
102
RTVSPost2010PropOp49
 70
     1
102
RTVSPost2010Prop50
 90
       50
102
RTVSPost2010PropOp50
 70
     1
102
RTVSPost2010Prop51ColorIndex
 90
      256
102
RTVSPost2010Prop51ColorRGB
 90
-16777216
102
RTVSPost2010PropOp51
 70
     0
102
RTVSPost2010Prop52
140
1.0
102
RTVSPost2010PropOp52
 70
     0
102
RTVSPost2010Prop53
 90
        2
102
RTVSPost2010PropOp53
 70
     1
102
RTVSPost2010Prop54
  1
strokes_ogs.tif
102
RTVSPost2010PropOp54
 70
     1
102
RTVSPost2010Prop55
280
     0
102
RTVSPost2010PropOp55
 70
     1
102
RTVSPost2010Prop56
140
1.0
102
RTVSPost2010PropOp56
 70
     1
102
RTVSPost2010Prop57
140
1.0
102
RTVSPost2010PropOp57
 70
     1
  0
XRECORD
  5
174
102
{ACAD_REACTORS
330
173
102
}
330
173
100
AcDbXrecord
280
     1
102
RTVSPost2010Prop28
280
     0
102
RTVSPost2010PropOp28
 70
     1
102
RTVSPost2010Prop29
280
     1
102
RTVSPost2010PropOp29
 70
     1
102
RTVSPost2010Prop30
280
     1
102
RTVSPost2010PropOp30
 70
     1
102
RTVSPost2010Prop31
280
     0
102
RTVSPost2010PropOp31
 70
     1
102
RTVSPost2010Prop32
280
     0
102
RTVSPost2010PropOp32
 70
     1
102
RTVSPost2010Prop33
280
     0
102
RTVSPost2010PropOp33
 70
     1
102
RTVSPost2010Prop34
280
     0
102
RTVSPost2010PropOp34
 70
     1
102
RTVSPost2010Prop35
280
     0
102
RTVSPost2010PropOp35
 70
     1
102
RTVSPost2010Prop36
280
     0
102
RTVSPost2010PropOp36
 70
     1
102
RTVSPost2010Prop37
 90
       50
102
RTVSPost2010PropOp37
 70
     1
102
RTVSPost2010Prop38
140
0.0
102
RTVSPost2010PropOp38
 70
     1
102
RTVSPost2010Prop39
140
1.0
102
RTVSPost2010PropOp39
 70
     1
102
RTVSPost2010Prop40
 90
        0
102
RTVSPost2010PropOp40
 70
     1
102
RTVSPost2010Prop41ColorIndex
 90
       18
102
RTVSPost2010Prop41ColorRGB
 90
        0
102
RTVSPost2010PropOp41
 70
     1
102
RTVSPost2010Prop42
 90
       50
102
RTVSPost2010PropOp42
 70
     1
102
RTVSPost2010Prop43
 90
        3
102
RTVSPost2010PropOp43
 70
     1
102
RTVSPost2010Prop44ColorIndex
 90
        5
102
RTVSPost2010Prop44ColorRGB
 90
      255
102
RTVSPost2010PropOp44
 70
     1
102
RTVSPost2010Prop45
280
     0
102
RTVSPost2010PropOp45
 70
     1
102
RTVSPost2010Prop46
 90
       50
102
RTVSPost2010PropOp46
 70
     1
102
RTVSPost2010Prop47
 90
       50
102
RTVSPost2010PropOp47
 70
     1
102
RTVSPost2010Prop48
 90
       50
102
RTVSPost2010PropOp48
 70
     1
102
RTVSPost2010Prop49
280
     0
102
RTVSPost2010PropOp49
 70
     1
102
RTVSPost2010Prop50
 90
       50
102
RTVSPost2010PropOp50
 70
     1
102
RTVSPost2010Prop51ColorIndex
 90
      256
102
RTVSPost2010Prop51ColorRGB
 90
-16777216
102
RTVSPost2010PropOp51
 70
     0
102
RTVSPost2010Prop52
140
1.0
102
RTVSPost2010PropOp52
 70
     0
102
RTVSPost2010Prop53
 90
        2
102
RTVSPost2010PropOp53
 70
     1
102
RTVSPost2010Prop54
  1
strokes_ogs.tif
102
RTVSPost2010PropOp54
 70
     1
102
RTVSPost2010Prop55
280
     0
102
RTVSPost2010PropOp55
 70
     1
102
RTVSPost2010Prop56
140
1.0
102
RTVSPost2010PropOp56
 70
     1
102
RTVSPost2010Prop57
140
1.0
102
RTVSPost2010PropOp57
 70
     1
  0
XRECORD
  5
17C
102
{ACAD_REACTORS
330
17B
102
}
330
17B
100
AcDbXrecord
280
     1
102
RTVSPost2010Prop28
280
     0
102
RTVSPost2010PropOp28
 70
     1
102
RTVSPost2010Prop29
280
     1
102
RTVSPost2010PropOp29
 70
     1
102
RTVSPost2010Prop30
280
     1
102
RTVSPost2010PropOp30
 70
     1
102
RTVSPost2010Prop31
280
     0
102
RTVSPost2010PropOp31
 70
     1
102
RTVSPost2010Prop32
280
     0
102
RTVSPost2010PropOp32
 70
     1
102
RTVSPost2010Prop33
280
     0
102
RTVSPost2010PropOp33
 70
     1
102
RTVSPost2010Prop34
280
     0
102
RTVSPost2010PropOp34
 70
     1
102
RTVSPost2010Prop35
280
     0
102
RTVSPost2010PropOp35
 70
     1
102
RTVSPost2010Prop36
280
     0
102
RTVSPost2010PropOp36
 70
     1
102
RTVSPost2010Prop37
 90
       50
102
RTVSPost2010PropOp37
 70
     1
102
RTVSPost2010Prop38
140
0.0
102
RTVSPost2010PropOp38
 70
     1
102
RTVSPost2010Prop39
140
1.0
102
RTVSPost2010PropOp39
 70
     1
102
RTVSPost2010Prop40
 90
        0
102
RTVSPost2010PropOp40
 70
     1
102
RTVSPost2010Prop41ColorIndex
 90
       18
102
RTVSPost2010Prop41ColorRGB
 90
        0
102
RTVSPost2010PropOp41
 70
     1
102
RTVSPost2010Prop42
 90
       50
102
RTVSPost2010PropOp42
 70
     1
102
RTVSPost2010Prop43
 90
        3
102
RTVSPost2010PropOp43
 70
     1
102
RTVSPost2010Prop44ColorIndex
 90
        5
102
RTVSPost2010Prop44ColorRGB
 90
      255
102
RTVSPost2010PropOp44
 70
     1
102
RTVSPost2010Prop45
280
     0
102
RTVSPost2010PropOp45
 70
     1
102
RTVSPost2010Prop46
 90
       50
102
RTVSPost2010PropOp46
 70
     1
102
RTVSPost2010Prop47
 90
       50
102
RTVSPost2010PropOp47
 70
     1
102
RTVSPost2010Prop48
 90
       50
102
RTVSPost2010PropOp48
 70
     1
102
RTVSPost2010Prop49
280
     0
102
RTVSPost2010PropOp49
 70
     1
102
RTVSPost2010Prop50
 90
       50
102
RTVSPost2010PropOp50
 70
     1
102
RTVSPost2010Prop51ColorIndex
 90
      256
102
RTVSPost2010Prop51ColorRGB
 90
-16777216
102
RTVSPost2010PropOp51
 70
     0
102
RTVSPost2010Prop52
140
1.0
102
RTVSPost2010PropOp52
 70
     0
102
RTVSPost2010Prop53
 90
        2
102
RTVSPost2010PropOp53
 70
     1
102
RTVSPost2010Prop54
  1
strokes_ogs.tif
102
RTVSPost2010PropOp54
 70
     1
102
RTVSPost2010Prop55
280
     0
102
RTVSPost2010PropOp55
 70
     1
102
RTVSPost2010Prop56
140
1.0
102
RTVSPost2010PropOp56
 70
     1
102
RTVSPost2010Prop57
140
1.0
102
RTVSPost2010PropOp57
 70
     1
  0
XRECORD
  5
198
102
{ACAD_REACTORS
330
197
102
}
330
197
100
AcDbXrecord
280
     1
102
RTVSPost2010Prop28
280
     0
102
RTVSPost2010PropOp28
 70
     0
102
RTVSPost2010Prop29
280
     1
102
RTVSPost2010PropOp29
 70
     0
102
RTVSPost2010Prop30
280
     1
102
RTVSPost2010PropOp30
 70
     0
102
RTVSPost2010Prop31
280
     0
102
RTVSPost2010PropOp31
 70
     0
102
RTVSPost2010Prop32
280
     0
102
RTVSPost2010PropOp32
 70
     0
102
RTVSPost2010Prop33
280
     0
102
RTVSPost2010PropOp33
 70
     0
102
RTVSPost2010Prop34
280
     0
102
RTVSPost2010PropOp34
 70
     0
102
RTVSPost2010Prop35
280
     0
102
RTVSPost2010PropOp35
 70
     0
102
RTVSPost2010Prop36
280
     0
102
RTVSPost2010PropOp36
 70
     0
102
RTVSPost2010Prop37
 90
       50
102
RTVSPost2010PropOp37
 70
     0
102
RTVSPost2010Prop38
140
0.0
102
RTVSPost2010PropOp38
 70
     0
102
RTVSPost2010Prop39
140
1.0
102
RTVSPost2010PropOp39
 70
     0
102
RTVSPost2010Prop40
 90
        0
102
RTVSPost2010PropOp40
 70
     0
102
RTVSPost2010Prop41ColorIndex
 90
       18
102
RTVSPost2010Prop41ColorRGB
 90
        0
102
RTVSPost2010PropOp41
 70
     0
102
RTVSPost2010Prop42
 90
       50
102
RTVSPost2010PropOp42
 70
     0
102
RTVSPost2010Prop43
 90
        3
102
RTVSPost2010PropOp43
 70
     0
102
RTVSPost2010Prop44ColorIndex
 90
        5
102
RTVSPost2010Prop44ColorRGB
 90
      255
102
RTVSPost2010PropOp44
 70
     0
102
RTVSPost2010Prop45
280
     0
102
RTVSPost2010PropOp45
 70
     0
102
RTVSPost2010Prop46
 90
       50
102
RTVSPost2010PropOp46
 70
     0
102
RTVSPost2010Prop47
 90
       50
102
RTVSPost2010PropOp47
 70
     0
102
RTVSPost2010Prop48
 90
       50
102
RTVSPost2010PropOp48
 70
     0
102
RTVSPost2010Prop49
280
     0
102
RTVSPost2010PropOp49
 70
     0
102
RTVSPost2010Prop50
 90
       50
102
RTVSPost2010PropOp50
 70
     0
102
RTVSPost2010Prop51ColorIndex
 90
      256
102
RTVSPost2010Prop51ColorRGB
 90
-16777216
102
RTVSPost2010PropOp51
 70
     0
102
RTVSPost2010Prop52
140
1.0
102
RTVSPost2010PropOp52
 70
     0
102
RTVSPost2010Prop53
 90
        2
102
RTVSPost2010PropOp53
 70
     0
102
RTVSPost2010Prop54
  1
strokes_ogs.tif
102
RTVSPost2010PropOp54
 70
     0
102
RTVSPost2010Prop55
280
     0
102
RTVSPost2010PropOp55
 70
     0
102
RTVSPost2010Prop56
140
1.0
102
RTVSPost2010PropOp56
 70
     0
102
RTVSPost2010Prop57
140
1.0
102
RTVSPost2010PropOp57
 70
     0
  0
XRECORD
  5
188
102
{ACAD_REACTORS
330
187
102
}
330
187
100
AcDbXrecord
280
     1
102
RTVSPost2010Prop28
280
     0
102
RTVSPost2010PropOp28
 70
     1
102
RTVSPost2010Prop29
280
     1
102
RTVSPost2010PropOp29
 70
     1
102
RTVSPost2010Prop30
280
     1
102
RTVSPost2010PropOp30
 70
     1
102
RTVSPost2010Prop31
280
     0
102
RTVSPost2010PropOp31
 70
     1
102
RTVSPost2010Prop32
280
     0
102
RTVSPost2010PropOp32
 70
     1
102
RTVSPost2010Prop33
280
     0
102
RTVSPost2010PropOp33
 70
     1
102
RTVSPost2010Prop34
280
     0
102
RTVSPost2010PropOp34
 70
     1
102
RTVSPost2010Prop35
280
     0
102
RTVSPost2010PropOp35
 70
     1
102
RTVSPost2010Prop36
280
     0
102
RTVSPost2010PropOp36
 70
     1
102
RTVSPost2010Prop37
 90
       50
102
RTVSPost2010PropOp37
 70
     1
102
RTVSPost2010Prop38
140
0.0
102
RTVSPost2010PropOp38
 70
     1
102
RTVSPost2010Prop39
140
1.0
102
RTVSPost2010PropOp39
 70
     1
102
RTVSPost2010Prop40
 90
        0
102
RTVSPost2010PropOp40
 70
     1
102
RTVSPost2010Prop41ColorIndex
 90
       18
102
RTVSPost2010Prop41ColorRGB
 90
        0
102
RTVSPost2010PropOp41
 70
     1
102
RTVSPost2010Prop42
 90
       50
102
RTVSPost2010PropOp42
 70
     1
102
RTVSPost2010Prop43
 90
        3
102
RTVSPost2010PropOp43
 70
     1
102
RTVSPost2010Prop44ColorIndex
 90
        5
102
RTVSPost2010Prop44ColorRGB
 90
      255
102
RTVSPost2010PropOp44
 70
     1
102
RTVSPost2010Prop45
280
     0
102
RTVSPost2010PropOp45
 70
     1
102
RTVSPost2010Prop46
 90
       50
102
RTVSPost2010PropOp46
 70
     1
102
RTVSPost2010Prop47
 90
       50
102
RTVSPost2010PropOp47
 70
     1
102
RTVSPost2010Prop48
 90
       50
102
RTVSPost2010PropOp48
 70
     1
102
RTVSPost2010Prop49
280
     0
102
RTVSPost2010PropOp49
 70
     1
102
RTVSPost2010Prop50
 90
       50
102
RTVSPost2010PropOp50
 70
     1
102
RTVSPost2010Prop51ColorIndex
 90
      256
102
RTVSPost2010Prop51ColorRGB
 90
-16777216
102
RTVSPost2010PropOp51
 70
     0
102
RTVSPost2010Prop52
140
1.0
102
RTVSPost2010PropOp52
 70
     0
102
RTVSPost2010Prop53
 90
        2
102
RTVSPost2010PropOp53
 70
     1
102
RTVSPost2010Prop54
  1
strokes_ogs.tif
102
RTVSPost2010PropOp54
 70
     1
102
RTVSPost2010Prop55
280
     0
102
RTVSPost2010PropOp55
 70
     1
102
RTVSPost2010Prop56
140
1.0
102
RTVSPost2010PropOp56
 70
     1
102
RTVSPost2010Prop57
140
1.0
102
RTVSPost2010PropOp57
 70
     1
  0
XRECORD
  5
19A
102
{ACAD_REACTORS
330
199
102
}
330
199
100
AcDbXrecord
280
     1
102
RTVSPost2010Prop28
280
     0
102
RTVSPost2010PropOp28
 70
     0
102
RTVSPost2010Prop29
280
     1
102
RTVSPost2010PropOp29
 70
     0
102
RTVSPost2010Prop30
280
     1
102
RTVSPost2010PropOp30
 70
     0
102
RTVSPost2010Prop31
280
     0
102
RTVSPost2010PropOp31
 70
     0
102
RTVSPost2010Prop32
280
     0
102
RTVSPost2010PropOp32
 70
     0
102
RTVSPost2010Prop33
280
     0
102
RTVSPost2010PropOp33
 70
     0
102
RTVSPost2010Prop34
280
     0
102
RTVSPost2010PropOp34
 70
     0
102
RTVSPost2010Prop35
280
     0
102
RTVSPost2010PropOp35
 70
     0
102
RTVSPost2010Prop36
280
     0
102
RTVSPost2010PropOp36
 70
     0
102
RTVSPost2010Prop37
 90
       50
102
RTVSPost2010PropOp37
 70
     0
102
RTVSPost2010Prop38
140
0.0
102
RTVSPost2010PropOp38
 70
     0
102
RTVSPost2010Prop39
140
1.0
102
RTVSPost2010PropOp39
 70
     0
102
RTVSPost2010Prop40
 90
        0
102
RTVSPost2010PropOp40
 70
     0
102
RTVSPost2010Prop41ColorIndex
 90
       18
102
RTVSPost2010Prop41ColorRGB
 90
        0
102
RTVSPost2010PropOp41
 70
     0
102
RTVSPost2010Prop42
 90
       50
102
RTVSPost2010PropOp42
 70
     0
102
RTVSPost2010Prop43
 90
        3
102
RTVSPost2010PropOp43
 70
     0
102
RTVSPost2010Prop44ColorIndex
 90
        5
102
RTVSPost2010Prop44ColorRGB
 90
      255
102
RTVSPost2010PropOp44
 70
     0
102
RTVSPost2010Prop45
280
     0
102
RTVSPost2010PropOp45
 70
     0
102
RTVSPost2010Prop46
 90
       50
102
RTVSPost2010PropOp46
 70
     0
102
RTVSPost2010Prop47
 90
       50
102
RTVSPost2010PropOp47
 70
     0
102
RTVSPost2010Prop48
 90
       50
102
RTVSPost2010PropOp48
 70
     0
102
RTVSPost2010Prop49
280
     0
102
RTVSPost2010PropOp49
 70
     0
102
RTVSPost2010Prop50
 90
       50
102
RTVSPost2010PropOp50
 70
     0
102
RTVSPost2010Prop51ColorIndex
 90
      256
102
RTVSPost2010Prop51ColorRGB
 90
-16777216
102
RTVSPost2010PropOp51
 70
     0
102
RTVSPost2010Prop52
140
1.0
102
RTVSPost2010PropOp52
 70
     0
102
RTVSPost2010Prop53
 90
        2
102
RTVSPost2010PropOp53
 70
     0
102
RTVSPost2010Prop54
  1
strokes_ogs.tif
102
RTVSPost2010PropOp54
 70
     0
102
RTVSPost2010Prop55
280
     0
102
RTVSPost2010PropOp55
 70
     0
102
RTVSPost2010Prop56
140
1.0
102
RTVSPost2010PropOp56
 70
     0
102
RTVSPost2010Prop57
140
1.0
102
RTVSPost2010PropOp57
 70
     0
  0
XRECORD
  5
180
102
{ACAD_REACTORS
330
17F
102
}
330
17F
100
AcDbXrecord
280
     1
102
RTVSPost2010Prop28
280
     0
102
RTVSPost2010PropOp28
 70
     1
102
RTVSPost2010Prop29
280
     1
102
RTVSPost2010PropOp29
 70
     1
102
RTVSPost2010Prop30
280
     1
102
RTVSPost2010PropOp30
 70
     1
102
RTVSPost2010Prop31
280
     0
102
RTVSPost2010PropOp31
 70
     1
102
RTVSPost2010Prop32
280
     0
102
RTVSPost2010PropOp32
 70
     1
102
RTVSPost2010Prop33
280
     0
102
RTVSPost2010PropOp33
 70
     1
102
RTVSPost2010Prop34
280
     0
102
RTVSPost2010PropOp34
 70
     1
102
RTVSPost2010Prop35
280
     0
102
RTVSPost2010PropOp35
 70
     1
102
RTVSPost2010Prop36
280
     0
102
RTVSPost2010PropOp36
 70
     1
102
RTVSPost2010Prop37
 90
       50
102
RTVSPost2010PropOp37
 70
     1
102
RTVSPost2010Prop38
140
0.0
102
RTVSPost2010PropOp38
 70
     1
102
RTVSPost2010Prop39
140
1.0
102
RTVSPost2010PropOp39
 70
     1
102
RTVSPost2010Prop40
 90
        0
102
RTVSPost2010PropOp40
 70
     1
102
RTVSPost2010Prop41ColorIndex
 90
       18
102
RTVSPost2010Prop41ColorRGB
 90
        0
102
RTVSPost2010PropOp41
 70
     1
102
RTVSPost2010Prop42
 90
       50
102
RTVSPost2010PropOp42
 70
     1
102
RTVSPost2010Prop43
 90
        3
102
RTVSPost2010PropOp43
 70
     1
102
RTVSPost2010Prop44ColorIndex
 90
        5
102
RTVSPost2010Prop44ColorRGB
 90
      255
102
RTVSPost2010PropOp44
 70
     1
102
RTVSPost2010Prop45
280
     0
102
RTVSPost2010PropOp45
 70
     1
102
RTVSPost2010Prop46
 90
       50
102
RTVSPost2010PropOp46
 70
     1
102
RTVSPost2010Prop47
 90
       50
102
RTVSPost2010PropOp47
 70
     1
102
RTVSPost2010Prop48
 90
       50
102
RTVSPost2010PropOp48
 70
     1
102
RTVSPost2010Prop49
280
     0
102
RTVSPost2010PropOp49
 70
     1
102
RTVSPost2010Prop50
 90
       50
102
RTVSPost2010PropOp50
 70
     1
102
RTVSPost2010Prop51ColorIndex
 90
      256
102
RTVSPost2010Prop51ColorRGB
 90
-16777216
102
RTVSPost2010PropOp51
 70
     0
102
RTVSPost2010Prop52
140
1.0
102
RTVSPost2010PropOp52
 70
     0
102
RTVSPost2010Prop53
 90
        2
102
RTVSPost2010PropOp53
 70
     1
102
RTVSPost2010Prop54
  1
strokes_ogs.tif
102
RTVSPost2010PropOp54
 70
     1
102
RTVSPost2010Prop55
280
     0
102
RTVSPost2010PropOp55
 70
     1
102
RTVSPost2010Prop56
140
1.0
102
RTVSPost2010PropOp56
 70
     1
102
RTVSPost2010Prop57
140
1.0
102
RTVSPost2010PropOp57
 70
     1
  0
XRECORD
  5
196
102
{ACAD_REACTORS
330
195
102
}
330
195
100
AcDbXrecord
280
     1
102
RTVSPost2010Prop28
280
     0
102
RTVSPost2010PropOp28
 70
     1
102
RTVSPost2010Prop29
280
     1
102
RTVSPost2010PropOp29
 70
     1
102
RTVSPost2010Prop30
280
     1
102
RTVSPost2010PropOp30
 70
     1
102
RTVSPost2010Prop31
280
     0
102
RTVSPost2010PropOp31
 70
     1
102
RTVSPost2010Prop32
280
     0
102
RTVSPost2010PropOp32
 70
     1
102
RTVSPost2010Prop33
280
     0
102
RTVSPost2010PropOp33
 70
     1
102
RTVSPost2010Prop34
280
     0
102
RTVSPost2010PropOp34
 70
     1
102
RTVSPost2010Prop35
280
     0
102
RTVSPost2010PropOp35
 70
     1
102
RTVSPost2010Prop36
280
     0
102
RTVSPost2010PropOp36
 70
     1
102
RTVSPost2010Prop37
 90
       50
102
RTVSPost2010PropOp37
 70
     1
102
RTVSPost2010Prop38
140
0.0
102
RTVSPost2010PropOp38
 70
     1
102
RTVSPost2010Prop39
140
1.0
102
RTVSPost2010PropOp39
 70
     1
102
RTVSPost2010Prop40
 90
        0
102
RTVSPost2010PropOp40
 70
     1
102
RTVSPost2010Prop41ColorIndex
 90
       18
102
RTVSPost2010Prop41ColorRGB
 90
        0
102
RTVSPost2010PropOp41
 70
     1
102
RTVSPost2010Prop42
 90
       50
102
RTVSPost2010PropOp42
 70
     1
102
RTVSPost2010Prop43
 90
        3
102
RTVSPost2010PropOp43
 70
     1
102
RTVSPost2010Prop44ColorIndex
 90
        5
102
RTVSPost2010Prop44ColorRGB
 90
      255
102
RTVSPost2010PropOp44
 70
     1
102
RTVSPost2010Prop45
280
     0
102
RTVSPost2010PropOp45
 70
     1
102
RTVSPost2010Prop46
 90
       50
102
RTVSPost2010PropOp46
 70
     1
102
RTVSPost2010Prop47
 90
       50
102
RTVSPost2010PropOp47
 70
     1
102
RTVSPost2010Prop48
 90
       50
102
RTVSPost2010PropOp48
 70
     1
102
RTVSPost2010Prop49
280
     0
102
RTVSPost2010PropOp49
 70
     1
102
RTVSPost2010Prop50
 90
       50
102
RTVSPost2010PropOp50
 70
     1
102
RTVSPost2010Prop51ColorIndex
 90
      256
102
RTVSPost2010Prop51ColorRGB
 90
-16777216
102
RTVSPost2010PropOp51
 70
     0
102
RTVSPost2010Prop52
140
1.0
102
RTVSPost2010PropOp52
 70
     0
102
RTVSPost2010Prop53
 90
        2
102
RTVSPost2010PropOp53
 70
     1
102
RTVSPost2010Prop54
  1
strokes_ogs.tif
102
RTVSPost2010PropOp54
 70
     1
102
RTVSPost2010Prop55
280
     0
102
RTVSPost2010PropOp55
 70
     1
102
RTVSPost2010Prop56
140
1.0
102
RTVSPost2010PropOp56
 70
     1
102
RTVSPost2010Prop57
140
1.0
102
RTVSPost2010PropOp57
 70
     1
  0
XRECORD
  5
194
102
{ACAD_REACTORS
330
193
102
}
330
193
100
AcDbXrecord
280
     1
102
RTVSPost2010Prop28
280
     0
102
RTVSPost2010PropOp28
 70
     1
102
RTVSPost2010Prop29
280
     1
102
RTVSPost2010PropOp29
 70
     1
102
RTVSPost2010Prop30
280
     1
102
RTVSPost2010PropOp30
 70
     1
102
RTVSPost2010Prop31
280
     0
102
RTVSPost2010PropOp31
 70
     1
102
RTVSPost2010Prop32
280
     0
102
RTVSPost2010PropOp32
 70
     1
102
RTVSPost2010Prop33
280
     0
102
RTVSPost2010PropOp33
 70
     1
102
RTVSPost2010Prop34
280
     0
102
RTVSPost2010PropOp34
 70
     1
102
RTVSPost2010Prop35
280
     0
102
RTVSPost2010PropOp35
 70
     1
102
RTVSPost2010Prop36
280
     0
102
RTVSPost2010PropOp36
 70
     1
102
RTVSPost2010Prop37
 90
       50
102
RTVSPost2010PropOp37
 70
     1
102
RTVSPost2010Prop38
140
0.0
102
RTVSPost2010PropOp38
 70
     1
102
RTVSPost2010Prop39
140
1.0
102
RTVSPost2010PropOp39
 70
     1
102
RTVSPost2010Prop40
 90
        0
102
RTVSPost2010PropOp40
 70
     1
102
RTVSPost2010Prop41ColorIndex
 90
       18
102
RTVSPost2010Prop41ColorRGB
 90
        0
102
RTVSPost2010PropOp41
 70
     1
102
RTVSPost2010Prop42
 90
       50
102
RTVSPost2010PropOp42
 70
     1
102
RTVSPost2010Prop43
 90
        3
102
RTVSPost2010PropOp43
 70
     1
102
RTVSPost2010Prop44ColorIndex
 90
        5
102
RTVSPost2010Prop44ColorRGB
 90
      255
102
RTVSPost2010PropOp44
 70
     1
102
RTVSPost2010Prop45
280
     0
102
RTVSPost2010PropOp45
 70
     1
102
RTVSPost2010Prop46
 90
       50
102
RTVSPost2010PropOp46
 70
     1
102
RTVSPost2010Prop47
 90
       50
102
RTVSPost2010PropOp47
 70
     1
102
RTVSPost2010Prop48
 90
       50
102
RTVSPost2010PropOp48
 70
     1
102
RTVSPost2010Prop49
280
     0
102
RTVSPost2010PropOp49
 70
     1
102
RTVSPost2010Prop50
 90
       50
102
RTVSPost2010PropOp50
 70
     1
102
RTVSPost2010Prop51ColorIndex
 90
      256
102
RTVSPost2010Prop51ColorRGB
 90
-16777216
102
RTVSPost2010PropOp51
 70
     0
102
RTVSPost2010Prop52
140
1.0
102
RTVSPost2010PropOp52
 70
     0
102
RTVSPost2010Prop53
 90
        2
102
RTVSPost2010PropOp53
 70
     1
102
RTVSPost2010Prop54
  1
strokes_ogs.tif
102
RTVSPost2010PropOp54
 70
     1
102
RTVSPost2010Prop55
280
     0
102
RTVSPost2010PropOp55
 70
     1
102
RTVSPost2010Prop56
140
1.0
102
RTVSPost2010PropOp56
 70
     1
102
RTVSPost2010Prop57
140
1.0
102
RTVSPost2010PropOp57
 70
     1
  0
XRECORD
  5
18E
102
{ACAD_REACTORS
330
18D
102
}
330
18D
100
AcDbXrecord
280
     1
102
RTVSPost2010Prop28
280
     0
102
RTVSPost2010PropOp28
 70
     1
102
RTVSPost2010Prop29
280
     1
102
RTVSPost2010PropOp29
 70
     1
102
RTVSPost2010Prop30
280
     1
102
RTVSPost2010PropOp30
 70
     1
102
RTVSPost2010Prop31
280
     0
102
RTVSPost2010PropOp31
 70
     1
102
RTVSPost2010Prop32
280
     0
102
RTVSPost2010PropOp32
 70
     1
102
RTVSPost2010Prop33
280
     0
102
RTVSPost2010PropOp33
 70
     1
102
RTVSPost2010Prop34
280
     0
102
RTVSPost2010PropOp34
 70
     1
102
RTVSPost2010Prop35
280
     0
102
RTVSPost2010PropOp35
 70
     1
102
RTVSPost2010Prop36
280
     0
102
RTVSPost2010PropOp36
 70
     1
102
RTVSPost2010Prop37
 90
       50
102
RTVSPost2010PropOp37
 70
     1
102
RTVSPost2010Prop38
140
0.0
102
RTVSPost2010PropOp38
 70
     1
102
RTVSPost2010Prop39
140
1.0
102
RTVSPost2010PropOp39
 70
     1
102
RTVSPost2010Prop40
 90
        0
102
RTVSPost2010PropOp40
 70
     1
102
RTVSPost2010Prop41ColorIndex
 90
       18
102
RTVSPost2010Prop41ColorRGB
 90
        0
102
RTVSPost2010PropOp41
 70
     1
102
RTVSPost2010Prop42
 90
       50
102
RTVSPost2010PropOp42
 70
     1
102
RTVSPost2010Prop43
 90
        3
102
RTVSPost2010PropOp43
 70
     1
102
RTVSPost2010Prop44ColorIndex
 90
        5
102
RTVSPost2010Prop44ColorRGB
 90
      255
102
RTVSPost2010PropOp44
 70
     1
102
RTVSPost2010Prop45
280
     0
102
RTVSPost2010PropOp45
 70
     1
102
RTVSPost2010Prop46
 90
       50
102
RTVSPost2010PropOp46
 70
     1
102
RTVSPost2010Prop47
 90
       50
102
RTVSPost2010PropOp47
 70
     1
102
RTVSPost2010Prop48
 90
       50
102
RTVSPost2010PropOp48
 70
     1
102
RTVSPost2010Prop49
280
     0
102
RTVSPost2010PropOp49
 70
     1
102
RTVSPost2010Prop50
 90
       50
102
RTVSPost2010PropOp50
 70
     1
102
RTVSPost2010Prop51ColorIndex
 90
      256
102
RTVSPost2010Prop51ColorRGB
 90
-16777216
102
RTVSPost2010PropOp51
 70
     0
102
RTVSPost2010Prop52
140
1.0
102
RTVSPost2010PropOp52
 70
     0
102
RTVSPost2010Prop53
 90
        2
102
RTVSPost2010PropOp53
 70
     1
102
RTVSPost2010Prop54
  1
strokes_ogs.tif
102
RTVSPost2010PropOp54
 70
     1
102
RTVSPost2010Prop55
280
     0
102
RTVSPost2010PropOp55
 70
     1
102
RTVSPost2010Prop56
140
1.0
102
RTVSPost2010PropOp56
 70
     1
102
RTVSPost2010Prop57
140
1.0
102
RTVSPost2010PropOp57
 70
     1
  0
XRECORD
  5
190
102
{ACAD_REACTORS
330
18F
102
}
330
18F
100
AcDbXrecord
280
     1
102
RTVSPost2010Prop28
280
     0
102
RTVSPost2010PropOp28
 70
     1
102
RTVSPost2010Prop29
280
     1
102
RTVSPost2010PropOp29
 70
     1
102
RTVSPost2010Prop30
280
     1
102
RTVSPost2010PropOp30
 70
     1
102
RTVSPost2010Prop31
280
     0
102
RTVSPost2010PropOp31
 70
     1
102
RTVSPost2010Prop32
280
     0
102
RTVSPost2010PropOp32
 70
     1
102
RTVSPost2010Prop33
280
     0
102
RTVSPost2010PropOp33
 70
     1
102
RTVSPost2010Prop34
280
     0
102
RTVSPost2010PropOp34
 70
     1
102
RTVSPost2010Prop35
280
     0
102
RTVSPost2010PropOp35
 70
     1
102
RTVSPost2010Prop36
280
     0
102
RTVSPost2010PropOp36
 70
     1
102
RTVSPost2010Prop37
 90
       50
102
RTVSPost2010PropOp37
 70
     1
102
RTVSPost2010Prop38
140
0.0
102
RTVSPost2010PropOp38
 70
     1
102
RTVSPost2010Prop39
140
1.0
102
RTVSPost2010PropOp39
 70
     1
102
RTVSPost2010Prop40
 90
        0
102
RTVSPost2010PropOp40
 70
     1
102
RTVSPost2010Prop41ColorIndex
 90
       18
102
RTVSPost2010Prop41ColorRGB
 90
        0
102
RTVSPost2010PropOp41
 70
     1
102
RTVSPost2010Prop42
 90
       50
102
RTVSPost2010PropOp42
 70
     1
102
RTVSPost2010Prop43
 90
        3
102
RTVSPost2010PropOp43
 70
     1
102
RTVSPost2010Prop44ColorIndex
 90
        5
102
RTVSPost2010Prop44ColorRGB
 90
      255
102
RTVSPost2010PropOp44
 70
     1
102
RTVSPost2010Prop45
280
     0
102
RTVSPost2010PropOp45
 70
     1
102
RTVSPost2010Prop46
 90
       50
102
RTVSPost2010PropOp46
 70
     1
102
RTVSPost2010Prop47
 90
       50
102
RTVSPost2010PropOp47
 70
     1
102
RTVSPost2010Prop48
 90
       50
102
RTVSPost2010PropOp48
 70
     1
102
RTVSPost2010Prop49
280
     0
102
RTVSPost2010PropOp49
 70
     1
102
RTVSPost2010Prop50
 90
       50
102
RTVSPost2010PropOp50
 70
     1
102
RTVSPost2010Prop51ColorIndex
 90
      256
102
RTVSPost2010Prop51ColorRGB
 90
-16777216
102
RTVSPost2010PropOp51
 70
     0
102
RTVSPost2010Prop52
140
1.0
102
RTVSPost2010PropOp52
 70
     0
102
RTVSPost2010Prop53
 90
        2
102
RTVSPost2010PropOp53
 70
     1
102
RTVSPost2010Prop54
  1
strokes_ogs.tif
102
RTVSPost2010PropOp54
 70
     1
102
RTVSPost2010Prop55
280
     0
102
RTVSPost2010PropOp55
 70
     1
102
RTVSPost2010Prop56
140
1.0
102
RTVSPost2010PropOp56
 70
     1
102
RTVSPost2010Prop57
140
1.0
102
RTVSPost2010PropOp57
 70
     1
  0
XRECORD
  5
186
102
{ACAD_REACTORS
330
185
102
}
330
185
100
AcDbXrecord
280
     1
102
RTVSPost2010Prop28
280
     0
102
RTVSPost2010PropOp28
 70
     1
102
RTVSPost2010Prop29
280
     1
102
RTVSPost2010PropOp29
 70
     1
102
RTVSPost2010Prop30
280
     1
102
RTVSPost2010PropOp30
 70
     1
102
RTVSPost2010Prop31
280
     0
102
RTVSPost2010PropOp31
 70
     1
102
RTVSPost2010Prop32
280
     0
102
RTVSPost2010PropOp32
 70
     1
102
RTVSPost2010Prop33
280
     0
102
RTVSPost2010PropOp33
 70
     1
102
RTVSPost2010Prop34
280
     0
102
RTVSPost2010PropOp34
 70
     1
102
RTVSPost2010Prop35
280
     0
102
RTVSPost2010PropOp35
 70
     1
102
RTVSPost2010Prop36
280
     0
102
RTVSPost2010PropOp36
 70
     1
102
RTVSPost2010Prop37
 90
       50
102
RTVSPost2010PropOp37
 70
     1
102
RTVSPost2010Prop38
140
0.0
102
RTVSPost2010PropOp38
 70
     1
102
RTVSPost2010Prop39
140
1.0
102
RTVSPost2010PropOp39
 70
     1
102
RTVSPost2010Prop40
 90
        0
102
RTVSPost2010PropOp40
 70
     1
102
RTVSPost2010Prop41ColorIndex
 90
       18
102
RTVSPost2010Prop41ColorRGB
 90
        0
102
RTVSPost2010PropOp41
 70
     1
102
RTVSPost2010Prop42
 90
       50
102
RTVSPost2010PropOp42
 70
     1
102
RTVSPost2010Prop43
 90
        3
102
RTVSPost2010PropOp43
 70
     1
102
RTVSPost2010Prop44ColorIndex
 90
        5
102
RTVSPost2010Prop44ColorRGB
 90
      255
102
RTVSPost2010PropOp44
 70
     1
102
RTVSPost2010Prop45
280
     0
102
RTVSPost2010PropOp45
 70
     1
102
RTVSPost2010Prop46
 90
       50
102
RTVSPost2010PropOp46
 70
     1
102
RTVSPost2010Prop47
 90
       50
102
RTVSPost2010PropOp47
 70
     1
102
RTVSPost2010Prop48
 90
       50
102
RTVSPost2010PropOp48
 70
     1
102
RTVSPost2010Prop49
280
     0
102
RTVSPost2010PropOp49
 70
     1
102
RTVSPost2010Prop50
 90
       50
102
RTVSPost2010PropOp50
 70
     1
102
RTVSPost2010Prop51ColorIndex
 90
      256
102
RTVSPost2010Prop51ColorRGB
 90
-16777216
102
RTVSPost2010PropOp51
 70
     0
102
RTVSPost2010Prop52
140
1.0
102
RTVSPost2010PropOp52
 70
     0
102
RTVSPost2010Prop53
 90
        2
102
RTVSPost2010PropOp53
 70
     1
102
RTVSPost2010Prop54
  1
strokes_ogs.tif
102
RTVSPost2010PropOp54
 70
     1
102
RTVSPost2010Prop55
280
     0
102
RTVSPost2010PropOp55
 70
     1
102
RTVSPost2010Prop56
140
1.0
102
RTVSPost2010PropOp56
 70
     1
102
RTVSPost2010Prop57
140
1.0
102
RTVSPost2010PropOp57
 70
     1
  0
XRECORD
  5
17A
102
{ACAD_REACTORS
330
179
102
}
330
179
100
AcDbXrecord
280
     1
102
RTVSPost2010Prop28
280
     0
102
RTVSPost2010PropOp28
 70
     1
102
RTVSPost2010Prop29
280
     1
102
RTVSPost2010PropOp29
 70
     1
102
RTVSPost2010Prop30
280
     1
102
RTVSPost2010PropOp30
 70
     1
102
RTVSPost2010Prop31
280
     0
102
RTVSPost2010PropOp31
 70
     1
102
RTVSPost2010Prop32
280
     0
102
RTVSPost2010PropOp32
 70
     1
102
RTVSPost2010Prop33
280
     0
102
RTVSPost2010PropOp33
 70
     1
102
RTVSPost2010Prop34
280
     0
102
RTVSPost2010PropOp34
 70
     1
102
RTVSPost2010Prop35
280
     0
102
RTVSPost2010PropOp35
 70
     1
102
RTVSPost2010Prop36
280
     0
102
RTVSPost2010PropOp36
 70
     1
102
RTVSPost2010Prop37
 90
       50
102
RTVSPost2010PropOp37
 70
     1
102
RTVSPost2010Prop38
140
0.0
102
RTVSPost2010PropOp38
 70
     1
102
RTVSPost2010Prop39
140
1.0
102
RTVSPost2010PropOp39
 70
     1
102
RTVSPost2010Prop40
 90
        0
102
RTVSPost2010PropOp40
 70
     1
102
RTVSPost2010Prop41ColorIndex
 90
       18
102
RTVSPost2010Prop41ColorRGB
 90
        0
102
RTVSPost2010PropOp41
 70
     1
102
RTVSPost2010Prop42
 90
       50
102
RTVSPost2010PropOp42
 70
     1
102
RTVSPost2010Prop43
 90
        3
102
RTVSPost2010PropOp43
 70
     1
102
RTVSPost2010Prop44ColorIndex
 90
        5
102
RTVSPost2010Prop44ColorRGB
 90
      255
102
RTVSPost2010PropOp44
 70
     1
102
RTVSPost2010Prop45
280
     0
102
RTVSPost2010PropOp45
 70
     1
102
RTVSPost2010Prop46
 90
       50
102
RTVSPost2010PropOp46
 70
     1
102
RTVSPost2010Prop47
 90
       50
102
RTVSPost2010PropOp47
 70
     1
102
RTVSPost2010Prop48
 90
       50
102
RTVSPost2010PropOp48
 70
     1
102
RTVSPost2010Prop49
280
     0
102
RTVSPost2010PropOp49
 70
     1
102
RTVSPost2010Prop50
 90
       50
102
RTVSPost2010PropOp50
 70
     1
102
RTVSPost2010Prop51ColorIndex
 90
      256
102
RTVSPost2010Prop51ColorRGB
 90
-16777216
102
RTVSPost2010PropOp51
 70
     0
102
RTVSPost2010Prop52
140
1.0
102
RTVSPost2010PropOp52
 70
     0
102
RTVSPost2010Prop53
 90
        2
102
RTVSPost2010PropOp53
 70
     1
102
RTVSPost2010Prop54
  1
strokes_ogs.tif
102
RTVSPost2010PropOp54
 70
     1
102
RTVSPost2010Prop55
280
     0
102
RTVSPost2010PropOp55
 70
     1
102
RTVSPost2010Prop56
140
1.0
102
RTVSPost2010PropOp56
 70
     1
102
RTVSPost2010Prop57
140
1.0
102
RTVSPost2010PropOp57
 70
     1
  0
XRECORD
  5
192
102
{ACAD_REACTORS
330
191
102
}
330
191
100
AcDbXrecord
280
     1
102
RTVSPost2010Prop28
280
     0
102
RTVSPost2010PropOp28
 70
     1
102
RTVSPost2010Prop29
280
     1
102
RTVSPost2010PropOp29
 70
     1
102
RTVSPost2010Prop30
280
     1
102
RTVSPost2010PropOp30
 70
     1
102
RTVSPost2010Prop31
280
     0
102
RTVSPost2010PropOp31
 70
     1
102
RTVSPost2010Prop32
280
     0
102
RTVSPost2010PropOp32
 70
     1
102
RTVSPost2010Prop33
280
     0
102
RTVSPost2010PropOp33
 70
     1
102
RTVSPost2010Prop34
280
     0
102
RTVSPost2010PropOp34
 70
     1
102
RTVSPost2010Prop35
280
     0
102
RTVSPost2010PropOp35
 70
     1
102
RTVSPost2010Prop36
280
     0
102
RTVSPost2010PropOp36
 70
     1
102
RTVSPost2010Prop37
 90
       50
102
RTVSPost2010PropOp37
 70
     1
102
RTVSPost2010Prop38
140
0.0
102
RTVSPost2010PropOp38
 70
     1
102
RTVSPost2010Prop39
140
1.0
102
RTVSPost2010PropOp39
 70
     1
102
RTVSPost2010Prop40
 90
        0
102
RTVSPost2010PropOp40
 70
     1
102
RTVSPost2010Prop41ColorIndex
 90
       18
102
RTVSPost2010Prop41ColorRGB
 90
        0
102
RTVSPost2010PropOp41
 70
     1
102
RTVSPost2010Prop42
 90
       50
102
RTVSPost2010PropOp42
 70
     1
102
RTVSPost2010Prop43
 90
        3
102
RTVSPost2010PropOp43
 70
     1
102
RTVSPost2010Prop44ColorIndex
 90
        5
102
RTVSPost2010Prop44ColorRGB
 90
      255
102
RTVSPost2010PropOp44
 70
     1
102
RTVSPost2010Prop45
280
     0
102
RTVSPost2010PropOp45
 70
     1
102
RTVSPost2010Prop46
 90
       50
102
RTVSPost2010PropOp46
 70
     1
102
RTVSPost2010Prop47
 90
       50
102
RTVSPost2010PropOp47
 70
     1
102
RTVSPost2010Prop48
 90
       50
102
RTVSPost2010PropOp48
 70
     1
102
RTVSPost2010Prop49
280
     0
102
RTVSPost2010PropOp49
 70
     1
102
RTVSPost2010Prop50
 90
       50
102
RTVSPost2010PropOp50
 70
     1
102
RTVSPost2010Prop51ColorIndex
 90
      256
102
RTVSPost2010Prop51ColorRGB
 90
-16777216
102
RTVSPost2010PropOp51
 70
     0
102
RTVSPost2010Prop52
140
1.0
102
RTVSPost2010PropOp52
 70
     0
102
RTVSPost2010Prop53
 90
        2
102
RTVSPost2010PropOp53
 70
     1
102
RTVSPost2010Prop54
  1
strokes_ogs.tif
102
RTVSPost2010PropOp54
 70
     1
102
RTVSPost2010Prop55
280
     0
102
RTVSPost2010PropOp55
 70
     1
102
RTVSPost2010Prop56
140
1.0
102
RTVSPost2010PropOp56
 70
     1
102
RTVSPost2010Prop57
140
1.0
102
RTVSPost2010PropOp57
 70
     1
  0
ENDSEC
  0
EOF
