  0
SECTION
  2
HEADER
  9
$ACADVER
  1
AC1024
  9
$ACADMAINTVER
 70
   205
  9
$DWGCODEPAGE
  3
ANSI_1251
  9
$INSBASE
 10
0.0
 20
0.0
 30
0.0
  9
$EXTMIN
 10
1.000000000000000E+20
 20
1.000000000000000E+20
 30
1.000000000000000E+20
  9
$EXTMAX
 10
-1.000000000000000E+20
 20
-1.000000000000000E+20
 30
-1.000000000000000E+20
  9
$LIMMIN
 10
0.0
 20
0.0
  9
$LIMMAX
 10
12.0
 20
9.0
  9
$ORTHOMODE
 70
     0
  9
$REGENMODE
 70
     1
  9
$FILLMODE
 70
     1
  9
$QTEXTMODE
 70
     0
  9
$MIRRTEXT
 70
     1
  9
$LTSCALE
 40
1.0
  9
$ATTMODE
 70
     1
  9
$TEXTSIZE
 40
0.2
  9
$TRACEWID
 40
0.05
  9
$TEXTSTYLE
  7
Standard
  9
$CLAYER
  8
OracDecor_cornice_mouldings
  9
$CELTYPE
  6
ByLayer
  9
$CECOLOR
 62
   256
  9
$CELTSCALE
 40
1.0
  9
$DISPSILH
 70
     0
  9
$DIMSCALE
 40
1.0
  9
$DIMASZ
 40
0.18
  9
$DIMEXO
 40
0.0625
  9
$DIMDLI
 40
0.38
  9
$DIMRND
 40
0.0
  9
$DIMDLE
 40
0.0
  9
$DIMEXE
 40
0.18
  9
$DIMTP
 40
0.0
  9
$DIMTM
 40
0.0
  9
$DIMTXT
 40
0.18
  9
$DIMCEN
 40
0.09
  9
$DIMTSZ
 40
0.0
  9
$DIMTOL
 70
     0
  9
$DIMLIM
 70
     0
  9
$DIMTIH
 70
     1
  9
$DIMTOH
 70
     1
  9
$DIMSE1
 70
     0
  9
$DIMSE2
 70
     0
  9
$DIMTAD
 70
     0
  9
$DIMZIN
 70
     0
  9
$DIMBLK
  1

  9
$DIMASO
 70
     1
  9
$DIMSHO
 70
     1
  9
$DIMPOST
  1

  9
$DIMAPOST
  1

  9
$DIMALT
 70
     0
  9
$DIMALTD
 70
     2
  9
$DIMALTF
 40
25.4
  9
$DIMLFAC
 40
1.0
  9
$DIMTOFL
 70
     0
  9
$DIMTVP
 40
0.0
  9
$DIMTIX
 70
     0
  9
$DIMSOXD
 70
     0
  9
$DIMSAH
 70
     0
  9
$DIMBLK1
  1

  9
$DIMBLK2
  1

  9
$DIMSTYLE
  2
Standard
  9
$DIMCLRD
 70
     0
  9
$DIMCLRE
 70
     0
  9
$DIMCLRT
 70
     0
  9
$DIMTFAC
 40
1.0
  9
$DIMGAP
 40
0.09
  9
$DIMJUST
 70
     0
  9
$DIMSD1
 70
     0
  9
$DIMSD2
 70
     0
  9
$DIMTOLJ
 70
     1
  9
$DIMTZIN
 70
     0
  9
$DIMALTZ
 70
     0
  9
$DIMALTTZ
 70
     0
  9
$DIMUPT
 70
     0
  9
$DIMDEC
 70
     4
  9
$DIMTDEC
 70
     4
  9
$DIMALTU
 70
     2
  9
$DIMALTTD
 70
     2
  9
$DIMTXSTY
  7
Standard
  9
$DIMAUNIT
 70
     0
  9
$DIMADEC
 70
     0
  9
$DIMALTRND
 40
0.0
  9
$DIMAZIN
 70
     0
  9
$DIMDSEP
 70
    46
  9
$DIMATFIT
 70
     3
  9
$DIMFRAC
 70
     0
  9
$DIMLDRBLK
  1

  9
$DIMLUNIT
 70
     2
  9
$DIMLWD
 70
    -2
  9
$DIMLWE
 70
    -2
  9
$DIMTMOVE
 70
     0
  9
$DIMFXL
 40
1.0
  9
$DIMFXLON
 70
     0
  9
$DIMJOGANG
 40
0.7853981633974483
  9
$DIMTFILL
 70
     0
  9
$DIMTFILLCLR
 70
     0
  9
$DIMARCSYM
 70
     0
  9
$DIMLTYPE
  6

  9
$DIMLTEX1
  6

  9
$DIMLTEX2
  6

  9
$DIMTXTDIRECTION
 70
     0
  9
$LUNITS
 70
     2
  9
$LUPREC
 70
     4
  9
$SKETCHINC
 40
0.1
  9
$FILLETRAD
 40
0.5
  9
$AUNITS
 70
     0
  9
$AUPREC
 70
     0
  9
$MENU
  1
.
  9
$ELEVATION
 40
0.0
  9
$PELEVATION
 40
0.0
  9
$THICKNESS
 40
0.0
  9
$LIMCHECK
 70
     0
  9
$CHAMFERA
 40
0.5
  9
$CHAMFERB
 40
0.5
  9
$CHAMFERC
 40
1.0
  9
$CHAMFERD
 40
0.0
  9
$SKPOLY
 70
     0
  9
$TDCREATE
 40
2451380.930432396
  9
$TDUCREATE
 40
2451380.805432396
  9
$TDUPDATE
 40
2451380.966180555
  9
$TDUUPDATE
 40
2451380.841180556
  9
$TDINDWG
 40
0.0075618403
  9
$TDUSRTIMER
 40
0.0075528009
  9
$USRTIMER
 70
     1
  9
$ANGBASE
 50
0.0
  9
$ANGDIR
 70
     0
  9
$PDMODE
 70
     0
  9
$PDSIZE
 40
0.0
  9
$PLINEWID
 40
0.0
  9
$SPLFRAME
 70
     0
  9
$SPLINETYPE
 70
     6
  9
$SPLINESEGS
 70
     8
  9
$HANDSEED
  5
187
  9
$SURFTAB1
 70
     6
  9
$SURFTAB2
 70
     6
  9
$SURFTYPE
 70
     6
  9
$SURFU
 70
     6
  9
$SURFV
 70
     6
  9
$UCSBASE
  2

  9
$UCSNAME
  2

  9
$UCSORG
 10
0.0
 20
0.0
 30
0.0
  9
$UCSXDIR
 10
1.0
 20
0.0
 30
0.0
  9
$UCSYDIR
 10
0.0
 20
1.0
 30
0.0
  9
$UCSORTHOREF
  2

  9
$UCSORTHOVIEW
 70
     0
  9
$UCSORGTOP
 10
0.0
 20
0.0
 30
0.0
  9
$UCSORGBOTTOM
 10
0.0
 20
0.0
 30
0.0
  9
$UCSORGLEFT
 10
0.0
 20
0.0
 30
0.0
  9
$UCSORGRIGHT
 10
0.0
 20
0.0
 30
0.0
  9
$UCSORGFRONT
 10
0.0
 20
0.0
 30
0.0
  9
$UCSORGBACK
 10
0.0
 20
0.0
 30
0.0
  9
$PUCSBASE
  2

  9
$PUCSNAME
  2

  9
$PUCSORG
 10
0.0
 20
0.0
 30
0.0
  9
$PUCSXDIR
 10
1.0
 20
0.0
 30
0.0
  9
$PUCSYDIR
 10
0.0
 20
1.0
 30
0.0
  9
$PUCSORTHOREF
  2

  9
$PUCSORTHOVIEW
 70
     0
  9
$PUCSORGTOP
 10
0.0
 20
0.0
 30
0.0
  9
$PUCSORGBOTTOM
 10
0.0
 20
0.0
 30
0.0
  9
$PUCSORGLEFT
 10
0.0
 20
0.0
 30
0.0
  9
$PUCSORGRIGHT
 10
0.0
 20
0.0
 30
0.0
  9
$PUCSORGFRONT
 10
0.0
 20
0.0
 30
0.0
  9
$PUCSORGBACK
 10
0.0
 20
0.0
 30
0.0
  9
$USERI1
 70
     0
  9
$USERI2
 70
     0
  9
$USERI3
 70
     0
  9
$USERI4
 70
     0
  9
$USERI5
 70
     0
  9
$USERR1
 40
0.0
  9
$USERR2
 40
0.0
  9
$USERR3
 40
0.0
  9
$USERR4
 40
0.0
  9
$USERR5
 40
0.0
  9
$WORLDVIEW
 70
     1
  9
$SHADEDGE
 70
     3
  9
$SHADEDIF
 70
    70
  9
$TILEMODE
 70
     1
  9
$MAXACTVP
 70
    64
  9
$PINSBASE
 10
0.0
 20
0.0
 30
0.0
  9
$PLIMCHECK
 70
     0
  9
$PEXTMIN
 10
1.000000000000000E+20
 20
1.000000000000000E+20
 30
1.000000000000000E+20
  9
$PEXTMAX
 10
-1.000000000000000E+20
 20
-1.000000000000000E+20
 30
-1.000000000000000E+20
  9
$PLIMMIN
 10
0.0
 20
0.0
  9
$PLIMMAX
 10
12.0
 20
9.0
  9
$UNITMODE
 70
     0
  9
$VISRETAIN
 70
     1
  9
$PLINEGEN
 70
     0
  9
$PSLTSCALE
 70
     1
  9
$TREEDEPTH
 70
  3020
  9
$CMLSTYLE
  2
Standard
  9
$CMLJUST
 70
     0
  9
$CMLSCALE
 40
1.0
  9
$PROXYGRAPHICS
 70
     1
  9
$MEASUREMENT
 70
     1
  9
$CELWEIGHT
370
    -1
  9
$ENDCAPS
280
     0
  9
$JOINSTYLE
280
     0
  9
$LWDISPLAY
290
     0
  9
$INSUNITS
 70
     4
  9
$HYPERLINKBASE
  1

  9
$STYLESHEET
  1

  9
$XEDIT
290
     1
  9
$CEPSNTYPE
380
     0
  9
$PSTYLEMODE
290
     1
  9
$FINGERPRINTGUID
  2
{12F50282-3ED8-11D3-A8B7-0060B0F84BC6}
  9
$VERSIONGUID
  2
{12F50293-3ED8-11D3-A8B7-0060B0F84BC6}
  9
$EXTNAMES
290
     1
  9
$PSVPSCALE
 40
0.0
  9
$OLESTARTUP
290
     0
  9
$SORTENTS
280
   127
  9
$INDEXCTL
280
     0
  9
$HIDETEXT
280
     0
  9
$XCLIPFRAME
280
     2
  9
$HALOGAP
280
     0
  9
$OBSCOLOR
 70
   257
  9
$OBSLTYPE
280
     0
  9
$INTERSECTIONDISPLAY
280
     0
  9
$INTERSECTIONCOLOR
 70
   257
  9
$DIMASSOC
280
     1
  9
$PROJECTNAME
  1

  9
$CAMERADISPLAY
290
     0
  9
$LENSLENGTH
 40
50.0
  9
$CAMERAHEIGHT
 40
0.0
  9
$STEPSPERSEC
 40
2.0
  9
$STEPSIZE
 40
6.0
  9
$3DDWFPREC
 40
2.0
  9
$PSOLWIDTH
 40
0.25
  9
$PSOLHEIGHT
 40
4.0
  9
$LOFTANG1
 40
1.570796326794896
  9
$LOFTANG2
 40
1.570796326794896
  9
$LOFTMAG1
 40
0.0
  9
$LOFTMAG2
 40
0.0
  9
$LOFTPARAM
 70
     7
  9
$LOFTNORMALS
280
     1
  9
$LATITUDE
 40
37.795
  9
$LONGITUDE
 40
-122.394
  9
$NORTHDIRECTION
 40
0.0
  9
$TIMEZONE
 70
 -8000
  9
$LIGHTGLYPHDISPLAY
280
     1
  9
$TILEMODELIGHTSYNCH
280
     1
  9
$CMATERIAL
347
AB
  9
$SOLIDHIST
280
     0
  9
$SHOWHIST
280
     1
  9
$DWFFRAME
280
     2
  9
$DGNFRAME
280
     0
  9
$REALWORLDSCALE
290
     1
  9
$INTERFERECOLOR
 62
     1
  9
$INTERFEREOBJVS
345
CD
  9
$INTERFEREVPVS
346
CA
  9
$CSHADOW
280
     0
  9
$SHADOWPLANELOCATION
 40
0.0
  0
ENDSEC
  0
SECTION
  2
CLASSES
  0
CLASS
  1
ACDBDICTIONARYWDFLT
  2
AcDbDictionaryWithDefault
  3
ObjectDBX Classes
 90
        0
 91
        1
280
     0
281
     0
  0
CLASS
  1
ACDBPLACEHOLDER
  2
AcDbPlaceHolder
  3
ObjectDBX Classes
 90
        0
 91
        2
280
     0
281
     0
  0
CLASS
  1
LAYOUT
  2
AcDbLayout
  3
ObjectDBX Classes
 90
        0
 91
        3
280
     0
281
     0
  0
CLASS
  1
MATERIAL
  2
AcDbMaterial
  3
ObjectDBX Classes
 90
     1153
 91
        3
280
     0
281
     0
  0
CLASS
  1
VISUALSTYLE
  2
AcDbVisualStyle
  3
ObjectDBX Classes
 90
     4095
 91
       24
280
     0
281
     0
  0
CLASS
  1
TABLESTYLE
  2
AcDbTableStyle
  3
ObjectDBX Classes
 90
     4095
 91
        1
280
     0
281
     0
  0
CLASS
  1
SCALE
  2
AcDbScale
  3
ObjectDBX Classes
 90
     1153
 91
       17
280
     0
281
     0
  0
CLASS
  1
MLEADERSTYLE
  2
AcDbMLeaderStyle
  3
ACDB_MLEADERSTYLE_CLASS
 90
     4095
 91
        1
280
     0
281
     0
  0
CLASS
  1
ACDBSECTIONVIEWSTYLE
  2
AcDbSectionViewStyle
  3
ObjectDBX Classes
 90
     1025
 91
        1
280
     0
281
     0
  0
CLASS
  1
ACDBDETAILVIEWSTYLE
  2
AcDbDetailViewStyle
  3
ObjectDBX Classes
 90
     1025
 91
        1
280
     0
281
     0
  0
CLASS
  1
MESH
  2
AcDbSubDMesh
  3
ObjectDBX Classes
 90
        0
 91
        1
280
     0
281
     1
  0
CLASS
  1
DICTIONARYVAR
  2
AcDbDictionaryVar
  3
ObjectDBX Classes
 90
        0
 91
        9
280
     0
281
     0
  0
CLASS
  1
CELLSTYLEMAP
  2
AcDbCellStyleMap
  3
ObjectDBX Classes
 90
     1152
 91
        1
280
     0
281
     0
  0
ENDSEC
  0
SECTION
  2
TABLES
  0
TABLE
  2
VPORT
  5
8
330
0
100
AcDbSymbolTable
 70
     1
  0
VPORT
  5
A8
330
8
100
AcDbSymbolTableRecord
100
AcDbViewportTableRecord
  2
*Active
 70
     0
 10
0.0
 20
0.0
 11
1.0
 21
1.0
 12
-0.0000404609781981
 22
-31.02241897583008
 13
0.0
 23
0.0
 14
0.5
 24
0.5
 15
0.5
 25
0.5
 16
-1.0
 26
-1.0
 36
1.0
 17
0.0
 27
0.0
 37
0.0
 40
1191.997275128458
 41
1.621633667953549
 42
50.0
 43
0.0
 44
0.0
 50
0.0
 51
0.0
 71
     0
 72
   100
 73
     1
 74
     3
 75
     0
 76
     0
 77
     0
 78
     0
281
     0
 65
     1
110
0.0
120
0.0
130
0.0
111
1.0
121
0.0
131
0.0
112
0.0
122
1.0
132
0.0
 79
     0
146
0.0
348
C9
 60
     3
 61
     5
292
     1
282
     1
141
0.0
142
0.0
 63
   250
421
  3355443
  0
ENDTAB
  0
TABLE
  2
LTYPE
  5
5
330
0
100
AcDbSymbolTable
 70
     1
  0
LTYPE
  5
14
330
5
100
AcDbSymbolTableRecord
100
AcDbLinetypeTableRecord
  2
ByBlock
 70
     0
  3

 72
    65
 73
     0
 40
0.0
  0
LTYPE
  5
15
330
5
100
AcDbSymbolTableRecord
100
AcDbLinetypeTableRecord
  2
ByLayer
 70
     0
  3

 72
    65
 73
     0
 40
0.0
  0
LTYPE
  5
16
330
5
100
AcDbSymbolTableRecord
100
AcDbLinetypeTableRecord
  2
Continuous
 70
     0
  3
Solid line
 72
    65
 73
     0
 40
0.0
  0
ENDTAB
  0
TABLE
  2
LAYER
  5
2
330
0
100
AcDbSymbolTable
 70
     3
  0
LAYER
  5
10
330
2
100
AcDbSymbolTableRecord
100
AcDbLayerTableRecord
  2
0
 70
     0
 62
     7
  6
Continuous
370
    -3
390
F
347
BB
  0
LAYER
  5
2B
330
2
100
AcDbSymbolTableRecord
100
AcDbLayerTableRecord
  2
ASHADE
 70
     4
 62
     7
  6
Continuous
370
    -3
390
2D
347
BB
  0
LAYER
  5
F8
330
2
100
AcDbSymbolTableRecord
100
AcDbLayerTableRecord
  2
OracDecor_cornice_mouldings
 70
     0
 62
   234
420
 11606872
  6
Continuous
370
    -3
390
F
347
BB
  0
ENDTAB
  0
TABLE
  2
STYLE
  5
3
330
0
100
AcDbSymbolTable
 70
     2
  0
STYLE
  5
11
330
3
100
AcDbSymbolTableRecord
100
AcDbTextStyleTableRecord
  2
Standard
 70
     0
 40
0.0
 41
1.0
 50
0.0
 71
     0
 42
0.2
  3
txt
  4

  0
STYLE
  5
2C
330
3
100
AcDbSymbolTableRecord
100
AcDbTextStyleTableRecord
  2
ASHADE
 70
     0
 40
0.2
 41
1.0
 50
0.0
 71
     0
 42
0.2
  3
simplex
  4

  0
ENDTAB
  0
TABLE
  2
VIEW
  5
6
330
0
100
AcDbSymbolTable
 70
     0
  0
ENDTAB
  0
TABLE
  2
UCS
  5
7
330
0
100
AcDbSymbolTable
 70
     0
  0
ENDTAB
  0
TABLE
  2
APPID
  5
9
330
0
100
AcDbSymbolTable
 70
     6
  0
APPID
  5
12
330
9
100
AcDbSymbolTableRecord
100
AcDbRegAppTableRecord
  2
ACAD
 70
     0
  0
APPID
  5
8F
330
9
100
AcDbSymbolTableRecord
100
AcDbRegAppTableRecord
  2
AVE_RENDER
 70
     0
  0
APPID
  5
90
330
9
100
AcDbSymbolTableRecord
100
AcDbRegAppTableRecord
  2
AVE_ENTITY_MATERIAL
 70
     0
  0
APPID
  5
9C
330
9
100
AcDbSymbolTableRecord
100
AcDbRegAppTableRecord
  2
AVE_FINISH
 70
     0
  0
APPID
  5
9D
330
9
100
AcDbSymbolTableRecord
100
AcDbRegAppTableRecord
  2
AVE_MATERIAL
 70
     0
  0
APPID
  5
9E
330
9
100
AcDbSymbolTableRecord
100
AcDbRegAppTableRecord
  2
AVE_GLOBAL
 70
     0
  0
ENDTAB
  0
TABLE
  2
DIMSTYLE
  5
A
330
0
100
AcDbSymbolTable
 70
     1
100
AcDbDimStyleTable
 71
     0
  0
DIMSTYLE
105
27
330
A
100
AcDbSymbolTableRecord
100
AcDbDimStyleTableRecord
  2
Standard
 70
     0
340
11
  0
ENDTAB
  0
TABLE
  2
BLOCK_RECORD
  5
1
330
0
100
AcDbSymbolTable
 70
     6
  0
BLOCK_RECORD
  5
1F
330
1
100
AcDbSymbolTableRecord
100
AcDbBlockTableRecord
  2
*Model_Space
340
22
 70
     0
280
     1
281
     0
  0
BLOCK_RECORD
  5
1B
330
1
100
AcDbSymbolTableRecord
100
AcDbBlockTableRecord
  2
*Paper_Space
340
1E
 70
     0
280
     1
281
     0
  0
BLOCK_RECORD
  5
23
330
1
100
AcDbSymbolTableRecord
100
AcDbBlockTableRecord
  2
*Paper_Space0
340
26
 70
     0
280
     1
281
     0
  0
BLOCK_RECORD
  5
2E
330
1
100
AcDbSymbolTableRecord
100
AcDbBlockTableRecord
  2
direct
340
0
 70
     0
280
     1
281
     0
  0
BLOCK_RECORD
  5
42
330
1
100
AcDbSymbolTableRecord
100
AcDbBlockTableRecord
  2
overhead
340
0
 70
     0
280
     1
281
     0
  0
BLOCK_RECORD
  5
5F
330
1
100
AcDbSymbolTableRecord
100
AcDbBlockTableRecord
  2
sh_spot
340
0
 70
     0
280
     1
281
     0
  0
BLOCK_RECORD
  5
91
330
1
100
AcDbSymbolTableRecord
100
AcDbBlockTableRecord
  2
AVE_RENDER
340
0
102
{BLKREFS
331
94
331
95
331
96
331
97
331
98
331
99
331
9A
331
9B
102
}
 70
     0
280
     1
281
     0
  0
BLOCK_RECORD
  5
9F
330
1
100
AcDbSymbolTableRecord
100
AcDbBlockTableRecord
  2
AVE_GLOBAL
340
0
102
{BLKREFS
331
A2
102
}
 70
     0
280
     1
281
     0
  0
ENDTAB
  0
ENDSEC
  0
SECTION
  2
BLOCKS
  0
BLOCK
  5
20
330
1F
100
AcDbEntity
  8
0
100
AcDbBlockBegin
  2
*Model_Space
 70
     0
 10
0.0
 20
0.0
 30
0.0
  3
*Model_Space
  1

  0
ENDBLK
  5
21
330
1F
100
AcDbEntity
  8
0
100
AcDbBlockEnd
  0
BLOCK
  5
1C
330
1B
100
AcDbEntity
 67
     1
  8
0
100
AcDbBlockBegin
  2
*Paper_Space
 70
     0
 10
0.0
 20
0.0
 30
0.0
  3
*Paper_Space
  1

  0
ENDBLK
  5
1D
330
1B
100
AcDbEntity
 67
     1
  8
0
100
AcDbBlockEnd
  0
BLOCK
  5
24
330
23
100
AcDbEntity
 67
     1
  8
0
100
AcDbBlockBegin
  2
*Paper_Space0
 70
     0
 10
0.0
 20
0.0
 30
0.0
  3
*Paper_Space0
  1

  0
ENDBLK
  5
25
330
23
100
AcDbEntity
 67
     1
  8
0
100
AcDbBlockEnd
  0
BLOCK
  5
40
330
2E
100
AcDbEntity
  8
0
100
AcDbBlockBegin
  2
direct
 70
     2
 10
0.0
 20
0.0
 30
0.0
  3
direct
  1

  0
ATTDEF
  5
2F
330
2E
100
AcDbEntity
  8
ASHADE
  6
Continuous
 62
     1
100
AcDbText
 10
0.0
 20
-0.1
 30
0.0
 40
0.2
  1

  7
ASHADE
 72
     1
 11
0.0
 21
-0.1
 31
0.0
100
AcDbAttributeDefinition
280
     0
  3
Light Name
  2
SNAME
 70
     0
280
     0
  0
ARC
  5
30
330
2E
100
AcDbEntity
  8
ASHADE
  6
Continuous
 62
     7
100
AcDbCircle
 10
0.0
 20
0.0
 30
0.0
 40
0.3
100
AcDbArc
 50
205.6792886194569
 51
334.3207113805431
  0
ARC
  5
31
330
2E
100
AcDbEntity
  8
ASHADE
  6
Continuous
 62
     7
100
AcDbCircle
 10
0.0
 20
0.0
 30
0.0
 40
0.3
100
AcDbArc
 50
25.67928861945685
 51
154.3207113805431
  0
LINE
  5
32
330
2E
100
AcDbEntity
  8
ASHADE
  6
Continuous
 62
     7
100
AcDbLine
 10
-0.21
 20
0.2142428528562855
 30
0.0
 11
-0.21
 21
0.5
 31
0.0
  0
LINE
  5
33
330
2E
100
AcDbEntity
  8
ASHADE
  6
Continuous
 62
     7
100
AcDbLine
 10
-0.11
 20
0.2791057147390572
 30
0.0
 11
-0.11
 21
0.5
 31
0.0
  0
LINE
  5
34
330
2E
100
AcDbEntity
  8
ASHADE
  6
Continuous
 62
     7
100
AcDbLine
 10
0.21
 20
0.2142428528562855
 30
0.0
 11
0.21
 21
0.5
 31
0.0
  0
ATTDEF
  5
35
330
2E
100
AcDbEntity
  8
ASHADE
  6
Continuous
 62
     7
100
AcDbText
 10
0.0
 20
0.25
 30
0.0
 40
0.01
  1

100
AcDbAttributeDefinition
280
     0
  3
Look-at Y
  2
LAY
 70
     1
280
     0
  0
ATTDEF
  5
36
330
2E
100
AcDbEntity
  8
ASHADE
  6
Continuous
 62
     7
100
AcDbText
 10
0.0
 20
0.22
 30
0.0
 40
0.01
  1
1
100
AcDbAttributeDefinition
280
     0
  3
Light Intensity
  2
INTENSITY
 70
     1
280
     0
  0
ATTDEF
  5
37
330
2E
100
AcDbEntity
  8
ASHADE
  6
Continuous
 62
     7
100
AcDbText
 10
0.0
 20
0.16
 30
0.0
 40
0.01
  1
-1
100
AcDbAttributeDefinition
280
     0
  3
*not used*
  2
BEAMD
 70
     1
280
     0
  0
ATTDEF
  5
38
330
2E
100
AcDbEntity
  8
ASHADE
  6
Continuous
 62
     7
100
AcDbText
 10
0.0
 20
0.175
 30
0.0
 40
0.01
  1
-1
100
AcDbAttributeDefinition
280
     0
  3
*not used*
  2
CONED
 70
     1
280
     0
  0
ATTDEF
  5
39
330
2E
100
AcDbEntity
  8
ASHADE
  6
Continuous
 62
     7
100
AcDbText
 10
0.0
 20
0.19
 30
0.0
 40
0.01
  1
0
100
AcDbAttributeDefinition
280
     0
  3
Depth Map Size
  2
CONEA
 70
     1
280
     0
  0
ATTDEF
  5
3A
330
2E
100
AcDbEntity
  8
ASHADE
  6
Continuous
 62
     7
100
AcDbText
 10
0.0
 20
0.2050000000000001
 30
0.0
 40
0.01
  1
1,1,1
100
AcDbAttributeDefinition
280
     0
  3
Light Color (RGB)
  2
COLOR
 70
     1
280
     0
  0
ATTDEF
  5
3B
330
2E
100
AcDbEntity
  8
ASHADE
  6
Continuous
 62
     7
100
AcDbText
 10
0.0
 20
0.235
 30
0.0
 40
0.01
  1

100
AcDbAttributeDefinition
280
     0
  3
Look-at Z
  2
LAZ
 70
     1
280
     0
  0
LINE
  5
3C
330
2E
100
AcDbEntity
  8
ASHADE
  6
Continuous
 62
     7
100
AcDbLine
 10
0.0
 20
0.3
 30
0.0
 11
0.0
 21
0.5
 31
0.0
  0
LINE
  5
3D
330
2E
100
AcDbEntity
  8
ASHADE
  6
Continuous
 62
     7
100
AcDbLine
 10
0.11
 20
0.2791057147390572
 30
0.0
 11
0.11
 21
0.5
 31
0.0
  0
ATTDEF
  5
3E
330
2E
100
AcDbEntity
  8
ASHADE
  6
Continuous
 62
     7
100
AcDbText
 10
0.0
 20
0.265
 30
0.0
 40
0.01
  1

100
AcDbAttributeDefinition
280
     0
  3
Look-at X
  2
LAX
 70
     1
280
     0
  0
ATTDEF
  5
3F
330
2E
100
AcDbEntity
  8
ASHADE
  6
Continuous
 62
     7
100
AcDbText
 10
0.0
 20
0.28
 30
0.0
 40
0.01
  1

100
AcDbAttributeDefinition
280
     0
  3

  2
GNAME
 70
     1
280
     0
  0
ENDBLK
  5
41
330
2E
100
AcDbEntity
  8
0
100
AcDbBlockEnd
  0
BLOCK
  5
5D
330
42
100
AcDbEntity
  8
0
100
AcDbBlockBegin
  2
overhead
 70
     2
 10
0.0
 20
0.0
 30
0.0
  3
overhead
  1

  0
ATTDEF
  5
43
330
42
100
AcDbEntity
  8
ASHADE
  6
Continuous
 62
     1
100
AcDbText
 10
0.0
 20
-0.1
 30
0.0
 40
0.2
  1

  7
ASHADE
 72
     1
 11
0.0
 21
-0.1
 31
0.0
100
AcDbAttributeDefinition
280
     0
  3
Light Name
  2
SNAME
 70
     0
280
     0
  0
ARC
  5
44
330
42
100
AcDbEntity
  8
ASHADE
  6
Continuous
 62
     7
100
AcDbCircle
 10
0.0
 20
0.0
 30
0.0
 40
0.3
100
AcDbArc
 50
205.6792886194569
 51
334.3207113805431
  0
LINE
  5
45
330
42
100
AcDbEntity
  8
ASHADE
  6
Continuous
 62
     7
100
AcDbLine
 10
-0.2041413561583015
 20
-0.2198324514393848
 30
0.0
 11
-0.2721884748777353
 21
-0.2931099352525131
 31
0.0
  0
LINE
  5
46
330
42
100
AcDbEntity
  8
ASHADE
  6
Continuous
 62
     7
100
AcDbLine
 10
-0.1096591641591904
 20
-0.2792398032442862
 30
0.0
 11
-0.1279356915190555
 21
-0.3257797704516673
 31
0.0
  0
LINE
  5
47
330
42
100
AcDbEntity
  8
ASHADE
  6
Continuous
 62
     7
100
AcDbLine
 10
0.0
 20
-0.2999999999999999
 30
0.0
 11
0.0
 21
-0.4
 31
0.0
  0
LINE
  5
48
330
42
100
AcDbEntity
  8
ASHADE
  6
Continuous
 62
     7
100
AcDbLine
 10
0.1096591641591904
 20
-0.2792398032442862
 30
0.0
 11
0.1279356915190555
 21
-0.3257797704516673
 31
0.0
  0
LINE
  5
49
330
42
100
AcDbEntity
  8
ASHADE
  6
Continuous
 62
     7
100
AcDbLine
 10
0.2041413561583015
 20
-0.2198324514393848
 30
0.0
 11
0.2721884748777353
 21
-0.2931099352525131
 31
0.0
  0
ARC
  5
4A
330
42
100
AcDbEntity
  8
ASHADE
  6
Continuous
 62
     7
100
AcDbCircle
 10
0.0
 20
0.0
 30
0.0
 40
0.3
100
AcDbArc
 50
25.67928861945685
 51
154.3207113805431
  0
LINE
  5
4B
330
42
100
AcDbEntity
  8
ASHADE
  6
Continuous
 62
     7
100
AcDbLine
 10
-0.2703701166919155
 20
0.13
 30
0.0
 11
-0.3154318028072347
 21
0.1516666666666666
 31
0.0
  0
LINE
  5
4C
330
42
100
AcDbEntity
  8
ASHADE
  6
Continuous
 62
     7
100
AcDbLine
 10
-0.2703701166919155
 20
-0.13
 30
0.0
 11
-0.3154318028072347
 21
-0.1516666666666666
 31
0.0
  0
LINE
  5
4D
330
42
100
AcDbEntity
  8
ASHADE
  6
Continuous
 62
     7
100
AcDbLine
 10
-0.2041413561583015
 20
0.2198324514393849
 30
0.0
 11
-0.2721884748777353
 21
0.2931099352525131
 31
0.0
  0
LINE
  5
4E
330
42
100
AcDbEntity
  8
ASHADE
  6
Continuous
 62
     7
100
AcDbLine
 10
-0.1096591641591904
 20
0.2792398032442862
 30
0.0
 11
-0.1279356915190555
 21
0.3257797704516674
 31
0.0
  0
LINE
  5
4F
330
42
100
AcDbEntity
  8
ASHADE
  6
Continuous
 62
     7
100
AcDbLine
 10
0.2703701166919155
 20
-0.13
 30
0.0
 11
0.3154318028072347
 21
-0.1516666666666666
 31
0.0
  0
LINE
  5
50
330
42
100
AcDbEntity
  8
ASHADE
  6
Continuous
 62
     7
100
AcDbLine
 10
0.2703701166919155
 20
0.13
 30
0.0
 11
0.3154318028072347
 21
0.1516666666666666
 31
0.0
  0
LINE
  5
51
330
42
100
AcDbEntity
  8
ASHADE
  6
Continuous
 62
     7
100
AcDbLine
 10
0.0
 20
0.3
 30
0.0
 11
0.0
 21
0.4
 31
0.0
  0
ATTDEF
  5
52
330
42
100
AcDbEntity
  8
ASHADE
  6
Continuous
 62
     7
100
AcDbText
 10
0.0
 20
0.22
 30
0.0
 40
0.01
  1
1
100
AcDbAttributeDefinition
280
     0
  3
Light Intensity
  2
INTENSITY
 70
     1
280
     0
  0
ATTDEF
  5
53
330
42
100
AcDbEntity
  8
ASHADE
  6
Continuous
 62
     7
100
AcDbText
 10
0.0
 20
0.16
 30
0.0
 40
0.01
  1
-1
100
AcDbAttributeDefinition
280
     0
  3
*not used*
  2
BEAMD
 70
     1
280
     0
  0
ATTDEF
  5
54
330
42
100
AcDbEntity
  8
ASHADE
  6
Continuous
 62
     7
100
AcDbText
 10
0.0
 20
0.175
 30
0.0
 40
0.01
  1
-1
100
AcDbAttributeDefinition
280
     0
  3
*not used*
  2
CONED
 70
     1
280
     0
  0
ATTDEF
  5
55
330
42
100
AcDbEntity
  8
ASHADE
  6
Continuous
 62
     7
100
AcDbText
 10
0.0
 20
0.19
 30
0.0
 40
0.01
  1
0
100
AcDbAttributeDefinition
280
     0
  3
Depth Map Size
  2
CONEA
 70
     1
280
     0
  0
ATTDEF
  5
56
330
42
100
AcDbEntity
  8
ASHADE
  6
Continuous
 62
     7
100
AcDbText
 10
0.0
 20
0.2050000000000001
 30
0.0
 40
0.01
  1
1,1,1
100
AcDbAttributeDefinition
280
     0
  3
Light Color (RGB)
  2
COLOR
 70
     1
280
     0
  0
ATTDEF
  5
57
330
42
100
AcDbEntity
  8
ASHADE
  6
Continuous
 62
     7
100
AcDbText
 10
0.0
 20
0.235
 30
0.0
 40
0.01
  1

100
AcDbAttributeDefinition
280
     0
  3
Look-at Z
  2
LAZ
 70
     1
280
     0
  0
ATTDEF
  5
58
330
42
100
AcDbEntity
  8
ASHADE
  6
Continuous
 62
     7
100
AcDbText
 10
0.0
 20
0.25
 30
0.0
 40
0.01
  1

100
AcDbAttributeDefinition
280
     0
  3
Look-at Y
  2
LAY
 70
     1
280
     0
  0
ATTDEF
  5
59
330
42
100
AcDbEntity
  8
ASHADE
  6
Continuous
 62
     7
100
AcDbText
 10
0.0
 20
0.265
 30
0.0
 40
0.01
  1

100
AcDbAttributeDefinition
280
     0
  3
Look-at X
  2
LAX
 70
     1
280
     0
  0
ATTDEF
  5
5A
330
42
100
AcDbEntity
  8
ASHADE
  6
Continuous
 62
     7
100
AcDbText
 10
0.0
 20
0.28
 30
0.0
 40
0.01
  1

100
AcDbAttributeDefinition
280
     0
  3

  2
GNAME
 70
     1
280
     0
  0
LINE
  5
5B
330
42
100
AcDbEntity
  8
ASHADE
  6
Continuous
 62
     7
100
AcDbLine
 10
0.1096591641591904
 20
0.2792398032442862
 30
0.0
 11
0.1279356915190555
 21
0.3257797704516674
 31
0.0
  0
LINE
  5
5C
330
42
100
AcDbEntity
  8
ASHADE
  6
Continuous
 62
     7
100
AcDbLine
 10
0.2041413561583015
 20
0.2198324514393849
 30
0.0
 11
0.2721884748777353
 21
0.2931099352525131
 31
0.0
  0
ENDBLK
  5
5E
330
42
100
AcDbEntity
  8
0
100
AcDbBlockEnd
  0
BLOCK
  5
85
330
5F
100
AcDbEntity
  8
0
100
AcDbBlockBegin
  2
sh_spot
 70
     2
 10
0.0
 20
0.0
 30
0.0
  3
sh_spot
  1

  0
LINE
  5
60
330
5F
100
AcDbEntity
  8
ASHADE
  6
Continuous
 62
     7
100
AcDbLine
 10
0.25
 20
0.26
 30
0.0
 11
-0.25
 21
0.26
 31
0.0
  0
LINE
  5
61
330
5F
100
AcDbEntity
  8
ASHADE
  6
Continuous
 62
     7
100
AcDbLine
 10
-0.25
 20
-0.3399999999999999
 30
0.0
 11
0.25
 21
-0.3399999999999999
 31
0.0
  0
ATTDEF
  5
62
330
5F
100
AcDbEntity
  8
ASHADE
  6
Continuous
 62
     1
100
AcDbText
 10
0.0
 20
-0.1
 30
0.0
 40
0.2
  1

  7
ASHADE
 72
     1
 11
0.0
 21
-0.1
 31
0.0
100
AcDbAttributeDefinition
280
     0
  3
Light Name
  2
SNAME
 70
     0
280
     0
  0
LINE
  5
63
330
5F
100
AcDbEntity
  8
ASHADE
  6
Continuous
 62
     7
100
AcDbLine
 10
-0.25
 20
-0.13
 30
0.0
 11
-0.25
 21
-0.3399999999999999
 31
0.0
  0
LINE
  5
64
330
5F
100
AcDbEntity
  8
ASHADE
  6
Continuous
 62
     7
100
AcDbLine
 10
-0.25
 20
-0.18
 30
0.0
 11
-0.29
 21
-0.18
 31
0.0
  0
LINE
  5
65
330
5F
100
AcDbEntity
  8
ASHADE
  6
Continuous
 62
     7
100
AcDbLine
 10
-0.29
 20
-0.22
 30
0.0
 11
-0.25
 21
-0.22
 31
0.0
  0
LINE
  5
66
330
5F
100
AcDbEntity
  8
ASHADE
  6
Continuous
 62
     7
100
AcDbLine
 10
-0.29
 20
-0.18
 30
0.0
 11
-0.29
 21
-0.22
 31
0.0
  0
LINE
  5
67
330
5F
100
AcDbEntity
  8
ASHADE
  6
Continuous
 62
     7
100
AcDbLine
 10
-0.1045454545454545
 20
0.26
 30
0.0
 11
-0.15
 21
0.46
 31
0.0
  0
LINE
  5
68
330
5F
100
AcDbEntity
  8
ASHADE
  6
Continuous
 62
     7
100
AcDbLine
 10
-0.21
 20
0.26
 30
0.0
 11
-0.301304347826087
 21
0.46
 31
0.0
  0
LINE
  5
69
330
5F
100
AcDbEntity
  8
ASHADE
  6
Continuous
 62
     7
100
AcDbLine
 10
-0.25
 20
0.26
 30
0.0
 11
-0.25
 21
0.13
 31
0.0
  0
LINE
  5
6A
330
5F
100
AcDbEntity
  8
ASHADE
  6
Continuous
 62
     7
100
AcDbLine
 10
-0.25
 20
0.22
 30
0.0
 11
-0.29
 21
0.22
 31
0.0
  0
LINE
  5
6B
330
5F
100
AcDbEntity
  8
ASHADE
  6
Continuous
 62
     7
100
AcDbLine
 10
-0.29
 20
0.1799999999999999
 30
0.0
 11
-0.25
 21
0.1799999999999999
 31
0.0
  0
LINE
  5
6C
330
5F
100
AcDbEntity
  8
ASHADE
  6
Continuous
 62
     7
100
AcDbLine
 10
-0.29
 20
0.22
 30
0.0
 11
-0.29
 21
0.1799999999999999
 31
0.0
  0
ATTDEF
  5
6D
330
5F
100
AcDbEntity
  8
ASHADE
  6
Continuous
 62
     7
100
AcDbText
 10
0.0
 20
-0.24
 30
0.0
 40
0.01
  1
0
100
AcDbAttributeDefinition
280
     0
  3
Depth Map Size
  2
ZSIZE
 70
     1
280
     0
  0
ATTDEF
  5
6E
330
5F
100
AcDbEntity
  8
ASHADE
  6
Continuous
 62
     7
100
AcDbText
 10
0.0
 20
-0.3300000000000001
 30
0.0
 40
0.01
  1
0,0,0
100
AcDbAttributeDefinition
280
     0
  3
Look-from XYZ
  2
LFXYZ
 70
     1
280
     0
  0
ATTDEF
  5
6F
330
5F
100
AcDbEntity
  8
ASHADE
  6
Continuous
 62
     7
100
AcDbText
 10
0.0
 20
-0.315
 30
0.0
 40
0.01
  1
0.0
100
AcDbAttributeDefinition
280
     0
  3
Beam Distribution
  2
BEAMDI
 70
     1
280
     0
  0
ATTDEF
  5
70
330
5F
100
AcDbEntity
  8
ASHADE
  6
Continuous
 62
     7
100
AcDbText
 10
0.0
 20
-0.3
 30
0.0
 40
0.01
  1
0.0
100
AcDbAttributeDefinition
280
     0
  3
Cone Delta
  2
CONEDE
 70
     1
280
     0
  0
ATTDEF
  5
71
330
5F
100
AcDbEntity
  8
ASHADE
  6
Continuous
 62
     7
100
AcDbText
 10
0.0
 20
-0.2850000000000001
 30
0.0
 40
0.01
  1
10.0
100
AcDbAttributeDefinition
280
     0
  3
Cone Angle
  2
CONEAN
 70
     1
280
     0
  0
ATTDEF
  5
72
330
5F
100
AcDbEntity
  8
ASHADE
  6
Continuous
 62
     7
100
AcDbText
 10
0.0
 20
-0.27
 30
0.0
 40
0.01
  1
-1
100
AcDbAttributeDefinition
280
     0
  3
*not used*
  2
BIASMAX
 70
     1
280
     0
  0
ATTDEF
  5
73
330
5F
100
AcDbEntity
  8
ASHADE
  6
Continuous
 62
     7
100
AcDbText
 10
0.0
 20
-0.255
 30
0.0
 40
0.01
  1
-1
100
AcDbAttributeDefinition
280
     0
  3
*not used*
  2
BIASMIN
 70
     1
280
     0
  0
ATTDEF
  5
74
330
5F
100
AcDbEntity
  8
ASHADE
  6
Continuous
 62
     7
100
AcDbText
 10
0.0
 20
-0.225
 30
0.0
 40
0.01
  1
1,1,1
100
AcDbAttributeDefinition
280
     0
  3
Light Color (RGB)
  2
COLOR
 70
     1
280
     0
  0
ATTDEF
  5
75
330
5F
100
AcDbEntity
  8
ASHADE
  6
Continuous
 62
     7
100
AcDbText
 10
0.0
 20
-0.21
 30
0.0
 40
0.01
  1
1
100
AcDbAttributeDefinition
280
     0
  3
Light Intensity
  2
INTENSITY
 70
     1
280
     0
  0
ATTDEF
  5
76
330
5F
100
AcDbEntity
  8
ASHADE
  6
Continuous
 62
     7
100
AcDbText
 10
0.0
 20
-0.15
 30
0.0
 40
0.01
  1

100
AcDbAttributeDefinition
280
     0
  3

  2
GNAME
 70
     1
280
     0
  0
ATTDEF
  5
77
330
5F
100
AcDbEntity
  8
ASHADE
  6
Continuous
 62
     7
100
AcDbText
 10
0.0
 20
-0.195
 30
0.0
 40
0.01
  1

100
AcDbAttributeDefinition
280
     0
  3
Look-at Z
  2
LAZ
 70
     1
280
     0
  0
ATTDEF
  5
78
330
5F
100
AcDbEntity
  8
ASHADE
  6
Continuous
 62
     7
100
AcDbText
 10
0.0
 20
-0.18
 30
0.0
 40
0.01
  1

100
AcDbAttributeDefinition
280
     0
  3
Look-at Y
  2
LAY
 70
     1
280
     0
  0
ATTDEF
  5
79
330
5F
100
AcDbEntity
  8
ASHADE
  6
Continuous
 62
     7
100
AcDbText
 10
0.0
 20
-0.165
 30
0.0
 40
0.01
  1

100
AcDbAttributeDefinition
280
     0
  3
Look-at X
  2
LAX
 70
     1
280
     0
  0
LINE
  5
7A
330
5F
100
AcDbEntity
  8
ASHADE
  6
Continuous
 62
     7
100
AcDbLine
 10
0.25
 20
-0.3399999999999999
 30
0.0
 11
0.25
 21
-0.13
 31
0.0
  0
LINE
  5
7B
330
5F
100
AcDbEntity
  8
ASHADE
  6
Continuous
 62
     7
100
AcDbLine
 10
0.25
 20
-0.18
 30
0.0
 11
0.29
 21
-0.18
 31
0.0
  0
LINE
  5
7C
330
5F
100
AcDbEntity
  8
ASHADE
  6
Continuous
 62
     7
100
AcDbLine
 10
0.29
 20
-0.22
 30
0.0
 11
0.25
 21
-0.22
 31
0.0
  0
LINE
  5
7D
330
5F
100
AcDbEntity
  8
ASHADE
  6
Continuous
 62
     7
100
AcDbLine
 10
0.29
 20
-0.18
 30
0.0
 11
0.29
 21
-0.22
 31
0.0
  0
LINE
  5
7E
330
5F
100
AcDbEntity
  8
ASHADE
  6
Continuous
 62
     7
100
AcDbLine
 10
0.21
 20
0.26
 30
0.0
 11
0.301304347826087
 21
0.46
 31
0.0
  0
LINE
  5
7F
330
5F
100
AcDbEntity
  8
ASHADE
  6
Continuous
 62
     7
100
AcDbLine
 10
0.1045454545454545
 20
0.26
 30
0.0
 11
0.15
 21
0.46
 31
0.0
  0
LINE
  5
80
330
5F
100
AcDbEntity
  8
ASHADE
  6
Continuous
 62
     7
100
AcDbLine
 10
0.0
 20
0.26
 30
0.0
 11
0.0
 21
0.46
 31
0.0
  0
LINE
  5
81
330
5F
100
AcDbEntity
  8
ASHADE
  6
Continuous
 62
     7
100
AcDbLine
 10
0.25
 20
0.13
 30
0.0
 11
0.25
 21
0.26
 31
0.0
  0
LINE
  5
82
330
5F
100
AcDbEntity
  8
ASHADE
  6
Continuous
 62
     7
100
AcDbLine
 10
0.25
 20
0.22
 30
0.0
 11
0.29
 21
0.22
 31
0.0
  0
LINE
  5
83
330
5F
100
AcDbEntity
  8
ASHADE
  6
Continuous
 62
     7
100
AcDbLine
 10
0.29
 20
0.1799999999999999
 30
0.0
 11
0.25
 21
0.1799999999999999
 31
0.0
  0
LINE
  5
84
330
5F
100
AcDbEntity
  8
ASHADE
  6
Continuous
 62
     7
100
AcDbLine
 10
0.29
 20
0.22
 30
0.0
 11
0.29
 21
0.1799999999999999
 31
0.0
  0
ENDBLK
  5
86
330
5F
100
AcDbEntity
  8
0
100
AcDbBlockEnd
  0
BLOCK
  5
92
330
91
100
AcDbEntity
  8
ASHADE
100
AcDbBlockBegin
  2
AVE_RENDER
 70
     0
 10
0.0
 20
0.0
 30
0.0
  3
AVE_RENDER
  1
AVE_RENDER
  0
ENDBLK
  5
93
330
91
100
AcDbEntity
  8
0
100
AcDbBlockEnd
  0
BLOCK
  5
A0
330
9F
100
AcDbEntity
  8
ASHADE
100
AcDbBlockBegin
  2
AVE_GLOBAL
 70
     0
 10
0.0
 20
0.0
 30
0.0
  3
AVE_GLOBAL
  1
AVE_GLOBAL
  0
ENDBLK
  5
A1
330
9F
100
AcDbEntity
  8
0
100
AcDbBlockEnd
  0
ENDSEC
  0
SECTION
  2
ENTITIES
  0
INSERT
  5
94
330
1F
100
AcDbEntity
  8
ASHADE
 62
     1
100
AcDbBlockReference
  2
AVE_RENDER
 10
0.0
 20
0.0
 30
0.0
1001
AVE_RENDER
1002
{
1070
     7
1000
Pref
1070
    30
1070
    20
1070
     1
1070
     0
1000

1070
    10
1070
     1
1070
    10
1040
1.0
1070
     1
1040
0.3
1040
0.7
1040
0.0
1040
10.0
1010
-1.0
1020
-1.0
1030
-1.0
1040
0.3
1070
    49
1070
     0
1070
     0
1010
1.0
1020
1.0
1030
1.0
1040
45.0
1070
     1
1070
     0
1000
WCS
1040
0.0
1070
     0
1040
10.0
1002
}
  0
INSERT
  5
95
330
1F
100
AcDbEntity
  8
ASHADE
 62
     3
100
AcDbBlockReference
  2
AVE_RENDER
 10
0.0
 20
0.0
 30
0.0
1001
AVE_RENDER
1002
{
1070
     0
1000
Full Opt
1070
     0
1070
     1
1070
     1
1070
     1
1070
     0
1070
     0
1070
     0
1070
     1
1070
     1
1040
0.0001
1040
0.0001
1002
}
  0
INSERT
  5
96
330
1F
100
AcDbEntity
  8
ASHADE
 62
     4
100
AcDbBlockReference
  2
AVE_RENDER
 10
0.0
 20
0.0
 30
0.0
1001
AVE_RENDER
1002
{
1070
     0
1000
Quick Opt
1070
     0
1070
     1
1070
     1
1070
     1
1070
     0
1070
     0
1070
     1
1002
}
  0
INSERT
  5
97
330
1F
100
AcDbEntity
  8
ASHADE
 62
     5
100
AcDbBlockReference
  2
AVE_RENDER
 10
0.0
 20
0.0
 30
0.0
1001
AVE_RENDER
1002
{
1070
     1
1000
Scanl Opt
1070
     2
1070
     0
1070
     2
1040
2.0
1040
4.0
1070
     0
1070
     1
1070
     0
1040
0.03
1002
}
  0
INSERT
  5
98
330
1F
100
AcDbEntity
  8
ASHADE
 62
     6
100
AcDbBlockReference
  2
AVE_RENDER
 10
0.0
 20
0.0
 30
0.0
1001
AVE_RENDER
1002
{
1070
     2
1000
Raytr Opt
1070
     2
1070
     0
1070
     2
1040
2.0
1040
4.0
1070
     0
1070
     1
1070
     1
1040
0.03
1070
     3
1040
0.03
1002
}
  0
INSERT
  5
99
330
1F
100
AcDbEntity
  8
ASHADE
 62
     7
100
AcDbBlockReference
  2
AVE_RENDER
 10
0.0
 20
0.0
 30
0.0
1001
AVE_RENDER
1002
{
1070
     0
1000
RFile Opt
1070
     1
1070
   640
1070
   480
1070
 10000
1070
     1
1070
     8
1070
     8
1070
     0
1070
     0
1070
     0
1070
     0
1070
     0
1070
     0
1070
     0
1002
}
  0
INSERT
  5
9A
330
1F
100
AcDbEntity
  8
ASHADE
 62
     8
100
AcDbBlockReference
  2
AVE_RENDER
 10
0.0
 20
0.0
 30
0.0
1001
AVE_RENDER
1002
{
1070
     0
1000
Fog Opt
1070
     0
1070
     0
1040
0.0
1040
1.0
1040
0.0
1040
1.0
1010
0.5
1020
0.5
1030
0.5
1002
}
  0
INSERT
  5
9B
330
1F
100
AcDbEntity
  8
ASHADE
 62
     9
100
AcDbBlockReference
  2
AVE_RENDER
 10
0.0
 20
0.0
 30
0.0
1001
AVE_RENDER
1002
{
1070
     0
1000
BG Opt
1070
     0
1070
     1
1010
0.0
1020
0.0
1030
0.0
1010
1.0
1020
0.0
1030
0.0
1010
0.0
1020
1.0
1030
0.0
1010
0.0
1020
0.0
1030
1.0
1040
0.5
1040
0.33
1040
0.0
1000

1070
     1
1000

1070
     1
1070
     1
1040
1.0
1040
1.0
1040
0.0
1040
0.0
1070
     0
1002
}
  0
INSERT
  5
A2
330
1F
100
AcDbEntity
  8
ASHADE
 62
     1
100
AcDbBlockReference
  2
AVE_GLOBAL
 10
0.0
 20
0.0
 30
0.0
1001
AVE_MATERIAL
1002
{
1000
*GLOBAL*
1000
2
1000
Global finish.
1002
{
1002
}
1002
{
1070
    63
1002
{
1002
{
1010
-1.0
1020
-1.0
1030
-1.0
1002
}
1040
0.1000000014901161
1000

1040
0.0
1002
{
1002
}
1040
0.0
1002
{
1002
}
1040
0.0
1002
}
1002
{
1002
{
1010
-1.0
1020
-1.0
1030
-1.0
1002
}
1040
0.6999999880790711
1000

1040
0.0
1002
{
1002
}
1040
0.0
1002
{
1002
}
1040
0.0
1002
}
1002
{
1002
{
1010
-1.0
1020
-1.0
1030
-1.0
1002
}
1040
0.2000000029802322
1000

1040
0.0
1002
{
1002
}
1040
0.0
1002
{
1002
}
1040
0.0
1002
}
1002
{
1070
     0
1002
{
1070
     1
1002
{
1040
1.0
1040
1.0
1000

1040
0.0
1002
{
1002
}
1040
0.0
1002
{
1002
}
1040
0.0
1002
}
1002
}
1040
1.0
1040
0.0
1040
0.0
1002
}
1002
{
1040
1.0
1040
1.0
1000

1040
0.0
1002
{
1002
}
1040
0.0
1002
{
1002
}
1040
0.0
1002
}
1002
{
1040
0.5
1040
1.0
1000

1040
0.0
1002
{
1002
}
1040
0.0
1002
{
1002
}
1040
0.0
1002
}
1002
{
1070
     0
1040
0.0
1002
{
1002
}
1040
1.0
1002
{
1002
}
1040
0.0
1002
}
1002
{
1040
0.0
1002
{
1002
{
1010
0.0
1020
0.0
1030
0.0
1002
}
1040
1.0
1000

1040
0.0
1002
{
1002
}
1040
0.0
1002
{
1002
}
1040
0.0
1002
}
1002
}
1002
{
1002
{
1070
     1
1002
{
1040
0.0
1040
1.0
1000

1040
0.0
1002
{
1002
}
1040
0.0
1002
{
1002
}
1040
0.0
1002
}
1002
}
1040
0.0
1002
{
1002
}
1010
1.0
1020
0.0
1030
0.0
1010
0.0
1020
1.0
1030
0.0
1010
0.0
1020
0.0
1030
1.0
1070
     0
1002
}
1002
{
1002
{
1040
1.0
1040
1.0
1002
{
1070
     1
1002
{
1040
1.0
1040
1.0
1000

1040
0.0
1002
{
1002
}
1040
0.0
1002
{
1002
}
1040
0.0
1002
}
1002
}
1002
}
1070
     0
1040
0.0
1002
{
1002
}
1002
}
1002
{
1002
}
1002
}
1002
{
1071
        3
1070
     3
1070
     0
1002
{
1070
     2
1070
     0
1070
     0
1040
0.0
1002
}
1070
     0
1070
     2
1002
{
1002
}
1002
}
1002
{
1040
8030.0
1040
190.3000030517578
1040
0.3050000071525574
1040
228.0
1040
545.0
1040
14.0
1040
17.39999961853027
1040
0.4560000002384186
1002
}
1002
}
  0
MESH
  5
F9
330
1F
100
AcDbEntity
  8
OracDecor_cornice_mouldings
 62
    61
420
 14083225
160
             21752
310
F85400005C0200000C00000013000000020000003C0000000600000002000000000000E0FF3F8F40000000C073005DC00000000012C923C0000000E0FF3F8F400000008086005DC000000000006863BF0C000000130000000A0000003C00000006000000020000000000000000408FC00000000086005DC000000000006863
310
BF000000E0FF3F8F400000008086005DC000000000006863BF0C00000013000000120000003C00000006000000020000000000000000408FC00000000073005DC00000008011C923C00000000000408FC00000000086005DC000000000006863BF0C000000130000001A0000003C0000000600000002000000000000000040
310
8FC00000000073005DC00000008011C923C0000000E0FF3F8F40000000C073005DC00000000012C923C00C00000013000000220000003C0000000600000002000000000000E0FF3F8F400000008086005DC000000000006863BF000000E0FF3F8F400000004067F557C0000000000000E0BE0C000000130000002A0000003C
310
00000006000000020000000000000000408FC00000008066F557C0000000000000E0BE000000E0FF3F8F400000004067F557C0000000000000E0BE0C00000013000000320000003C00000006000000020000000000000000408FC00000000086005DC000000000006863BF0000000000408FC00000008066F557C000000000
310
0000E0BE0C000000130000003A0000003C0000000600000002000000000000E0FF3F8F400000004067F557C0000000000000E0BE000000E0FF3F8F400000004095DC57C0000000001A9608C00C00000013000000420000003C00000006000000020000000000000000408FC00000008094DC57C0000000001C9608C0000000
310
E0FF3F8F400000004095DC57C0000000001A9608C00C000000130000004A0000003C00000006000000020000000000000000408FC00000008066F557C0000000000000E0BE0000000000408FC00000008094DC57C0000000001C9608C00C00000013000000520000003C0000000600000002000000000000E0FF3F8F400000
310
004095DC57C0000000001A9608C0000000E0FF3F8F40000000C0489457C0000000007E3316C00C000000130000005A0000003C00000006000000020000000000000000408FC0000000E0479457C0000000007E3316C0000000E0FF3F8F40000000C0489457C0000000007E3316C00C00000013000000620000003C00000006
310
000000020000000000000000408FC00000008094DC57C0000000001C9608C00000000000408FC0000000E0479457C0000000007E3316C00C000000130000006A0000003C0000000600000002000000000000E0FF3F8F40000000C0489457C0000000007E3316C0000000E0FF3F8F4000000020B12257C00000000058561EC0
310
0C00000013000000720000003C00000006000000020000000000000000408FC000000060B02257C0000000005A561EC0000000E0FF3F8F4000000020B12257C00000000058561EC00C000000130000007A0000003C00000006000000020000000000000000408FC0000000E0479457C0000000007E3316C00000000000408F
310
C000000060B02257C0000000005A561EC00C00000013000000820000003C0000000600000002000000000000E0FF3F8F4000000020B12257C00000000058561EC0000000E0FF3F8F40000000C0799156C000000080280122C00C000000130000008A0000003C00000006000000020000000000000000408FC0000000007991
310
56C000000080280122C0000000E0FF3F8F40000000C0799156C000000080280122C00C00000013000000920000003C00000006000000020000000000000000408FC000000060B02257C0000000005A561EC00000000000408FC000000000799156C000000080280122C00C000000130000009A0000003C0000000600000002
310
000000000000E0FF3F8F40000000C0799156C000000080280122C0000000E0FF3F8F40000000800EED55C000000080915D23C00C00000013000000A20000003C00000006000000020000000000000000408FC0000000C00DED55C000000080915D23C0000000E0FF3F8F40000000800EED55C000000080915D23C00C000000
310
13000000AA0000003C00000006000000020000000000000000408FC0000000C00DED55C000000080915D23C00000000000408FC000000000799156C000000080280122C00C00000013000000B20000003C0000000600000002000000000000E0FF3F8F40000000800EED55C000000080915D23C0000000E0FF3F8F40000000
310
C07BC547C000000080A2312CC00C00000013000000BA0000003C00000006000000020000000000000000408FC0000000607AC547C000000080A2312CC0000000E0FF3F8F40000000C07BC547C000000080A2312CC00C00000013000000C20000003C00000006000000020000000000000000408FC0000000607AC547C00000
310
0080A2312CC00000000000408FC0000000C00DED55C000000080915D23C00C00000013000000CA0000003C0000000600000002000000000000E0FF3F8F40000000C07BC547C000000080A2312CC0000000E0FF3F8F400000000007F344C0000000400A362EC00C00000013000000D20000003C000000060000000200000000
310
00000000408FC00000008005F344C0000000800A362EC0000000E0FF3F8F400000000007F344C0000000400A362EC00C00000013000000DA0000003C00000006000000020000000000000000408FC0000000607AC547C000000080A2312CC00000000000408FC00000008005F344C0000000800A362EC00C00000013000000
310
E20000003C0000000600000002000000000000E0FF3F8F400000000007F344C0000000400A362EC0000000E0FF3F8F40000000603A6C44C000000000D2502EC00C00000013000000EA0000003C00000006000000020000000000000000408FC000000000396C44C000000040D2502EC0000000E0FF3F8F40000000603A6C44
310
C000000000D2502EC00C00000013000000F20000003C00000006000000020000000000000000408FC00000008005F344C0000000800A362EC00000000000408FC000000000396C44C000000040D2502EC00C00000013000000FA0000003C0000000600000002000000000000E0FF3F8F40000000603A6C44C000000000D250
310
2EC0000000E0FF3F8F40000000A062EB43C0000000400AAB2DC00C00000013000000020100003C00000006000000020000000000000000408FC00000004061EB43C0000000C00AAB2DC0000000E0FF3F8F40000000A062EB43C0000000400AAB2DC00C000000130000000A0100003C00000006000000020000000000000000
310
408FC000000000396C44C000000040D2502EC00000000000408FC00000004061EB43C0000000C00AAB2DC00C00000013000000120100003C0000000600000002000000000000E0FF3F8F40000000A062EB43C0000000400AAB2DC0000000E0FF3F8F40000000409E7943C0000000C0873B2CC00C000000130000001A010000
310
3C00000006000000020000000000000000408FC0000000C09C7943C000000000883B2CC0000000E0FF3F8F40000000409E7943C0000000C0873B2CC00C00000013000000220100003C00000006000000020000000000000000408FC0000000C09C7943C000000000883B2CC00000000000408FC00000004061EB43C0000000
310
C00AAB2DC00C000000130000002A0100003C0000000600000002000000000000E0FF3F8F40000000409E7943C0000000C0873B2CC0000000E0FF3F8F40000000A06D5A43C0000000805DD92BC00C00000013000000320100003C00000006000000020000000000000000408FC0000000406C5A43C0000000C05DD92BC00000
310
00E0FF3F8F40000000A06D5A43C0000000805DD92BC00C000000130000003A0100003C00000006000000020000000000000000408FC0000000C09C7943C000000000883B2CC00000000000408FC0000000406C5A43C0000000C05DD92BC00C00000013000000420100003C0000000600000002000000000000E0FF3F8F4000
310
0000A06D5A43C0000000805DD92BC0000000E0FF3F8F4000000000E93C43C0000000C084C92BC00C000000130000004A0100003C00000006000000020000000000000000408FC000000080E73C43C00000000085C92BC0000000E0FF3F8F4000000000E93C43C0000000C084C92BC00C00000013000000520100003C000000
310
06000000020000000000000000408FC0000000406C5A43C0000000C05DD92BC00000000000408FC000000080E73C43C00000000085C92BC00C000000130000005A0100003C0000000600000002000000000000E0FF3F8F4000000000E93C43C0000000C084C92BC0000000E0FF3F8F40000000E0CB2043C0000000400FF22B
310
C00C00000013000000620100003C00000006000000020000000000000000408FC000000080CA2043C0000000800FF22BC0000000E0FF3F8F40000000E0CB2043C0000000400FF22BC00C000000130000006A0100003C00000006000000020000000000000000408FC000000080CA2043C0000000800FF22BC0000000000040
310
8FC000000080E73C43C00000000085C92BC00C00000013000000720100003C0000000600000002000000000000E0FF3F8F40000000E0CB2043C0000000400FF22BC0000000E0FF3F8F400000004084DF30C00000008025153CC00C000000130000007A0100003C00000006000000020000000000000000408FC00000006081
310
DF30C0000000C025153CC0000000E0FF3F8F400000004084DF30C00000008025153CC00C00000013000000820100003C00000006000000020000000000000000408FC000000080CA2043C0000000800FF22BC00000000000408FC00000006081DF30C0000000C025153CC00C000000130000008A0100003C00000006000000
310
02000000000000E0FF3F8F400000004084DF30C00000008025153CC0000000E0FF3F8F400000006017B630C00000006050413CC00C00000013000000920100003C00000006000000020000000000000000408FC00000008014B630C00000008050413CC0000000E0FF3F8F400000006017B630C00000006050413CC00C0000
310
00130000009A0100003C00000006000000020000000000000000408FC00000006081DF30C0000000C025153CC00000000000408FC00000008014B630C00000008050413CC00C00000013000000A20100003C0000000600000002000000000000E0FF3F8F400000006017B630C00000006050413CC0000000E0FF3F8F400000
310
008047A430C0000000A0F17B3CC00C00000013000000AA0100003C00000006000000020000000000000000408FC0000000C044A430C0000000C0F17B3CC0000000E0FF3F8F400000008047A430C0000000A0F17B3CC00C00000013000000B20100003C00000006000000020000000000000000408FC00000008014B630C000
310
00008050413CC00000000000408FC0000000C044A430C0000000C0F17B3CC00C00000013000000BA0100003C0000000600000002000000000000E0FF3F8F40000000A0A8B830C0000000C068D33CC0000000E0FF3F8F400000008047A430C0000000A0F17B3CC00C00000013000000C20100003C0000000600000002000000
310
0000000000408FC0000000C0A5B830C0000000A068D33CC0000000E0FF3F8F40000000A0A8B830C0000000C068D33CC00C00000013000000CA0100003C00000006000000020000000000000000408FC0000000C0A5B830C0000000A068D33CC00000000000408FC0000000C044A430C0000000C0F17B3CC00C000000130000
310
00D20100003C0000000600000002000000000000E0FF3F8F4000000040C9FD30C00000008075F63DC0000000E0FF3F8F40000000A0A8B830C0000000C068D33CC00C00000013000000DA0100003C00000006000000020000000000000000408FC000000080C6FD30C00000008075F63DC0000000E0FF3F8F4000000040C9FD
310
30C00000008075F63DC00C00000013000000E20100003C00000006000000020000000000000000408FC0000000C0A5B830C0000000A068D33CC00000000000408FC000000080C6FD30C00000008075F63DC00C00000013000000EA0100003C0000000600000002000000000000E0FF3F8F40000000C03ADF30C0000000C0A5
310
033FC0000000E0FF3F8F4000000040C9FD30C00000008075F63DC00C00000013000000F20100003C00000006000000020000000000000000408FC00000000038DF30C0000000C0A5033FC0000000E0FF3F8F40000000C03ADF30C0000000C0A5033FC00C00000013000000FA0100003C000000060000000200000000000000
310
00408FC000000080C6FD30C00000008075F63DC00000000000408FC00000000038DF30C0000000C0A5033FC00C00000013000000020200003C0000000600000002000000000000E0FF3F8F40000000C03ADF30C0000000C0A5033FC0000000E0FF3F8F40000000804C6B30C000000080D5F63FC00C000000130000000A0200
310
003C00000006000000020000000000000000408FC0000000C0496B30C000000080D5F63FC0000000E0FF3F8F40000000804C6B30C000000080D5F63FC00C00000013000000120200003C00000006000000020000000000000000408FC0000000C0496B30C000000080D5F63FC00000000000408FC00000000038DF30C00000
310
00C0A5033FC00C000000130000001A0200003C0000000600000002000000000000E0FF3F8F40000000804C6B30C000000080D5F63FC0000000E0FF3F8F4000000000644B07C00000002038DC4AC00C00000013000000220200003C00000006000000020000000000000000408FC0000000004E4B07C00000004038DC4AC000
310
0000E0FF3F8F4000000000644B07C00000002038DC4AC00C000000130000002A0200003C00000006000000020000000000000000408FC0000000004E4B07C00000004038DC4AC00000000000408FC0000000C0496B30C000000080D5F63FC00C00000013000000320200003C0000000600000002000000000000E0FF3F8F40
310
00000000644B07C00000002038DC4AC0000000E0FF3F8F40000000002EE401C000000000173F4BC00C000000130000003A0200003C00000006000000020000000000000000408FC00000000016E401C000000020173F4BC0000000E0FF3F8F40000000002EE401C000000000173F4BC00C00000013000000420200003C0000
310
0006000000020000000000000000408FC0000000004E4B07C00000004038DC4AC00000000000408FC00000000016E401C000000020173F4BC00C000000130000004A0200003C0000000600000002000000000000E0FF3F8F40000000002EE401C000000000173F4BC0000000E0FF3F8F400000000088A4F5BF000000402A7F
310
4BC00C00000013000000520200003C00000006000000020000000000000000408FC0000000005CA4F5BF000000402A7F4BC0000000E0FF3F8F400000000088A4F5BF000000402A7F4BC00C000000130000005A0200003C00000006000000020000000000000000408FC00000000016E401C000000020173F4BC00000000000
310
408FC0000000005CA4F5BF000000402A7F4BC00C00000013000000620200003C0000000600000002000000000000E0FF3F8F400000000088A4F5BF000000402A7F4BC0000000E0FF3F8F400000000000F863BF0000002054954BC00C000000130000006A0200003C00000006000000020000000000000000408FC000000000
310
00A063BF0000000054954BC0000000E0FF3F8F400000000000F863BF0000002054954BC00C00000013000000720200003C00000006000000020000000000000000408FC00000000000A063BF0000000054954BC00000000000408FC0000000005CA4F5BF000000402A7F4BC00C000000130000007A0200003C000000060000
310
0002000000000000E0FF3F8F400000000000F863BF0000002054954BC0000000E0FF3F8F4000000000006057BF000000A07DEB4FC00C00000013000000820200003C00000006000000020000000000000000408FC00000000000B056BF000000A07DEB4FC0000000E0FF3F8F4000000000006057BF000000A07DEB4FC00C00
310
0000130000008A0200003C00000006000000020000000000000000408FC00000000000A063BF0000000054954BC00000000000408FC00000000000B056BF000000A07DEB4FC00C00000013000000920200003C0000000600000002000000000000E0FF3F8F4000000000006057BF000000A07DEB4FC0000000E0FF3F8F4000
310
00000010E0F0BF00000020FF6950C00C000000130000009A0200003C00000006000000020000000000000000408FC000000000E8DFF0BF00000020FF6950C0000000E0FF3F8F400000000010E0F0BF00000020FF6950C00C00000013000000A20200003C00000006000000020000000000000000408FC000000000E8DFF0BF
310
00000020FF6950C00000000000408FC00000000000B056BF000000A07DEB4FC00C00000013000000AA0200003C0000000600000002000000000000E0FF3F8F400000000010E0F0BF00000020FF6950C0000000E0FF3F8F4000000000E88FF4BF00000060E19250C00C00000013000000B20200003C00000006000000020000
310
000000000000408FC000000000B88FF4BF00000080E19250C0000000E0FF3F8F4000000000E88FF4BF00000060E19250C00C00000013000000BA0200003C00000006000000020000000000000000408FC000000000B88FF4BF00000080E19250C00000000000408FC000000000E8DFF0BF00000020FF6950C00C0000001300
310
0000C20200003C0000000600000002000000000000E0FF3F8F4000000000E88FF4BF00000060E19250C0000000E0FF3F8F40000000009476F4BF000000607FBE50C00C00000013000000CA0200003C00000006000000020000000000000000408FC0000000006C76F4BF000000607FBE50C0000000E0FF3F8F400000000094
310
76F4BF000000607FBE50C00C00000013000000D20200003C00000006000000020000000000000000408FC0000000006C76F4BF000000607FBE50C00000000000408FC000000000B88FF4BF00000080E19250C00C00000013000000DA0200003C0000000600000002000000000000E0FF3F8F40000000009476F4BF00000060
310
7FBE50C0000000E0FF3F8F4000000000D497F0BF0000002015E750C00C00000013000000E20200003C00000006000000020000000000000000408FC000000000A497F0BF0000002015E750C0000000E0FF3F8F4000000000D497F0BF0000002015E750C00C00000013000000EA0200003C0000000600000002000000000000
310
0000408FC000000000A497F0BF0000002015E750C00000000000408FC0000000006C76F4BF000000607FBE50C00C00000013000000F20200003C0000000600000002000000000000E0FF3F8F4000000000D497F0BF0000002015E750C0000000E0FF3F8F4000000000F8ECE2BF00000080450751C00C00000013000000FA02
310
00003C00000006000000020000000000000000408FC000000000A0ECE2BF00000080450751C0000000E0FF3F8F4000000000F8ECE2BF00000080450751C00C00000013000000020300003C00000006000000020000000000000000408FC000000000A0ECE2BF00000080450751C00000000000408FC000000000A497F0BF00
310
00002015E750C00C000000130000000A0300003C0000000600000002000000000000E0FF3F8F400000000000604DBF00000020CE1A51C0000000E0FF3F8F4000000000F8ECE2BF00000080450751C00C00000013000000120300003C00000006000000020000000000000000408FC00000000000004CBF00000020CE1A51C0
310
000000E0FF3F8F400000000000604DBF00000020CE1A51C00C000000130000001A0300003C00000006000000020000000000000000408FC00000000000004CBF00000020CE1A51C00000000000408FC000000000A0ECE2BF00000080450751C00C00000013000000220300003C0000000600000002000000000000E0FF3F8F
310
40000000000000F4BE0000006042FF52C0000000E0FF3F8F400000000000604DBF00000020CE1A51C00C000000130000002A0300003C00000006000000020000000000000000408FC0000000000000FC3E0000008042FF52C0000000E0FF3F8F40000000000000F4BE0000006042FF52C00C00000013000000320300003C00
310
000006000000020000000000000000408FC0000000000000FC3E0000008042FF52C00000000000408FC00000000000004CBF00000020CE1A51C00C000000130000003A0300003C0000000600000002000000000000E0FF3F8F40000000000000F4BE0000006042FF52C0000000E0FF3F8F4000000000F63016C0000000004D
310
FF52C00C00000013000000420300003C00000006000000020000000000000000408FC000000000EB3016C0000000004DFF52C0000000E0FF3F8F4000000000F63016C0000000004DFF52C00C000000130000004A0300003C00000006000000020000000000000000408FC0000000000000FC3E0000008042FF52C000000000
310
00408FC000000000EB3016C0000000004DFF52C00C00000013000000520300003C0000000600000002000000000000E0FF3F8F4000000000F63016C0000000004DFF52C0000000E0FF3F8F40000000007F3E16C0000000004DDE52C00C000000130000005A0300003C00000006000000020000000000000000408FC0000000
310
00743E16C0000000004DDE52C0000000E0FF3F8F40000000007F3E16C0000000004DDE52C00C00000013000000620300003C00000006000000020000000000000000408FC000000000EB3016C0000000004DFF52C00000000000408FC000000000743E16C0000000004DDE52C00C000000130000006A0300003C0000000600
310
000002000000000000E0FF3F8F40000000007F3E16C0000000004DDE52C0000000E0FF3F8F4000000000A97316C0000000408BAF52C00C00000013000000720300003C00000006000000020000000000000000408FC0000000009D7316C0000000408BAF52C0000000E0FF3F8F4000000000A97316C0000000408BAF52C00C
310
000000130000007A0300003C00000006000000020000000000000000408FC000000000743E16C0000000004DDE52C00000000000408FC0000000009D7316C0000000408BAF52C00C00000013000000820300003C0000000600000002000000000000E0FF3F8F4000000000A97316C0000000408BAF52C0000000E0FF3F8F40
310
000000008CCB16C0000000804C8852C00C000000130000008A0300003C00000006000000020000000000000000408FC00000000081CB16C0000000804C8852C0000000E0FF3F8F40000000008CCB16C0000000804C8852C00C00000013000000920300003C00000006000000020000000000000000408FC0000000009D7316
310
C0000000408BAF52C00000000000408FC00000000081CB16C0000000804C8852C00C000000130000009A0300003C0000000600000002000000000000E0FF3F8F4000000000D65717C000000080C36052C0000000E0FF3F8F40000000008CCB16C0000000804C8852C00C00000013000000A20300003C000000060000000200
310
00000000000000408FC000000000CB5717C0000000A0C36052C0000000E0FF3F8F4000000000D65717C000000080C36052C00C00000013000000AA0300003C00000006000000020000000000000000408FC00000000081CB16C0000000804C8852C00000000000408FC000000000CB5717C0000000A0C36052C00C00000013
310
000000B20300003C0000000600000002000000000000E0FF3F8F40000000001D2118C000000000D23852C0000000E0FF3F8F4000000000D65717C000000080C36052C00C00000013000000BA0300003C00000006000000020000000000000000408FC000000000122118C000000000D23852C0000000E0FF3F8F4000000000
310
1D2118C000000000D23852C00C00000013000000C20300003C00000006000000020000000000000000408FC000000000CB5717C0000000A0C36052C00000000000408FC000000000122118C000000000D23852C00C00000013000000CA0300003C0000000600000002000000000000E0FF3F8F40000000001D2118C0000000
310
00D23852C0000000E0FF3F8F4000000000590819C0000000605F1752C00C00000013000000D20300003C00000006000000020000000000000000408FC0000000004E0819C0000000605F1752C0000000E0FF3F8F4000000000590819C0000000605F1752C00C00000013000000DA0300003C00000006000000020000000000
310
000000408FC000000000122118C000000000D23852C00000000000408FC0000000004E0819C0000000605F1752C00C00000013000000E20300003C0000000600000002000000000000E0FF3F8F400000000057111AC00000000010FA51C0000000E0FF3F8F4000000000590819C0000000605F1752C00C00000013000000EA
310
0300003C00000006000000020000000000000000408FC0000000004B111AC00000000010FA51C0000000E0FF3F8F400000000057111AC00000000010FA51C00C00000013000000F20300003C00000006000000020000000000000000408FC0000000004E0819C0000000605F1752C00000000000408FC0000000004B111AC0
310
0000000010FA51C00C00000013000000FA0300003C0000000600000002000000000000E0FF3F8F400000000054491BC0000000A01EDF51C0000000E0FF3F8F400000000057111AC00000000010FA51C00C00000013000000020400003C00000006000000020000000000000000408FC00000000049491BC0000000A01EDF51
310
C0000000E0FF3F8F400000000054491BC0000000A01EDF51C00C000000130000000A0400003C00000006000000020000000000000000408FC0000000004B111AC00000000010FA51C00000000000408FC00000000049491BC0000000A01EDF51C00C00000013000000120400003C0000000600000002000000000000E0FF3F
310
8F400000000054491BC0000000A01EDF51C0000000E0FF3F8F400000000070B21CC000000000ABC651C00C000000130000001A0400003C00000006000000020000000000000000408FC00000000064B21CC000000000ABC651C0000000E0FF3F8F400000000070B21CC000000000ABC651C00C00000013000000220400003C
310
00000006000000020000000000000000408FC00000000049491BC0000000A01EDF51C00000000000408FC00000000064B21CC000000000ABC651C00C000000130000002A0400003C0000000600000002000000000000E0FF3F8F400000000022551EC000000080A3B051C0000000E0FF3F8F400000000070B21CC000000000
310
ABC651C00C00000013000000320400003C00000006000000020000000000000000408FC00000000017551EC000000080A3B051C0000000E0FF3F8F400000000022551EC000000080A3B051C00C000000130000003A0400003C00000006000000020000000000000000408FC00000000064B21CC000000000ABC651C0000000
310
0000408FC00000000017551EC000000080A3B051C00C00000013000000420400003C0000000600000002000000000000E0FF3F8F4000000080D80F20C000000020FC9D51C0000000E0FF3F8F400000000022551EC000000080A3B051C00C000000130000004A0400003C00000006000000020000000000000000408FC00000
310
0080D20F20C000000020FC9D51C0000000E0FF3F8F4000000080D80F20C000000020FC9D51C00C00000013000000520400003C00000006000000020000000000000000408FC00000000017551EC000000080A3B051C00000000000408FC000000080D20F20C000000020FC9D51C00C000000130000005A0400003C00000006
310
00000002000000000000E0FF3F8F4000000080D80F20C000000020FC9D51C0000000E0FF3F8F4000000000050821C0000000A0BC8E51C00C00000013000000620400003C00000006000000020000000000000000408FC000000080FF0721C0000000A0BC8E51C0000000E0FF3F8F4000000000050821C0000000A0BC8E51C0
310
0C000000130000006A0400003C00000006000000020000000000000000408FC000000080D20F20C000000020FC9D51C00000000000408FC000000080FF0721C0000000A0BC8E51C00C00000013000000720400003C0000000600000002000000000000E0FF3F8F4000000080653022C0000000E08E8151C0000000E0FF3F8F
310
4000000000050821C0000000A0BC8E51C00C000000130000007A0400003C00000006000000020000000000000000408FC0000000805F3022C0000000008F8151C0000000E0FF3F8F4000000080653022C0000000E08E8151C00C00000013000000820400003C00000006000000020000000000000000408FC000000080FF07
310
21C0000000A0BC8E51C00000000000408FC0000000805F3022C0000000008F8151C00C000000130000008A0400003C0000000600000002000000000000E0FF3F8F40000000805A6423C0000000402B7851C0000000E0FF3F8F4000000080653022C0000000E08E8151C00C00000013000000920400003C0000000600000002
310
0000000000000000408FC000000000556423C0000000402B7851C0000000E0FF3F8F40000000805A6423C0000000402B7851C00C000000130000009A0400003C00000006000000020000000000000000408FC0000000805F3022C0000000008F8151C00000000000408FC000000000556423C0000000402B7851C00C000000
310
13000000A20400003C0000000600000002000000000000E0FF3F8F40000000007EA724C000000040547251C0000000E0FF3F8F40000000805A6423C0000000402B7851C00C00000013000000AA0400003C00000006000000020000000000000000408FC00000000079A724C000000040547251C0000000E0FF3F8F40000000
310
007EA724C000000040547251C00C00000013000000B20400003C00000006000000020000000000000000408FC000000000556423C0000000402B7851C00000000000408FC00000000079A724C000000040547251C00C00000013000000BA0400003C0000000600000002000000000000E0FF3F8F4000000080132526C00000
310
00009B6F51C0000000E0FF3F8F40000000007EA724C000000040547251C00C00000013000000C20400003C00000006000000020000000000000000408FC0000000800E2526C0000000009B6F51C0000000E0FF3F8F4000000080132526C0000000009B6F51C00C00000013000000CA0400003C000000060000000200000000
310
00000000408FC00000000079A724C000000040547251C00000000000408FC0000000800E2526C0000000009B6F51C00C00000013000000D20400003C0000000600000002000000000000E0FF3F8F40000000808C3327C000000040916F51C0000000E0FF3F8F4000000080132526C0000000009B6F51C00C00000013000000
310
DA0400003C00000006000000020000000000000000408FC000000000873327C000000040916F51C0000000E0FF3F8F40000000808C3327C000000040916F51C00C00000013000000E20400003C00000006000000020000000000000000408FC000000000873327C000000040916F51C00000000000408FC0000000800E2526
310
C0000000009B6F51C00C00000013000000EA0400003C0000000600000002000000000000E0FF3F8F40000000800D3828C0000000C048F049C0000000E0FF3F8F40000000808C3327C000000040916F51C00C00000013000000F20400003C00000006000000020000000000000000408FC000000000083828C0000000C048F0
310
49C0000000E0FF3F8F40000000800D3828C0000000C048F049C00C00000013000000FA0400003C00000006000000020000000000000000408FC000000000873327C000000040916F51C00000000000408FC000000000083828C0000000C048F049C00C00000013000000020500003C0000000600000002000000000000E0FF
310
3F8F40000000800D3828C0000000C048F049C0000000E0FF3F8F4000000040A6A731C000000020D0054AC00C000000130000000A0500003C00000006000000020000000000000000408FC000000060A3A731C000000020D0054AC0000000E0FF3F8F4000000040A6A731C000000020D0054AC00C0000001300000012050000
310
3C00000006000000020000000000000000408FC000000000083828C0000000C048F049C00000000000408FC000000060A3A731C000000020D0054AC00C000000130000001A0500003C0000000600000002000000000000E0FF3F8F4000000080581A32C0000000208AFA47C0000000E0FF3F8F4000000040A6A731C0000000
310
20D0054AC00C00000013000000220500003C00000006000000020000000000000000408FC0000000E0551A32C0000000208AFA47C0000000E0FF3F8F4000000080581A32C0000000208AFA47C00C000000130000002A0500003C00000006000000020000000000000000408FC000000060A3A731C000000020D0054AC00000
310
000000408FC0000000E0551A32C0000000208AFA47C00C00000013000000320500003C0000000600000002000000000000E0FF3F8F4000000080581A32C0000000208AFA47C0000000E0FF3F8F40000000402F3C33C00000006084F245C00C000000130000003A0500003C00000006000000020000000000000000408FC000
310
0000402C3C33C00000006084F245C0000000E0FF3F8F40000000402F3C33C00000006084F245C00C00000013000000420500003C00000006000000020000000000000000408FC0000000E0551A32C0000000208AFA47C00000000000408FC0000000402C3C33C00000006084F245C00C000000130000004A0500003C000000
310
0600000002000000000000E0FF3F8F4000000000012A35C0000000400EDB43C0000000E0FF3F8F40000000402F3C33C00000006084F245C00C00000013000000520500003C00000006000000020000000000000000408FC000000040FE2935C0000000400EDB43C0000000E0FF3F8F4000000000012A35C0000000400EDB43
310
C00C000000130000005A0500003C00000006000000020000000000000000408FC0000000402C3C33C00000006084F245C00000000000408FC000000040FE2935C0000000400EDB43C00C00000013000000620500003C0000000600000002000000000000E0FF3F8F4000000080D37936C000000020F0C742C0000000E0FF3F
310
8F4000000000012A35C0000000400EDB43C00C000000130000006A0500003C00000006000000020000000000000000408FC0000000C0D07936C000000040F0C742C0000000E0FF3F8F4000000080D37936C000000020F0C742C00C00000013000000720500003C00000006000000020000000000000000408FC000000040FE
310
2935C0000000400EDB43C00000000000408FC0000000C0D07936C000000040F0C742C00C000000130000007A0500003C0000000600000002000000000000E0FF3F8F40000000C0DB0238C0000000C06CB541C0000000E0FF3F8F4000000080D37936C000000020F0C742C00C00000013000000820500003C00000006000000
310
020000000000000000408FC000000000D90238C0000000E06CB541C0000000E0FF3F8F40000000C0DB0238C0000000C06CB541C00C000000130000008A0500003C00000006000000020000000000000000408FC0000000C0D07936C000000040F0C742C00000000000408FC000000000D90238C0000000E06CB541C00C0000
310
0013000000920500003C0000000600000002000000000000E0FF3F8F40000000C0DB0238C0000000C06CB541C0000000E0FF3F8F4000000000E9B439C00000004073B040C00C000000130000009A0500003C00000006000000020000000000000000408FC000000020E6B439C00000004073B040C0000000E0FF3F8F400000
310
0000E9B439C00000004073B040C00C00000013000000A20500003C00000006000000020000000000000000408FC000000000D90238C0000000E06CB541C00000000000408FC000000020E6B439C00000004073B040C00C00000013000000AA0500003C0000000600000002000000000000E0FF3F8F4000000000E9B439C000
310
00004073B040C0000000E0FF3F8F4000000080C38A3BC000000000FA7D3FC00C00000013000000B20500003C00000006000000020000000000000000408FC0000000A0C08A3BC000000020FA7D3FC0000000E0FF3F8F4000000080C38A3BC000000000FA7D3FC00C00000013000000BA0500003C0000000600000002000000
310
0000000000408FC000000020E6B439C00000004073B040C00000000000408FC0000000A0C08A3BC000000020FA7D3FC00C00000013000000C20500003C0000000600000002000000000000E0FF3F8F4000000080C38A3BC000000000FA7D3FC0000000E0FF3F8F400000004038893DC00000008056C23DC00C000000130000
310
00CA0500003C00000006000000020000000000000000408FC00000008035893DC00000008056C23DC0000000E0FF3F8F400000004038893DC00000008056C23DC00C00000013000000D20500003C00000006000000020000000000000000408FC0000000A0C08A3BC000000020FA7D3FC00000000000408FC0000000803589
310
3DC00000008056C23DC00C00000013000000DA0500003C0000000600000002000000000000E0FF3F8F400000004038893DC00000008056C23DC0000000E0FF3F8F400000008087AF3FC000000060A0313CC00C00000013000000E20500003C00000006000000020000000000000000408FC0000000C084AF3FC000000080A0
310
313CC0000000E0FF3F8F400000008087AF3FC000000060A0313CC00C00000013000000EA0500003C00000006000000020000000000000000408FC00000008035893DC00000008056C23DC00000000000408FC0000000C084AF3FC000000080A0313CC00C00000013000000F20500003C0000000600000002000000000000E0
310
FF3F8F400000006003FF40C00000002094CD3AC0000000E0FF3F8F400000008087AF3FC000000060A0313CC00C00000013000000FA0500003C00000006000000020000000000000000408FC00000000002FF40C00000002094CD3AC0000000E0FF3F8F400000006003FF40C00000002094CD3AC00C00000013000000020600
310
003C00000006000000020000000000000000408FC0000000C084AF3FC000000080A0313CC00000000000408FC00000000002FF40C00000002094CD3AC00C000000130000000A0600003C0000000600000002000000000000E0FF3F8F4000000080304E42C000000000718539C0000000E0FF3F8F400000006003FF40C00000
310
002094CD3AC00C00000013000000120600003C00000006000000020000000000000000408FC0000000002F4E42C000000000718539C0000000E0FF3F8F4000000080304E42C000000000718539C00C000000130000001A0600003C00000006000000020000000000000000408FC00000000002FF40C00000002094CD3AC000
310
00000000408FC0000000002F4E42C000000000718539C00C00000013000000220600003C0000000600000002000000000000E0FF3F8F4000000000E1C943C000000020DF5F38C0000000E0FF3F8F4000000080304E42C000000000718539C00C000000130000002A0600003C00000006000000020000000000000000408FC0
310
00000080DFC943C000000020DF5F38C0000000E0FF3F8F4000000000E1C943C000000020DF5F38C00C00000013000000320600003C00000006000000020000000000000000408FC0000000002F4E42C000000000718539C00000000000408FC000000080DFC943C000000020DF5F38C00C000000130000003A0600003C0000
310
000600000002000000000000E0FF3F8F4000000040105345C0000000C0647737C0000000E0FF3F8F4000000000E1C943C000000020DF5F38C00C00000013000000420600003C00000006000000020000000000000000408FC0000000C00E5345C000000000657737C0000000E0FF3F8F4000000040105345C0000000C06477
310
37C00C000000130000004A0600003C00000006000000020000000000000000408FC000000080DFC943C000000020DF5F38C00000000000408FC0000000C00E5345C000000000657737C00C00000013000000520600003C0000000600000002000000000000E0FF3F8F4000000000EE1747C00000006074B336C0000000E0FF
310
3F8F4000000040105345C0000000C0647737C00C000000130000005A0600003C00000006000000020000000000000000408FC0000000A0EC1747C00000008074B336C0000000E0FF3F8F4000000000EE1747C00000006074B336C00C00000013000000620600003C00000006000000020000000000000000408FC0000000C0
310
0E5345C000000000657737C00000000000408FC0000000A0EC1747C00000008074B336C00C000000130000006A0600003C0000000600000002000000000000E0FF3F8F40000000E06B3849C0000000605D1836C0000000E0FF3F8F4000000000EE1747C00000006074B336C00C00000013000000720600003C000000060000
310
00020000000000000000408FC0000000806A3849C0000000805D1836C0000000E0FF3F8F40000000E06B3849C0000000605D1836C00C000000130000007A0600003C00000006000000020000000000000000408FC0000000A0EC1747C00000008074B336C00000000000408FC0000000806A3849C0000000805D1836C00C00
310
000013000000820600003C0000000600000002000000000000E0FF3F8F40000000E0905A5AC0000000A0552330C0000000E0FF3F8F40000000E06B3849C0000000605D1836C00C000000130000008A0600003C00000006000000020000000000000000408FC000000040905A5AC0000000C0552330C0000000E0FF3F8F4000
310
0000E0905A5AC0000000A0552330C00C00000013000000920600003C00000006000000020000000000000000408FC0000000806A3849C0000000805D1836C00000000000408FC000000040905A5AC0000000C0552330C00C000000130000009A0600003C0000000600000002000000000000E0FF3F8F40000000C09C5A5AC0
310
0000000071C823C0000000E0FF3F8F40000000E0905A5AC0000000A0552330C00C00000013000000A20600003C00000006000000020000000000000000408FC0000000009C5A5AC00000000071C823C0000000E0FF3F8F40000000C09C5A5AC00000000071C823C00C00000013000000AA0600003C00000006000000020000
310
000000000000408FC000000040905A5AC0000000C0552330C00000000000408FC0000000009C5A5AC00000000071C823C00C00000013000000B20600003C0000000600000002000000000000E0FF3F8F40000000C073005DC00000000012C923C0000000E0FF3F8F40000000C09C5A5AC00000000071C823C00C0000001300
310
0000BA0600003C00000006000000020000000000000000408FC0000000009C5A5AC00000000071C823C00000000000408FC00000000073005DC00000008011C923C00C00000013000000C20600003C00000006000000020000000000000000408FC000000000743E16C0000000004DDE52C00000000000408FC00000000000
310
004CBF00000020CE1A51C00C00000013000000CA0600003C00000006000000020000000000000000408FC00000000073005DC00000008011C923C00000000000408FC00000008094DC57C0000000001C9608C00C00000013000000D20600003C00000006000000020000000000000000408FC0000000009C5A5AC000000000
310
71C823C00000000000408FC0000000E0479457C0000000007E3316C00C00000013000000DA0600003C00000006000000020000000000000000408FC0000000009C5A5AC00000000071C823C00000000000408FC000000060B02257C0000000005A561EC00C00000013000000E20600003C0000000600000002000000000000
310
0000408FC000000040905A5AC0000000C0552330C00000000000408FC000000000799156C000000080280122C00C00000013000000EA0600003C00000006000000020000000000000000408FC000000040905A5AC0000000C0552330C00000000000408FC0000000C00DED55C000000080915D23C00C00000013000000F206
310
00003C00000006000000020000000000000000408FC0000000806A3849C0000000805D1836C00000000000408FC0000000607AC547C000000080A2312CC00C00000013000000FA0600003C00000006000000020000000000000000408FC0000000A0EC1747C00000008074B336C00000000000408FC00000008005F344C000
310
0000800A362EC00C00000013000000020700003C00000006000000020000000000000000408FC0000000C00E5345C000000000657737C00000000000408FC000000000396C44C000000040D2502EC00C000000130000000A0700003C00000006000000020000000000000000408FC000000080DFC943C000000020DF5F38C0
310
0000000000408FC00000004061EB43C0000000C00AAB2DC00C00000013000000120700003C00000006000000020000000000000000408FC0000000002F4E42C000000000718539C00000000000408FC0000000C09C7943C000000000883B2CC00C000000130000001A0700003C00000006000000020000000000000000408F
310
C0000000002F4E42C000000000718539C00000000000408FC0000000406C5A43C0000000C05DD92BC00C00000013000000220700003C00000006000000020000000000000000408FC0000000002F4E42C000000000718539C00000000000408FC000000080E73C43C00000000085C92BC00C000000130000002A0700003C00
310
000006000000020000000000000000408FC00000000002FF40C00000002094CD3AC00000000000408FC000000080CA2043C0000000800FF22BC00C00000013000000320700003C00000006000000020000000000000000408FC000000020E6B439C00000004073B040C00000000000408FC00000000038DF30C0000000C0A5
310
033FC00C000000130000003A0700003C00000006000000020000000000000000408FC000000000D90238C0000000E06CB541C00000000000408FC0000000C0496B30C000000080D5F63FC00C00000013000000420700003C00000006000000020000000000000000408FC0000000A0C08A3BC000000020FA7D3FC000000000
310
00408FC000000080C6FD30C00000008075F63DC00C000000130000004A0700003C00000006000000020000000000000000408FC00000008035893DC00000008056C23DC00000000000408FC0000000C0A5B830C0000000A068D33CC00C00000013000000520700003C00000006000000020000000000000000408FC0000000
310
C084AF3FC000000080A0313CC00000000000408FC00000006081DF30C0000000C025153CC00C000000130000005A0700003C00000006000000020000000000000000408FC00000008035893DC00000008056C23DC00000000000408FC00000008014B630C00000008050413CC00C00000013000000620700003C0000000600
310
0000020000000000000000408FC00000008035893DC00000008056C23DC00000000000408FC0000000C044A430C0000000C0F17B3CC00C000000130000006A0700003C00000006000000020000000000000000408FC000000000083828C0000000C048F049C00000000000408FC0000000E0551A32C0000000208AFA47C00C
310
00000013000000720700003C00000006000000020000000000000000408FC0000000E0551A32C0000000208AFA47C00000000000408FC0000000C0496B30C000000080D5F63FC00C000000130000007A0700003C00000006000000020000000000000000408FC000000000083828C0000000C048F049C00000000000408FC0
310
000000004E4B07C00000004038DC4AC00C00000013000000820700003C00000006000000020000000000000000408FC0000000C0D07936C000000040F0C742C00000000000408FC0000000C0496B30C000000080D5F63FC00C000000130000008A0700003C00000006000000020000000000000000408FC000000040FE2935
310
C0000000400EDB43C00000000000408FC0000000C0496B30C000000080D5F63FC00C00000013000000920700003C00000006000000020000000000000000408FC0000000402C3C33C00000006084F245C00000000000408FC0000000C0496B30C000000080D5F63FC00C000000130000009A0700003C000000060000000200
310
00000000000000408FC000000000873327C000000040916F51C00000000000408FC00000000016E401C000000020173F4BC00C00000013000000A20700003C00000006000000020000000000000000408FC0000000800E2526C0000000009B6F51C00000000000408FC0000000005CA4F5BF000000402A7F4BC00C00000013
310
000000AA0700003C00000006000000020000000000000000408FC00000000079A724C000000040547251C00000000000408FC00000000000A063BF0000000054954BC00C00000013000000B20700003C00000006000000020000000000000000408FC000000000556423C0000000402B7851C00000000000408FC000000000
310
00B056BF000000A07DEB4FC00C00000013000000BA0700003C00000006000000020000000000000000408FC0000000805F3022C0000000008F8151C00000000000408FC000000000E8DFF0BF00000020FF6950C00C00000013000000C20700003C00000006000000020000000000000000408FC000000080FF0721C0000000
310
A0BC8E51C00000000000408FC000000000B88FF4BF00000080E19250C00C00000013000000CA0700003C00000006000000020000000000000000408FC000000080D20F20C000000020FC9D51C00000000000408FC000000000B88FF4BF00000080E19250C00C00000013000000D20700003C00000006000000020000000000
310
000000408FC00000000017551EC000000080A3B051C00000000000408FC000000000B88FF4BF00000080E19250C00C00000013000000DA0700003C00000006000000020000000000000000408FC00000000064B21CC000000000ABC651C00000000000408FC0000000006C76F4BF000000607FBE50C00C00000013000000E2
310
0700003C00000006000000020000000000000000408FC00000000049491BC0000000A01EDF51C00000000000408FC0000000006C76F4BF000000607FBE50C00C00000013000000EA0700003C00000006000000020000000000000000408FC0000000004B111AC00000000010FA51C00000000000408FC0000000006C76F4BF
310
000000607FBE50C00C00000013000000F20700003C00000006000000020000000000000000408FC0000000004E0819C0000000605F1752C00000000000408FC000000000A497F0BF0000002015E750C00C00000013000000FA0700003C00000006000000020000000000000000408FC000000000122118C000000000D23852
310
C00000000000408FC000000000A497F0BF0000002015E750C00C00000013000000020800003C00000006000000020000000000000000408FC000000000CB5717C0000000A0C36052C00000000000408FC000000000A497F0BF0000002015E750C00C000000130000000A0800003C0000000600000002000000000000000040
310
8FC00000000081CB16C0000000804C8852C00000000000408FC000000000A0ECE2BF00000080450751C00C00000013000000120800003C00000006000000020000000000000000408FC0000000009D7316C0000000408BAF52C00000000000408FC000000000A0ECE2BF00000080450751C00C000000130000001A0800003C
310
0000000600000002000000000000E0FF3F8F40000000007F3E16C0000000004DDE52C0000000E0FF3F8F400000000000604DBF00000020CE1A51C00C00000013000000220800003C0000000600000002000000000000E0FF3F8F40000000C073005DC00000000012C923C0000000E0FF3F8F400000004095DC57C000000000
310
1A9608C00C000000130000002A0800003C0000000600000002000000000000E0FF3F8F40000000C09C5A5AC00000000071C823C0000000E0FF3F8F40000000C0489457C0000000007E3316C00C00000013000000320800003C0000000600000002000000000000E0FF3F8F40000000C09C5A5AC00000000071C823C0000000
310
E0FF3F8F4000000020B12257C00000000058561EC00C000000130000003A0800003C0000000600000002000000000000E0FF3F8F40000000E0905A5AC0000000A0552330C0000000E0FF3F8F40000000C0799156C000000080280122C00C00000013000000420800003C0000000600000002000000000000E0FF3F8F400000
310
00E0905A5AC0000000A0552330C0000000E0FF3F8F40000000800EED55C000000080915D23C00C000000130000004A0800003C0000000600000002000000000000E0FF3F8F40000000E06B3849C0000000605D1836C0000000E0FF3F8F40000000C07BC547C000000080A2312CC00C00000013000000520800003C00000006
310
00000002000000000000E0FF3F8F4000000000EE1747C00000006074B336C0000000E0FF3F8F400000000007F344C0000000400A362EC00C000000130000005A0800003C0000000600000002000000000000E0FF3F8F4000000040105345C0000000C0647737C0000000E0FF3F8F40000000603A6C44C000000000D2502EC0
310
0C00000013000000620800003C0000000600000002000000000000E0FF3F8F4000000000E1C943C000000020DF5F38C0000000E0FF3F8F40000000A062EB43C0000000400AAB2DC00C000000130000006A0800003C0000000600000002000000000000E0FF3F8F4000000080304E42C000000000718539C0000000E0FF3F8F
310
40000000409E7943C0000000C0873B2CC00C00000013000000720800003C0000000600000002000000000000E0FF3F8F4000000080304E42C000000000718539C0000000E0FF3F8F40000000A06D5A43C0000000805DD92BC00C000000130000007A0800003C0000000600000002000000000000E0FF3F8F4000000080304E
310
42C000000000718539C0000000E0FF3F8F4000000000E93C43C0000000C084C92BC00C00000013000000820800003C0000000600000002000000000000E0FF3F8F400000006003FF40C00000002094CD3AC0000000E0FF3F8F40000000E0CB2043C0000000400FF22BC00C000000130000008A0800003C0000000600000002
310
000000000000E0FF3F8F40000000C0DB0238C0000000C06CB541C0000000E0FF3F8F40000000804C6B30C000000080D5F63FC00C00000013000000920800003C0000000600000002000000000000E0FF3F8F4000000000E9B439C00000004073B040C0000000E0FF3F8F40000000C03ADF30C0000000C0A5033FC00C000000
310
130000009A0800003C0000000600000002000000000000E0FF3F8F4000000080C38A3BC000000000FA7D3FC0000000E0FF3F8F4000000040C9FD30C00000008075F63DC00C00000013000000A20800003C0000000600000002000000000000E0FF3F8F400000004038893DC00000008056C23DC0000000E0FF3F8F40000000
310
A0A8B830C0000000C068D33CC00C00000013000000AA0800003C0000000600000002000000000000E0FF3F8F400000008087AF3FC000000060A0313CC0000000E0FF3F8F400000004084DF30C00000008025153CC00C00000013000000B20800003C0000000600000002000000000000E0FF3F8F400000004038893DC00000
310
008056C23DC0000000E0FF3F8F400000006017B630C00000006050413CC00C00000013000000BA0800003C0000000600000002000000000000E0FF3F8F400000004038893DC00000008056C23DC0000000E0FF3F8F400000008047A430C0000000A0F17B3CC00C00000013000000C20800003C000000060000000200000000
310
0000E0FF3F8F40000000800D3828C0000000C048F049C0000000E0FF3F8F4000000000644B07C00000002038DC4AC00C00000013000000CA0800003C0000000600000002000000000000E0FF3F8F40000000804C6B30C000000080D5F63FC0000000E0FF3F8F4000000080581A32C0000000208AFA47C00C00000013000000
310
D20800003C0000000600000002000000000000E0FF3F8F40000000800D3828C0000000C048F049C0000000E0FF3F8F4000000080581A32C0000000208AFA47C00C00000013000000DA0800003C0000000600000002000000000000E0FF3F8F40000000804C6B30C000000080D5F63FC0000000E0FF3F8F4000000080D37936
310
C000000020F0C742C00C00000013000000E20800003C0000000600000002000000000000E0FF3F8F40000000804C6B30C000000080D5F63FC0000000E0FF3F8F4000000000012A35C0000000400EDB43C00C00000013000000EA0800003C0000000600000002000000000000E0FF3F8F40000000804C6B30C000000080D5F6
310
3FC0000000E0FF3F8F40000000402F3C33C00000006084F245C00C00000013000000F20800003C0000000600000002000000000000E0FF3F8F40000000808C3327C000000040916F51C0000000E0FF3F8F40000000002EE401C000000000173F4BC00C00000013000000FA0800003C0000000600000002000000000000E0FF
310
3F8F4000000080132526C0000000009B6F51C0000000E0FF3F8F400000000088A4F5BF000000402A7F4BC00C00000013000000020900003C0000000600000002000000000000E0FF3F8F40000000007EA724C000000040547251C0000000E0FF3F8F400000000000F863BF0000002054954BC00C000000130000000A090000
310
3C0000000600000002000000000000E0FF3F8F40000000805A6423C0000000402B7851C0000000E0FF3F8F4000000000006057BF000000A07DEB4FC00C00000013000000120900003C0000000600000002000000000000E0FF3F8F4000000080653022C0000000E08E8151C0000000E0FF3F8F400000000010E0F0BF000000
310
20FF6950C00C000000130000001A0900003C0000000600000002000000000000E0FF3F8F4000000080D80F20C000000020FC9D51C0000000E0FF3F8F4000000000E88FF4BF00000060E19250C00C00000013000000220900003C0000000600000002000000000000E0FF3F8F4000000000050821C0000000A0BC8E51C00000
310
00E0FF3F8F4000000000E88FF4BF00000060E19250C00C000000130000002A0900003C0000000600000002000000000000E0FF3F8F4000000000E88FF4BF00000060E19250C0000000E0FF3F8F400000000022551EC000000080A3B051C00C00000013000000320900003C0000000600000002000000000000E0FF3F8F4000
310
00000054491BC0000000A01EDF51C0000000E0FF3F8F40000000009476F4BF000000607FBE50C00C000000130000003A0900003C0000000600000002000000000000E0FF3F8F400000000070B21CC000000000ABC651C0000000E0FF3F8F40000000009476F4BF000000607FBE50C00C00000013000000420900003C000000
310
0600000002000000000000E0FF3F8F40000000009476F4BF000000607FBE50C0000000E0FF3F8F400000000057111AC00000000010FA51C00C000000130000004A0900003C0000000600000002000000000000E0FF3F8F40000000001D2118C000000000D23852C0000000E0FF3F8F4000000000D497F0BF0000002015E750
310
C00C00000013000000520900003C0000000600000002000000000000E0FF3F8F4000000000590819C0000000605F1752C0000000E0FF3F8F4000000000D497F0BF0000002015E750C00C000000130000005A0900003C0000000600000002000000000000E0FF3F8F4000000000D497F0BF0000002015E750C0000000E0FF3F
310
8F4000000000D65717C000000080C36052C00C00000013000000620900003C0000000600000002000000000000E0FF3F8F4000000000A97316C0000000408BAF52C0000000E0FF3F8F4000000000F8ECE2BF00000080450751C00C000000130000006A0900003C0000000600000002000000000000E0FF3F8F40000000008C
310
CB16C0000000804C8852C0000000E0FF3F8F4000000000F8ECE2BF00000080450751C0
100
AcDbSubDMesh
 71
     2
 72
     0
 91
        0
 92
      144
 10
-1000.0
 20
0.0000267028808594
 30
-75.98843383789063
 10
-1000.0
 20
-5.547771453857421
 30
-75.98907470703125
 10
-1000.0
 20
-11.60063934326172
 30
-69.74324035644531
 10
-1000.0
 20
-12.10943603515625
 30
-51.8772201538086
 10
-1000.0
 20
-17.65483665466308
 30
-52.04541397094726
 10
-1000.0
 20
-18.10287284851074
 30
-47.95734024047852
 10
-1000.0
 20
-19.23505020141601
 30
-43.89466476440429
 10
-1000.0
 20
-21.16403579711914
 30
-39.71137237548828
 10
-1000.0
 20
-22.4758415222168
 30
-37.56201934814453
 10
-1000.0
 20
-24.01112365722656
 30
-35.41738510131836
 10
-1000.0
 20
-25.70663642883301
 30
-33.37851715087891
 10
-1000.0
 20
-27.54200172424317
 30
-31.49209785461426
 10
-1000.0
 20
-29.53597259521485
 30
-29.75913238525391
 10
-1000.0
 20
-31.68561935424805
 30
-28.19385528564453
 10
-1000.0
 20
-33.99224853515625
 30
-26.80304145812988
 10
-1000.0
 20
-36.61080932617188
 30
-25.52125549316406
 10
-1000.0
 20
-39.57713317871094
 30
-24.37449836730957
 10
-1000.0
 20
-42.64888763427734
 30
-23.46638488769531
 10
-1000.0
 20
-46.18690872192383
 30
-22.70099639892578
 10
-1000.0
 20
-50.44075012207031
 30
-22.09517669677734
 10
-1000.0
 20
-105.415054321289
 30
-16.13802719116211
 10
-1000.0
 20
-105.415771484375
 30
-9.891487121582031
 10
-1000.0
 20
-116.0070190429687
 30
-9.892711639404296
 10
-1000.0
 20
-116.0081787109375
 30
-0.0023689270019531
 10
-1000.0
 20
-5.560989379882812
 30
-75.47344970703125
 10
-1000.0
 20
-5.612903594970703
 30
-74.74287414550781
 10
-1000.0
 20
-5.698734283447265
 30
-74.12966918945312
 10
-1000.0
 20
-5.835735321044921
 30
-73.51194000244141
 10
-1000.0
 20
-6.032295227050781
 30
-72.8878173828125
 10
-1000.0
 20
-6.258110046386718
 30
-72.36519622802735
 10
-1000.0
 20
-6.516887664794921
 30
-71.9072265625
 10
-1000.0
 20
-6.82156753540039
 30
-71.48624420166015
 10
-1000.0
 20
-7.174209594726562
 30
-71.10418701171875
 10
-1000.0
 20
-7.583095550537109
 30
-70.75997924804688
 10
-1000.0
 20
-8.030902862548828
 30
-70.46851348876953
 10
-1000.0
 20
-8.515621185302734
 30
-70.23026275634766
 10
-1000.0
 20
-9.094478607177734
 30
-70.02435302734375
 10
-1000.0
 20
-9.695960998535156
 30
-69.87763977050781
 10
-1000.0
 20
-10.32709503173828
 30
-69.78639221191406
 10
-1000.0
 20
-11.0723762512207
 30
-69.74383544921875
 10
-1000.0
 20
-0.0023956298828125
 30
-55.1666259765625
 10
-1000.0
 20
-95.83438110351563
 30
-0.0000076293945313
 10
-1000.0
 20
-2.911769866943359
 30
-53.72046661376953
 10
-1000.0
 20
-16.41909408569336
 30
-31.96419525146485
 10
-1000.0
 20
-47.54279708862305
 30
-14.09694290161133
 10
-1000.0
 20
-41.89860534667968
 30
-15.10554885864258
 10
-1000.0
 20
-87.70396423339844
 30
-9.682750701904296
 10
-1000.0
 20
-2.236370086669921
 30
-54.49289321899414
 10
-1000.0
 20
-1.352626800537109
 30
-54.99347686767578
 10
-1000.0
 20
-95.44656372070312
 30
-3.073295593261718
 10
-1000.0
 20
-94.31688690185547
 30
-5.550285339355468
 10
-1000.0
 20
-92.54201507568359
 30
-7.584327697753906
 10
-1000.0
 20
-90.27301025390626
 30
-9.002262115478515
 10
-1000.0
 20
-38.25617980957031
 30
-13.97277450561523
 10
-1000.0
 20
-16.87306785583496
 30
-28.08260726928711
 10
-1000.0
 20
-16.72127914428711
 30
-28.82581520080567
 10
-1000.0
 20
-38.95009613037109
 30
-14.11627197265625
 10
-1000.0
 20
-16.9913101196289
 30
-29.96273040771484
 10
-1000.0
 20
-16.8719482421875
 30
-31.01424789428711
 10
-1000.0
 20
-40.84548950195312
 30
-15.15785408020019
 10
-1000.0
 20
-39.83890533447265
 30
-14.83406639099121
 10
-1000.0
 20
-16.71125030517578
 30
-28.25513458251953
 10
-1000.0
 20
-16.64167404174804
 30
-28.48415756225586
 10
-1000.0
 20
-38.70642852783203
 30
-13.9245433807373
 10
-1000.0
 20
-38.47581481933594
 30
-13.89359283447265
 10
-1000.0
 20
-0.0008544921875
 30
-68.41883087158203
 10
-1000.0
 20
-0.5913848876953125
 30
-68.11361694335937
 10
-1000.0
 20
-1.03702163696289
 30
-67.61066436767578
 10
-1000.0
 20
-1.278911590576171
 30
-66.97652435302734
 10
-1000.0
 20
-1.285087585449218
 30
-66.29501342773437
 10
-1000.0
 20
-1.054664611816406
 30
-65.65619659423828
 10
-1000.0
 20
-0.0013847351074219
 30
-63.83977127075195
 10
999.9999389648436
 20
-0.0000190734863281
 30
-75.98842620849609
 10
999.9999389648436
 20
-5.547813415527343
 30
-75.98907470703125
 10
999.9999389648436
 20
-5.561031341552734
 30
-75.47344970703125
 10
999.9999389648436
 20
-0.0008964538574219
 30
-68.41883087158203
 10
999.9999389648436
 20
-116.0070648193359
 30
-9.892715454101562
 10
999.9999389648436
 20
-116.0082092285156
 30
-0.0023689270019531
 10
999.9999389648436
 20
-95.83442687988281
 30
-0.0000076293945313
 10
999.9999389648436
 20
-95.44660949707031
 30
-3.073291778564453
 10
999.9999389648436
 20
-105.4158172607422
 30
-9.891487121582031
 10
999.9999389648436
 20
-94.31694030761718
 30
-5.550285339355468
 10
999.9999389648436
 20
-92.54206085205078
 30
-7.584320068359375
 10
999.9999389648436
 20
-105.4150924682617
 30
-16.13802528381348
 10
999.9999389648436
 20
-90.27305603027343
 30
-9.002262115478515
 10
999.9999389648436
 20
-87.70401000976562
 30
-9.682750701904296
 10
999.9999389648436
 20
-50.44079208374023
 30
-22.09517478942871
 10
999.9999389648436
 20
-47.54283905029296
 30
-14.09694290161133
 10
999.9999389648436
 20
-46.18695068359374
 30
-22.70099449157715
 10
999.9999389648436
 20
-41.89865112304687
 30
-15.10554695129394
 10
999.9999389648436
 20
-42.64893341064452
 30
-23.46638107299805
 10
999.9999389648436
 20
-40.84553146362305
 30
-15.15785217285156
 10
999.9999389648436
 20
-39.57717895507812
 30
-24.37449836730957
 10
999.9999389648436
 20
-39.83894729614258
 30
-14.83406257629394
 10
999.9999389648436
 20
-36.61085510253907
 30
-25.52125549316406
 10
999.9999389648436
 20
-38.95014190673828
 30
-14.11627006530762
 10
999.9999389648436
 20
-38.70647048950195
 30
-13.92454147338867
 10
999.9999389648436
 20
-38.47586059570313
 30
-13.89359092712402
 10
999.9999389648436
 20
-33.99229049682617
 30
-26.80304145812988
 10
999.9999389648436
 20
-38.25622177124023
 30
-13.9727725982666
 10
999.9999389648436
 20
-24.01116561889649
 30
-35.41738128662109
 10
999.9999389648436
 20
-25.70668029785156
 30
-33.37851715087891
 10
999.9999389648436
 20
-16.87199020385742
 30
-31.01424789428711
 10
999.9999389648436
 20
-16.41913604736328
 30
-31.96419525146485
 10
999.9999389648436
 20
-27.54204559326172
 30
-31.49209594726563
 10
999.9999389648436
 20
-16.99135208129883
 30
-29.96273040771484
 10
999.9999389648436
 20
-29.53601455688477
 30
-29.75913238525391
 10
999.9999389648436
 20
-16.72132301330566
 30
-28.8258171081543
 10
999.9999389648436
 20
-31.68566131591797
 30
-28.1938533782959
 10
999.9999389648436
 20
-16.87311172485351
 30
-28.08260345458985
 10
999.9999389648436
 20
-16.71129417419433
 30
-28.2551326751709
 10
999.9999389648436
 20
-16.64171600341797
 30
-28.48415565490723
 10
999.9999389648436
 20
-12.10947799682617
 30
-51.8772201538086
 10
999.9999389648436
 20
-18.10291290283203
 30
-47.95734024047852
 10
999.9999389648436
 20
-2.911811828613281
 30
-53.72046279907227
 10
999.9999389648436
 20
-22.47588348388672
 30
-37.56201553344727
 10
999.9999389648436
 20
-21.16407775878906
 30
-39.71137237548828
 10
999.9999389648436
 20
-19.2350959777832
 30
-43.89466476440429
 10
999.9999389648436
 20
-17.65488052368164
 30
-52.04541397094726
 10
999.9999389648436
 20
-11.60068130493164
 30
-69.74324035644531
 10
999.9999389648436
 20
-2.236415863037109
 30
-54.49288940429688
 10
999.9999389648436
 20
-11.07241439819336
 30
-69.74383544921875
 10
999.9999389648436
 20
-1.352668762207031
 30
-54.99347686767578
 10
999.9999389648436
 20
-10.32713317871094
 30
-69.78639221191406
 10
999.9999389648436
 20
-0.0024375915527344
 30
-55.16662979125976
 10
999.9999389648436
 20
-9.696002960205078
 30
-69.87763977050781
 10
999.9999389648436
 20
-0.0014266967773438
 30
-63.83977127075195
 10
999.9999389648436
 20
-9.094524383544921
 30
-70.02434539794922
 10
999.9999389648436
 20
-1.054702758789062
 30
-65.65619659423828
 10
999.9999389648436
 20
-8.030948638916015
 30
-70.46851348876953
 10
999.9999389648436
 20
-8.515663146972656
 30
-70.23026275634766
 10
999.9999389648436
 20
-1.285133361816406
 30
-66.29500579833984
 10
999.9999389648436
 20
-7.583137512207031
 30
-70.75997924804688
 10
999.9999389648436
 20
-6.821609497070312
 30
-71.48624420166015
 10
999.9999389648436
 20
-7.17425537109375
 30
-71.10418701171875
 10
999.9999389648436
 20
-1.278949737548828
 30
-66.97652435302734
 10
999.9999389648436
 20
-6.516933441162109
 30
-71.9072265625
 10
999.9999389648436
 20
-6.032337188720703
 30
-72.8878173828125
 10
999.9999389648436
 20
-6.25815200805664
 30
-72.36519622802735
 10
999.9999389648436
 20
-1.037067413330078
 30
-67.61066436767578
 10
999.9999389648436
 20
-5.835777282714843
 30
-73.51193237304688
 10
999.9999389648436
 20
-5.61294937133789
 30
-74.74287414550781
 10
999.9999389648436
 20
-5.698776245117187
 30
-74.12966918945312
 10
999.9999389648436
 20
-0.5914268493652344
 30
-68.11361694335937
 93
      764
 90
        4
 90
       76
 90
       77
 90
       23
 90
       22
 90
        4
 90
       77
 90
       78
 90
       41
 90
       23
 90
        4
 90
       78
 90
       79
 90
       49
 90
       41
 90
        4
 90
       79
 90
       81
 90
       50
 90
       49
 90
        4
 90
       81
 90
       82
 90
       51
 90
       50
 90
        4
 90
       82
 90
       84
 90
       52
 90
       51
 90
        4
 90
       84
 90
       85
 90
       46
 90
       52
 90
        4
 90
       85
 90
       87
 90
       44
 90
       46
 90
        4
 90
       87
 90
       89
 90
       45
 90
       44
 90
        4
 90
       89
 90
       91
 90
       59
 90
       45
 90
        4
 90
       91
 90
       93
 90
       60
 90
       59
 90
        4
 90
       93
 90
       95
 90
       56
 90
       60
 90
        4
 90
       95
 90
       96
 90
       63
 90
       56
 90
        4
 90
       96
 90
       97
 90
       64
 90
       63
 90
        4
 90
       97
 90
       99
 90
       53
 90
       64
 90
        4
 90
       99
 90
      109
 90
       54
 90
       53
 90
        4
 90
      109
 90
      110
 90
       61
 90
       54
 90
        4
 90
      110
 90
      111
 90
       62
 90
       61
 90
        4
 90
      111
 90
      107
 90
       55
 90
       62
 90
        4
 90
      107
 90
      105
 90
       57
 90
       55
 90
        4
 90
      105
 90
      102
 90
       58
 90
       57
 90
        4
 90
      102
 90
      103
 90
       43
 90
       58
 90
        4
 90
      103
 90
      114
 90
       42
 90
       43
 90
        4
 90
      114
 90
      120
 90
       47
 90
       42
 90
        4
 90
      120
 90
      122
 90
       48
 90
       47
 90
        4
 90
      122
 90
      124
 90
       40
 90
       48
 90
        4
 90
      124
 90
      126
 90
       71
 90
       40
 90
        4
 90
      126
 90
      128
 90
       70
 90
       71
 90
        4
 90
      128
 90
      131
 90
       69
 90
       70
 90
        4
 90
      131
 90
      135
 90
       68
 90
       69
 90
        4
 90
      135
 90
      139
 90
       67
 90
       68
 90
        4
 90
      139
 90
      143
 90
       66
 90
       67
 90
        4
 90
      143
 90
       75
 90
       65
 90
       66
 90
        4
 90
       75
 90
       72
 90
        0
 90
       65
 90
        4
 90
       72
 90
       73
 90
        1
 90
        0
 90
        4
 90
       73
 90
       74
 90
       24
 90
        1
 90
        4
 90
       74
 90
      141
 90
       25
 90
       24
 90
        4
 90
      141
 90
      142
 90
       26
 90
       25
 90
        4
 90
      142
 90
      140
 90
       27
 90
       26
 90
        4
 90
      140
 90
      137
 90
       28
 90
       27
 90
        4
 90
      137
 90
      138
 90
       29
 90
       28
 90
        4
 90
      138
 90
      136
 90
       30
 90
       29
 90
        4
 90
      136
 90
      133
 90
       31
 90
       30
 90
        4
 90
      133
 90
      134
 90
       32
 90
       31
 90
        4
 90
      134
 90
      132
 90
       33
 90
       32
 90
        4
 90
      132
 90
      129
 90
       34
 90
       33
 90
        4
 90
      129
 90
      130
 90
       35
 90
       34
 90
        4
 90
      130
 90
      127
 90
       36
 90
       35
 90
        4
 90
      127
 90
      125
 90
       37
 90
       36
 90
        4
 90
      125
 90
      123
 90
       38
 90
       37
 90
        4
 90
      123
 90
      121
 90
       39
 90
       38
 90
        4
 90
      121
 90
      119
 90
        2
 90
       39
 90
        4
 90
      119
 90
      112
 90
        3
 90
        2
 90
        4
 90
      112
 90
      118
 90
        4
 90
        3
 90
        4
 90
      118
 90
      113
 90
        5
 90
        4
 90
        4
 90
      113
 90
      117
 90
        6
 90
        5
 90
        4
 90
      117
 90
      116
 90
        7
 90
        6
 90
        4
 90
      116
 90
      115
 90
        8
 90
        7
 90
        4
 90
      115
 90
      100
 90
        9
 90
        8
 90
        4
 90
      100
 90
      101
 90
       10
 90
        9
 90
        4
 90
      101
 90
      104
 90
       11
 90
       10
 90
        4
 90
      104
 90
      106
 90
       12
 90
       11
 90
        4
 90
      106
 90
      108
 90
       13
 90
       12
 90
        4
 90
      108
 90
       98
 90
       14
 90
       13
 90
        4
 90
       98
 90
       94
 90
       15
 90
       14
 90
        4
 90
       94
 90
       92
 90
       16
 90
       15
 90
        4
 90
       92
 90
       90
 90
       17
 90
       16
 90
        4
 90
       90
 90
       88
 90
       18
 90
       17
 90
        4
 90
       88
 90
       86
 90
       19
 90
       18
 90
        4
 90
       86
 90
       83
 90
       20
 90
       19
 90
        4
 90
       83
 90
       80
 90
       21
 90
       20
 90
        4
 90
       80
 90
       76
 90
       22
 90
       21
 90
        4
 90
        0
 90
        1
 90
       24
 90
       65
 90
        4
 90
       22
 90
       23
 90
       41
 90
       49
 90
        4
 90
       21
 90
       22
 90
       49
 90
       50
 90
        3
 90
       21
 90
       50
 90
       51
 90
        4
 90
       20
 90
       21
 90
       51
 90
       52
 90
        3
 90
       20
 90
       52
 90
       46
 90
        4
 90
       19
 90
       20
 90
       46
 90
       44
 90
        4
 90
       18
 90
       19
 90
       44
 90
       45
 90
        4
 90
       17
 90
       18
 90
       45
 90
       59
 90
        4
 90
       16
 90
       17
 90
       59
 90
       60
 90
        4
 90
       15
 90
       16
 90
       60
 90
       56
 90
        3
 90
       15
 90
       56
 90
       63
 90
        3
 90
       15
 90
       63
 90
       64
 90
        4
 90
       14
 90
       15
 90
       64
 90
       53
 90
        4
 90
        9
 90
       10
 90
       58
 90
       43
 90
        4
 90
       10
 90
       11
 90
       57
 90
       58
 90
        4
 90
       11
 90
       12
 90
       55
 90
       57
 90
        4
 90
       13
 90
       14
 90
       53
 90
       54
 90
        4
 90
       12
 90
       13
 90
       54
 90
       61
 90
        3
 90
       12
 90
       61
 90
       62
 90
        3
 90
       12
 90
       62
 90
       55
 90
        4
 90
        3
 90
        5
 90
       43
 90
       42
 90
        3
 90
        8
 90
        9
 90
       43
 90
        3
 90
        7
 90
        8
 90
       43
 90
        3
 90
        6
 90
        7
 90
       43
 90
        3
 90
       43
 90
        5
 90
        6
 90
        3
 90
        3
 90
        4
 90
        5
 90
        4
 90
        2
 90
        3
 90
       42
 90
       47
 90
        4
 90
       39
 90
        2
 90
       47
 90
       48
 90
        4
 90
       38
 90
       39
 90
       48
 90
       40
 90
        4
 90
       37
 90
       38
 90
       40
 90
       71
 90
        4
 90
       36
 90
       37
 90
       71
 90
       70
 90
        3
 90
       34
 90
       35
 90
       69
 90
        4
 90
       35
 90
       36
 90
       70
 90
       69
 90
        3
 90
       33
 90
       34
 90
       69
 90
        3
 90
       31
 90
       32
 90
       68
 90
        4
 90
       32
 90
       33
 90
       69
 90
       68
 90
        3
 90
       30
 90
       31
 90
       68
 90
        3
 90
       28
 90
       29
 90
       67
 90
        4
 90
       29
 90
       30
 90
       68
 90
       67
 90
        3
 90
       27
 90
       28
 90
       67
 90
        3
 90
       25
 90
       26
 90
       66
 90
        4
 90
       26
 90
       27
 90
       67
 90
       66
 90
        4
 90
       24
 90
       25
 90
       66
 90
       65
 90
        4
 90
       72
 90
       75
 90
       74
 90
       73
 90
        4
 90
       76
 90
       79
 90
       78
 90
       77
 90
        4
 90
       80
 90
       81
 90
       79
 90
       76
 90
        3
 90
       80
 90
       82
 90
       81
 90
        4
 90
       83
 90
       84
 90
       82
 90
       80
 90
        3
 90
       83
 90
       85
 90
       84
 90
        4
 90
       86
 90
       87
 90
       85
 90
       83
 90
        4
 90
       88
 90
       89
 90
       87
 90
       86
 90
        4
 90
       90
 90
       91
 90
       89
 90
       88
 90
        4
 90
       92
 90
       93
 90
       91
 90
       90
 90
        4
 90
       94
 90
       95
 90
       93
 90
       92
 90
        3
 90
       94
 90
       96
 90
       95
 90
        3
 90
       94
 90
       97
 90
       96
 90
        4
 90
       98
 90
       99
 90
       97
 90
       94
 90
        4
 90
      100
 90
      103
 90
      102
 90
      101
 90
        4
 90
      101
 90
      102
 90
      105
 90
      104
 90
        4
 90
      104
 90
      105
 90
      107
 90
      106
 90
        4
 90
      108
 90
      109
 90
       99
 90
       98
 90
        4
 90
      106
 90
      110
 90
      109
 90
      108
 90
        3
 90
      106
 90
      111
 90
      110
 90
        3
 90
      106
 90
      107
 90
      111
 90
        4
 90
      112
 90
      114
 90
      103
 90
      113
 90
        3
 90
      115
 90
      103
 90
      100
 90
        3
 90
      116
 90
      103
 90
      115
 90
        3
 90
      117
 90
      103
 90
      116
 90
        3
 90
      103
 90
      117
 90
      113
 90
        3
 90
      112
 90
      113
 90
      118
 90
        4
 90
      119
 90
      120
 90
      114
 90
      112
 90
        4
 90
      121
 90
      122
 90
      120
 90
      119
 90
        4
 90
      123
 90
      124
 90
      122
 90
      121
 90
        4
 90
      125
 90
      126
 90
      124
 90
      123
 90
        4
 90
      127
 90
      128
 90
      126
 90
      125
 90
        3
 90
      129
 90
      131
 90
      130
 90
        4
 90
      130
 90
      131
 90
      128
 90
      127
 90
        3
 90
      132
 90
      131
 90
      129
 90
        3
 90
      133
 90
      135
 90
      134
 90
        4
 90
      134
 90
      135
 90
      131
 90
      132
 90
        3
 90
      136
 90
      135
 90
      133
 90
        3
 90
      137
 90
      139
 90
      138
 90
        4
 90
      138
 90
      139
 90
      135
 90
      136
 90
        3
 90
      140
 90
      139
 90
      137
 90
        3
 90
      141
 90
      143
 90
      142
 90
        4
 90
      142
 90
      143
 90
      139
 90
      140
 90
        4
 90
       74
 90
       75
 90
      143
 90
      141
 94
      302
 90
       76
 90
       77
 90
       23
 90
       77
 90
       22
 90
       23
 90
       22
 90
       76
 90
       77
 90
       78
 90
       41
 90
       78
 90
       23
 90
       41
 90
       78
 90
       79
 90
       49
 90
       79
 90
       41
 90
       49
 90
       79
 90
       81
 90
       50
 90
       81
 90
       49
 90
       50
 90
       81
 90
       82
 90
       51
 90
       82
 90
       50
 90
       51
 90
       82
 90
       84
 90
       52
 90
       84
 90
       51
 90
       52
 90
       84
 90
       85
 90
       46
 90
       85
 90
       46
 90
       52
 90
       85
 90
       87
 90
       44
 90
       87
 90
       44
 90
       46
 90
       87
 90
       89
 90
       45
 90
       89
 90
       44
 90
       45
 90
       89
 90
       91
 90
       59
 90
       91
 90
       45
 90
       59
 90
       91
 90
       93
 90
       60
 90
       93
 90
       59
 90
       60
 90
       93
 90
       95
 90
       56
 90
       95
 90
       56
 90
       60
 90
       95
 90
       96
 90
       63
 90
       96
 90
       56
 90
       63
 90
       96
 90
       97
 90
       64
 90
       97
 90
       63
 90
       64
 90
       97
 90
       99
 90
       53
 90
       99
 90
       53
 90
       64
 90
       99
 90
      109
 90
       54
 90
      109
 90
       53
 90
       54
 90
      109
 90
      110
 90
       61
 90
      110
 90
       54
 90
       61
 90
      110
 90
      111
 90
       62
 90
      111
 90
       61
 90
       62
 90
      107
 90
      111
 90
       55
 90
      107
 90
       55
 90
       62
 90
      105
 90
      107
 90
       57
 90
      105
 90
       55
 90
       57
 90
      102
 90
      105
 90
       58
 90
      102
 90
       57
 90
       58
 90
      102
 90
      103
 90
       43
 90
      103
 90
       43
 90
       58
 90
      103
 90
      114
 90
       42
 90
      114
 90
       42
 90
       43
 90
      114
 90
      120
 90
       47
 90
      120
 90
       42
 90
       47
 90
      120
 90
      122
 90
       48
 90
      122
 90
       47
 90
       48
 90
      122
 90
      124
 90
       40
 90
      124
 90
       40
 90
       48
 90
      124
 90
      126
 90
       71
 90
      126
 90
       40
 90
       71
 90
      126
 90
      128
 90
       70
 90
      128
 90
       70
 90
       71
 90
      128
 90
      131
 90
       69
 90
      131
 90
       69
 90
       70
 90
      131
 90
      135
 90
       68
 90
      135
 90
       68
 90
       69
 90
      135
 90
      139
 90
       67
 90
      139
 90
       67
 90
       68
 90
      139
 90
      143
 90
       66
 90
      143
 90
       66
 90
       67
 90
       75
 90
      143
 90
       65
 90
       75
 90
       65
 90
       66
 90
       72
 90
       75
 90
        0
 90
       72
 90
        0
 90
       65
 90
       72
 90
       73
 90
        1
 90
       73
 90
        0
 90
        1
 90
       73
 90
       74
 90
       24
 90
       74
 90
        1
 90
       24
 90
       74
 90
      141
 90
       25
 90
      141
 90
       24
 90
       25
 90
      141
 90
      142
 90
       26
 90
      142
 90
       25
 90
       26
 90
      140
 90
      142
 90
       27
 90
      140
 90
       26
 90
       27
 90
      137
 90
      140
 90
       28
 90
      137
 90
       27
 90
       28
 90
      137
 90
      138
 90
       29
 90
      138
 90
       28
 90
       29
 90
      136
 90
      138
 90
       30
 90
      136
 90
       29
 90
       30
 90
      133
 90
      136
 90
       31
 90
      133
 90
       30
 90
       31
 90
      133
 90
      134
 90
       32
 90
      134
 90
       31
 90
       32
 90
      132
 90
      134
 90
       33
 90
      132
 90
       32
 90
       33
 90
      129
 90
      132
 90
       34
 90
      129
 90
       33
 90
       34
 90
      129
 90
      130
 90
       35
 90
      130
 90
       34
 90
       35
 90
      127
 90
      130
 90
       36
 90
      127
 90
       35
 90
       36
 90
      125
 90
      127
 90
       37
 90
      125
 90
       36
 90
       37
 90
      123
 90
      125
 90
       38
 90
      123
 90
       37
 90
       38
 90
      121
 90
      123
 90
       39
 90
      121
 90
       38
 90
       39
 90
      119
 90
      121
 90
        2
 90
      119
 90
        2
 90
       39
 90
      112
 90
      119
 90
        3
 90
      112
 90
        2
 90
        3
 90
      112
 90
      118
 90
        4
 90
      118
 90
        3
 90
        4
 90
      113
 90
      118
 90
        5
 90
      113
 90
        4
 90
        5
 90
      113
 90
      117
 90
        6
 90
      117
 90
        5
 90
        6
 90
      116
 90
      117
 90
        7
 90
      116
 90
        6
 90
        7
 90
      115
 90
      116
 90
        8
 90
      115
 90
        7
 90
        8
 90
      100
 90
      115
 90
        9
 90
      100
 90
        8
 90
        9
 90
      100
 90
      101
 90
       10
 90
      101
 90
        9
 90
       10
 90
      101
 90
      104
 90
       11
 90
      104
 90
       10
 90
       11
 90
      104
 90
      106
 90
       12
 90
      106
 90
       11
 90
       12
 90
      106
 90
      108
 90
       13
 90
      108
 90
       12
 90
       13
 90
       98
 90
      108
 90
       14
 90
       98
 90
       13
 90
       14
 90
       94
 90
       98
 90
       15
 90
       94
 90
       14
 90
       15
 90
       92
 90
       94
 90
       16
 90
       92
 90
       15
 90
       16
 90
       90
 90
       92
 90
       17
 90
       90
 90
       16
 90
       17
 90
       88
 90
       90
 90
       18
 90
       88
 90
       17
 90
       18
 90
       86
 90
       88
 90
       19
 90
       86
 90
       18
 90
       19
 90
       83
 90
       86
 90
       20
 90
       83
 90
       19
 90
       20
 90
       80
 90
       83
 90
       21
 90
       80
 90
       20
 90
       21
 90
       76
 90
       80
 90
       21
 90
       22
 90
       24
 90
       65
 90
       22
 90
       49
 90
       21
 90
       50
 90
       21
 90
       51
 90
       20
 90
       52
 90
       20
 90
       46
 90
       19
 90
       44
 90
       18
 90
       45
 90
       17
 90
       59
 90
       16
 90
       60
 90
       15
 90
       56
 90
       15
 90
       63
 90
       15
 90
       64
 90
       14
 90
       53
 90
       10
 90
       58
 90
        9
 90
       43
 90
       11
 90
       57
 90
       12
 90
       55
 90
       13
 90
       54
 90
       12
 90
       61
 90
       12
 90
       62
 90
        3
 90
        5
 90
        5
 90
       43
 90
        3
 90
       42
 90
        8
 90
       43
 90
        7
 90
       43
 90
        6
 90
       43
 90
        2
 90
       47
 90
       39
 90
       48
 90
       38
 90
       40
 90
       37
 90
       71
 90
       36
 90
       70
 90
       35
 90
       69
 90
       34
 90
       69
 90
       33
 90
       69
 90
       32
 90
       68
 90
       31
 90
       68
 90
       30
 90
       68
 90
       29
 90
       67
 90
       28
 90
       67
 90
       27
 90
       67
 90
       26
 90
       66
 90
       25
 90
       66
 90
       74
 90
       75
 90
       76
 90
       79
 90
       80
 90
       81
 90
       80
 90
       82
 90
       83
 90
       84
 90
       83
 90
       85
 90
       86
 90
       87
 90
       88
 90
       89
 90
       90
 90
       91
 90
       92
 90
       93
 90
       94
 90
       95
 90
       94
 90
       96
 90
       94
 90
       97
 90
       98
 90
       99
 90
      100
 90
      103
 90
      101
 90
      102
 90
      104
 90
      105
 90
      106
 90
      107
 90
      108
 90
      109
 90
      106
 90
      110
 90
      106
 90
      111
 90
      112
 90
      114
 90
      103
 90
      113
 90
      112
 90
      113
 90
      103
 90
      115
 90
      103
 90
      116
 90
      103
 90
      117
 90
      119
 90
      120
 90
      121
 90
      122
 90
      123
 90
      124
 90
      125
 90
      126
 90
      127
 90
      128
 90
      129
 90
      131
 90
      130
 90
      131
 90
      131
 90
      132
 90
      133
 90
      135
 90
      134
 90
      135
 90
      135
 90
      136
 90
      137
 90
      139
 90
      138
 90
      139
 90
      139
 90
      140
 90
      141
 90
      143
 90
      142
 90
      143
 95
      302
140
0.0
140
0.0
140
0.0
140
0.0
140
0.0
140
0.0
140
0.0
140
0.0
140
0.0
140
0.0
140
0.0
140
0.0
140
0.0
140
0.0
140
0.0
140
0.0
140
0.0
140
0.0
140
0.0
140
0.0
140
0.0
140
0.0
140
0.0
140
0.0
140
0.0
140
0.0
140
0.0
140
0.0
140
0.0
140
0.0
140
0.0
140
0.0
140
0.0
140
0.0
140
0.0
140
0.0
140
0.0
140
0.0
140
0.0
140
0.0
140
0.0
140
0.0
140
0.0
140
0.0
140
0.0
140
0.0
140
0.0
140
0.0
140
0.0
140
0.0
140
0.0
140
0.0
140
0.0
140
0.0
140
0.0
140
0.0
140
0.0
140
0.0
140
0.0
140
0.0
140
0.0
140
0.0
140
0.0
140
0.0
140
0.0
140
0.0
140
0.0
140
0.0
140
0.0
140
0.0
140
0.0
140
0.0
140
0.0
140
0.0
140
0.0
140
0.0
140
0.0
140
0.0
140
0.0
140
0.0
140
0.0
140
0.0
140
0.0
140
0.0
140
0.0
140
0.0
140
0.0
140
0.0
140
0.0
140
0.0
140
0.0
140
0.0
140
0.0
140
0.0
140
0.0
140
0.0
140
0.0
140
0.0
140
0.0
140
0.0
140
0.0
140
0.0
140
0.0
140
0.0
140
0.0
140
0.0
140
0.0
140
0.0
140
0.0
140
0.0
140
0.0
140
0.0
140
0.0
140
0.0
140
0.0
140
0.0
140
0.0
140
0.0
140
0.0
140
0.0
140
0.0
140
0.0
140
0.0
140
0.0
140
0.0
140
0.0
140
0.0
140
0.0
140
0.0
140
0.0
140
0.0
140
0.0
140
0.0
140
0.0
140
0.0
140
0.0
140
0.0
140
0.0
140
0.0
140
0.0
140
0.0
140
0.0
140
0.0
140
0.0
140
0.0
140
0.0
140
0.0
140
0.0
140
0.0
140
0.0
140
0.0
140
0.0
140
0.0
140
0.0
140
0.0
140
0.0
140
0.0
140
0.0
140
0.0
140
0.0
140
0.0
140
0.0
140
0.0
140
0.0
140
0.0
140
0.0
140
0.0
140
0.0
140
0.0
140
0.0
140
0.0
140
0.0
140
0.0
140
0.0
140
0.0
140
0.0
140
0.0
140
0.0
140
0.0
140
0.0
140
0.0
140
0.0
140
0.0
140
0.0
140
0.0
140
0.0
140
0.0
140
0.0
140
0.0
140
0.0
140
0.0
140
0.0
140
0.0
140
0.0
140
0.0
140
0.0
140
0.0
140
0.0
140
0.0
140
0.0
140
0.0
140
0.0
140
0.0
140
0.0
140
0.0
140
0.0
140
0.0
140
0.0
140
0.0
140
0.0
140
0.0
140
0.0
140
0.0
140
0.0
140
0.0
140
0.0
140
0.0
140
0.0
140
0.0
140
0.0
140
0.0
140
0.0
140
0.0
140
0.0
140
0.0
140
0.0
140
0.0
140
0.0
140
0.0
140
0.0
140
0.0
140
0.0
140
0.0
140
0.0
140
0.0
140
0.0
140
0.0
140
0.0
140
0.0
140
0.0
140
0.0
140
0.0
140
0.0
140
0.0
140
0.0
140
0.0
140
0.0
140
0.0
140
0.0
140
0.0
140
0.0
140
0.0
140
0.0
140
0.0
140
0.0
140
0.0
140
0.0
140
0.0
140
0.0
140
0.0
140
0.0
140
0.0
140
0.0
140
0.0
140
0.0
140
0.0
140
0.0
140
0.0
140
0.0
140
0.0
140
0.0
140
0.0
140
0.0
140
0.0
140
0.0
140
0.0
140
0.0
140
0.0
140
0.0
140
0.0
140
0.0
140
0.0
140
0.0
140
0.0
140
0.0
140
0.0
140
0.0
140
0.0
140
0.0
140
0.0
140
0.0
140
0.0
140
0.0
140
0.0
140
0.0
140
0.0
140
0.0
140
0.0
140
0.0
140
0.0
140
0.0
140
0.0
 90
        0
  0
POLYLINE
  5
FA
330
1F
100
AcDbEntity
  8
OracDecor_cornice_mouldings
 62
   113
420
  5759375
100
AcDb2dPolyline
 66
     1
 10
0.0
 20
0.0
 30
0.0000044436042117
 70
     1
210
-0.9999999999999769
220
0.0000001788139343
230
-0.0000001192092896
  0
VERTEX
  5
FB
330
FA
100
AcDbEntity
  8
OracDecor_cornice_mouldings
 62
   113
420
  5759375
100
AcDbVertex
100
AcDb2dVertex
 10
-0.0000656132906443
 20
-75.98843383789063
 30
0.0000044436042117
  0
VERTEX
  5
FC
330
FA
100
AcDbEntity
  8
OracDecor_cornice_mouldings
 62
   113
420
  5759375
100
AcDbVertex
100
AcDb2dVertex
 10
-0.0009461466106586
 20
-68.41883087158203
 30
0.0000044436042117
  0
VERTEX
  5
FD
330
FA
100
AcDbEntity
  8
OracDecor_cornice_mouldings
 62
   113
420
  5759375
100
AcDbVertex
100
AcDb2dVertex
 10
-0.5914765000343323
 20
-68.11361694335937
 30
0.0000044436042117
  0
VERTEX
  5
FE
330
FA
100
AcDbEntity
  8
OracDecor_cornice_mouldings
 62
   113
420
  5759375
100
AcDbVertex
100
AcDb2dVertex
 10
-1.037113308906555
 20
-67.61066436767578
 30
0.0000044436042117
  0
VERTEX
  5
FF
330
FA
100
AcDbEntity
  8
OracDecor_cornice_mouldings
 62
   113
420
  5759375
100
AcDbVertex
100
AcDb2dVertex
 10
-1.279003143310546
 20
-66.97652435302734
 30
0.0000044436042117
  0
VERTEX
  5
100
330
FA
100
AcDbEntity
  8
OracDecor_cornice_mouldings
 62
   113
420
  5759375
100
AcDbVertex
100
AcDb2dVertex
 10
-1.285179138183593
 20
-66.29501342773437
 30
0.0000044436042117
  0
VERTEX
  5
101
330
FA
100
AcDbEntity
  8
OracDecor_cornice_mouldings
 62
   113
420
  5759375
100
AcDbVertex
100
AcDb2dVertex
 10
-1.054756045341491
 20
-65.65619659423828
 30
0.0000044436042117
  0
VERTEX
  5
102
330
FA
100
AcDbEntity
  8
OracDecor_cornice_mouldings
 62
   113
420
  5759375
100
AcDbVertex
100
AcDb2dVertex
 10
-0.0014759892364964
 20
-63.83977127075195
 30
0.0000044436042117
  0
VERTEX
  5
103
330
FA
100
AcDbEntity
  8
OracDecor_cornice_mouldings
 62
   113
420
  5759375
100
AcDbVertex
100
AcDb2dVertex
 10
-0.002486125798896
 20
-55.1666259765625
 30
0.0000044436042117
  0
VERTEX
  5
104
330
FA
100
AcDbEntity
  8
OracDecor_cornice_mouldings
 62
   113
420
  5759375
100
AcDbVertex
100
AcDb2dVertex
 10
-1.352717280387878
 20
-54.99347686767578
 30
0.0000044436042117
  0
VERTEX
  5
105
330
FA
100
AcDbEntity
  8
OracDecor_cornice_mouldings
 62
   113
420
  5759375
100
AcDbVertex
100
AcDb2dVertex
 10
-2.236460447311401
 20
-54.49288940429688
 30
0.0000044436042117
  0
VERTEX
  5
106
330
FA
100
AcDbEntity
  8
OracDecor_cornice_mouldings
 62
   113
420
  5759375
100
AcDbVertex
100
AcDb2dVertex
 10
-2.911860227584838
 20
-53.72046279907227
 30
0.0000044436042117
  0
VERTEX
  5
107
330
FA
100
AcDbEntity
  8
OracDecor_cornice_mouldings
 62
   113
420
  5759375
100
AcDbVertex
100
AcDb2dVertex
 10
-16.41918182373047
 20
-31.96419525146485
 30
0.0000044436042117
  0
VERTEX
  5
108
330
FA
100
AcDbEntity
  8
OracDecor_cornice_mouldings
 62
   113
420
  5759375
100
AcDbVertex
100
AcDb2dVertex
 10
-16.87203598022461
 20
-31.01424789428711
 30
0.0000044436042117
  0
VERTEX
  5
109
330
FA
100
AcDbEntity
  8
OracDecor_cornice_mouldings
 62
   113
420
  5759375
100
AcDbVertex
100
AcDb2dVertex
 10
-16.99139785766601
 20
-29.96273040771484
 30
0.0000044436042117
  0
VERTEX
  5
10A
330
FA
100
AcDbEntity
  8
OracDecor_cornice_mouldings
 62
   113
420
  5759375
100
AcDbVertex
100
AcDb2dVertex
 10
-16.72136688232422
 20
-28.82581520080567
 30
0.0000044436042117
  0
VERTEX
  5
10B
330
FA
100
AcDbEntity
  8
OracDecor_cornice_mouldings
 62
   113
420
  5759375
100
AcDbVertex
100
AcDb2dVertex
 10
-16.64176177978515
 20
-28.48415756225586
 30
0.0000044436042117
  0
VERTEX
  5
10C
330
FA
100
AcDbEntity
  8
OracDecor_cornice_mouldings
 62
   113
420
  5759375
100
AcDbVertex
100
AcDb2dVertex
 10
-16.71133804321289
 20
-28.25513458251953
 30
0.0000044436042117
  0
VERTEX
  5
10D
330
FA
100
AcDbEntity
  8
OracDecor_cornice_mouldings
 62
   113
420
  5759375
100
AcDbVertex
100
AcDb2dVertex
 10
-16.87315368652344
 20
-28.08260726928711
 30
0.0000044436042117
  0
VERTEX
  5
10E
330
FA
100
AcDbEntity
  8
OracDecor_cornice_mouldings
 62
   113
420
  5759375
100
AcDbVertex
100
AcDb2dVertex
 10
-38.25626373291015
 20
-13.97277355194092
 30
0.0000044436042117
  0
VERTEX
  5
10F
330
FA
100
AcDbEntity
  8
OracDecor_cornice_mouldings
 62
   113
420
  5759375
100
AcDbVertex
100
AcDb2dVertex
 10
-38.47589874267578
 20
-13.89359188079834
 30
0.0000044436042117
  0
VERTEX
  5
110
330
FA
100
AcDbEntity
  8
OracDecor_cornice_mouldings
 62
   113
420
  5759375
100
AcDbVertex
100
AcDb2dVertex
 10
-38.70651245117187
 20
-13.92454242706299
 30
0.0000044436042117
  0
VERTEX
  5
111
330
FA
100
AcDbEntity
  8
OracDecor_cornice_mouldings
 62
   113
420
  5759375
100
AcDbVertex
100
AcDb2dVertex
 10
-38.95018005371094
 20
-14.11627101898193
 30
0.0000044436042117
  0
VERTEX
  5
112
330
FA
100
AcDbEntity
  8
OracDecor_cornice_mouldings
 62
   113
420
  5759375
100
AcDbVertex
100
AcDb2dVertex
 10
-39.8389892578125
 20
-14.83406543731689
 30
0.0000044436042117
  0
VERTEX
  5
113
330
FA
100
AcDbEntity
  8
OracDecor_cornice_mouldings
 62
   113
420
  5759375
100
AcDbVertex
100
AcDb2dVertex
 10
-40.84557342529296
 20
-15.15785312652588
 30
0.0000044436042117
  0
VERTEX
  5
114
330
FA
100
AcDbEntity
  8
OracDecor_cornice_mouldings
 62
   113
420
  5759375
100
AcDbVertex
100
AcDb2dVertex
 10
-41.89868927001953
 20
-15.10554790496826
 30
0.0000044436042117
  0
VERTEX
  5
115
330
FA
100
AcDbEntity
  8
OracDecor_cornice_mouldings
 62
   113
420
  5759375
100
AcDbVertex
100
AcDb2dVertex
 10
-47.54288101196289
 20
-14.09694194793701
 30
0.0000044436042117
  0
VERTEX
  5
116
330
FA
100
AcDbEntity
  8
OracDecor_cornice_mouldings
 62
   113
420
  5759375
100
AcDbVertex
100
AcDb2dVertex
 10
-87.70404815673828
 20
-9.682747840881347
 30
0.0000044436042117
  0
VERTEX
  5
117
330
FA
100
AcDbEntity
  8
OracDecor_cornice_mouldings
 62
   113
420
  5759375
100
AcDbVertex
100
AcDb2dVertex
 10
-90.27309417724609
 20
-9.002260208129882
 30
0.0000044436042117
  0
VERTEX
  5
118
330
FA
100
AcDbEntity
  8
OracDecor_cornice_mouldings
 62
   113
420
  5759375
100
AcDbVertex
100
AcDb2dVertex
 10
-92.54209899902344
 20
-7.584325313568115
 30
0.0000044436042117
  0
VERTEX
  5
119
330
FA
100
AcDbEntity
  8
OracDecor_cornice_mouldings
 62
   113
420
  5759375
100
AcDbVertex
100
AcDb2dVertex
 10
-94.31697082519532
 20
-5.550282955169677
 30
0.0000044436042117
  0
VERTEX
  5
11A
330
FA
100
AcDbEntity
  8
OracDecor_cornice_mouldings
 62
   113
420
  5759375
100
AcDbVertex
100
AcDb2dVertex
 10
-95.44664764404297
 20
-3.073292970657348
 30
0.0000044436042117
  0
VERTEX
  5
11B
330
FA
100
AcDbEntity
  8
OracDecor_cornice_mouldings
 62
   113
420
  5759375
100
AcDbVertex
100
AcDb2dVertex
 10
-95.83446502685546
 20
-0.0000049634618335
 30
0.0000044436042117
  0
VERTEX
  5
11C
330
FA
100
AcDbEntity
  8
OracDecor_cornice_mouldings
 62
   113
420
  5759375
100
AcDbVertex
100
AcDb2dVertex
 10
-116.0082626342773
 20
-0.0023656997364014
 30
0.0000044436042117
  0
VERTEX
  5
11D
330
FA
100
AcDbEntity
  8
OracDecor_cornice_mouldings
 62
   113
420
  5759375
100
AcDbVertex
100
AcDb2dVertex
 10
-116.0071029663086
 20
-9.892708778381347
 30
0.0000044436042117
  0
VERTEX
  5
11E
330
FA
100
AcDbEntity
  8
OracDecor_cornice_mouldings
 62
   113
420
  5759375
100
AcDbVertex
100
AcDb2dVertex
 10
-105.4158554077148
 20
-9.891485214233398
 30
0.0000044436042117
  0
VERTEX
  5
11F
330
FA
100
AcDbEntity
  8
OracDecor_cornice_mouldings
 62
   113
420
  5759375
100
AcDbVertex
100
AcDb2dVertex
 10
-105.4151382446289
 20
-16.13802337646484
 30
0.0000044436042117
  0
VERTEX
  5
120
330
FA
100
AcDbEntity
  8
OracDecor_cornice_mouldings
 62
   113
420
  5759375
100
AcDbVertex
100
AcDb2dVertex
 10
-50.44083786010742
 20
-22.09517669677734
 30
0.0000044436042117
  0
VERTEX
  5
121
330
FA
100
AcDbEntity
  8
OracDecor_cornice_mouldings
 62
   113
420
  5759375
100
AcDbVertex
100
AcDb2dVertex
 10
-46.18699645996094
 20
-22.70099449157715
 30
0.0000044436042117
  0
VERTEX
  5
122
330
FA
100
AcDbEntity
  8
OracDecor_cornice_mouldings
 62
   113
420
  5759375
100
AcDbVertex
100
AcDb2dVertex
 10
-42.64897537231445
 20
-23.46638298034668
 30
0.0000044436042117
  0
VERTEX
  5
123
330
FA
100
AcDbEntity
  8
OracDecor_cornice_mouldings
 62
   113
420
  5759375
100
AcDbVertex
100
AcDb2dVertex
 10
-39.57722091674805
 20
-24.37449645996094
 30
0.0000044436042117
  0
VERTEX
  5
124
330
FA
100
AcDbEntity
  8
OracDecor_cornice_mouldings
 62
   113
420
  5759375
100
AcDbVertex
100
AcDb2dVertex
 10
-36.61089706420899
 20
-25.52125358581543
 30
0.0000044436042117
  0
VERTEX
  5
125
330
FA
100
AcDbEntity
  8
OracDecor_cornice_mouldings
 62
   113
420
  5759375
100
AcDbVertex
100
AcDb2dVertex
 10
-33.99233627319336
 20
-26.80304145812988
 30
0.0000044436042117
  0
VERTEX
  5
126
330
FA
100
AcDbEntity
  8
OracDecor_cornice_mouldings
 62
   113
420
  5759375
100
AcDbVertex
100
AcDb2dVertex
 10
-31.68570709228516
 20
-28.19385528564453
 30
0.0000044436042117
  0
VERTEX
  5
127
330
FA
100
AcDbEntity
  8
OracDecor_cornice_mouldings
 62
   113
420
  5759375
100
AcDbVertex
100
AcDb2dVertex
 10
-29.53606033325196
 20
-29.75913238525391
 30
0.0000044436042117
  0
VERTEX
  5
128
330
FA
100
AcDbEntity
  8
OracDecor_cornice_mouldings
 62
   113
420
  5759375
100
AcDbVertex
100
AcDb2dVertex
 10
-27.54208755493164
 20
-31.49209785461426
 30
0.0000044436042117
  0
VERTEX
  5
129
330
FA
100
AcDbEntity
  8
OracDecor_cornice_mouldings
 62
   113
420
  5759375
100
AcDbVertex
100
AcDb2dVertex
 10
-25.70672607421875
 20
-33.37851333618164
 30
0.0000044436042117
  0
VERTEX
  5
12A
330
FA
100
AcDbEntity
  8
OracDecor_cornice_mouldings
 62
   113
420
  5759375
100
AcDbVertex
100
AcDb2dVertex
 10
-24.01121139526367
 20
-35.41738128662109
 30
0.0000044436042117
  0
VERTEX
  5
12B
330
FA
100
AcDbEntity
  8
OracDecor_cornice_mouldings
 62
   113
420
  5759375
100
AcDbVertex
100
AcDb2dVertex
 10
-22.47592926025391
 20
-37.56201553344727
 30
0.0000044436042117
  0
VERTEX
  5
12C
330
FA
100
AcDbEntity
  8
OracDecor_cornice_mouldings
 62
   113
420
  5759375
100
AcDbVertex
100
AcDb2dVertex
 10
-21.16412353515625
 20
-39.71136856079102
 30
0.0000044436042117
  0
VERTEX
  5
12D
330
FA
100
AcDbEntity
  8
OracDecor_cornice_mouldings
 62
   113
420
  5759375
100
AcDbVertex
100
AcDb2dVertex
 10
-19.23513793945312
 20
-43.89466094970702
 30
0.0000044436042117
  0
VERTEX
  5
12E
330
FA
100
AcDbEntity
  8
OracDecor_cornice_mouldings
 62
   113
420
  5759375
100
AcDbVertex
100
AcDb2dVertex
 10
-18.10296249389648
 20
-47.95733642578125
 30
0.0000044436042117
  0
VERTEX
  5
12F
330
FA
100
AcDbEntity
  8
OracDecor_cornice_mouldings
 62
   113
420
  5759375
100
AcDbVertex
100
AcDb2dVertex
 10
-17.65492630004883
 20
-52.04541015625
 30
0.0000044436042117
  0
VERTEX
  5
130
330
FA
100
AcDbEntity
  8
OracDecor_cornice_mouldings
 62
   113
420
  5759375
100
AcDbVertex
100
AcDb2dVertex
 10
-12.10952663421631
 20
-51.87721633911133
 30
0.0000044436042117
  0
VERTEX
  5
131
330
FA
100
AcDbEntity
  8
OracDecor_cornice_mouldings
 62
   113
420
  5759375
100
AcDbVertex
100
AcDb2dVertex
 10
-11.60073089599609
 20
-69.74324035644531
 30
0.0000044436042117
  0
VERTEX
  5
132
330
FA
100
AcDbEntity
  8
OracDecor_cornice_mouldings
 62
   113
420
  5759375
100
AcDbVertex
100
AcDb2dVertex
 10
-11.07246780395508
 20
-69.74383544921875
 30
0.0000044436042117
  0
VERTEX
  5
133
330
FA
100
AcDbEntity
  8
OracDecor_cornice_mouldings
 62
   113
420
  5759375
100
AcDbVertex
100
AcDb2dVertex
 10
-10.32718658447265
 20
-69.78639221191406
 30
0.0000044436042117
  0
VERTEX
  5
134
330
FA
100
AcDbEntity
  8
OracDecor_cornice_mouldings
 62
   113
420
  5759375
100
AcDbVertex
100
AcDb2dVertex
 10
-9.696052551269531
 20
-69.87763977050781
 30
0.0000044436042117
  0
VERTEX
  5
135
330
FA
100
AcDbEntity
  8
OracDecor_cornice_mouldings
 62
   113
420
  5759375
100
AcDbVertex
100
AcDb2dVertex
 10
-9.094570159912109
 20
-70.02435302734375
 30
0.0000044436042117
  0
VERTEX
  5
136
330
FA
100
AcDbEntity
  8
OracDecor_cornice_mouldings
 62
   113
420
  5759375
100
AcDbVertex
100
AcDb2dVertex
 10
-8.515712738037109
 20
-70.23026275634766
 30
0.0000044436042117
  0
VERTEX
  5
137
330
FA
100
AcDbEntity
  8
OracDecor_cornice_mouldings
 62
   113
420
  5759375
100
AcDbVertex
100
AcDb2dVertex
 10
-8.030994415283203
 20
-70.46851348876953
 30
0.0000044436042117
  0
VERTEX
  5
138
330
FA
100
AcDbEntity
  8
OracDecor_cornice_mouldings
 62
   113
420
  5759375
100
AcDbVertex
100
AcDb2dVertex
 10
-7.583187580108642
 20
-70.75997924804688
 30
0.0000044436042117
  0
VERTEX
  5
139
330
FA
100
AcDbEntity
  8
OracDecor_cornice_mouldings
 62
   113
420
  5759375
100
AcDbVertex
100
AcDb2dVertex
 10
-7.174301624298095
 20
-71.10418701171875
 30
0.0000044436042117
  0
VERTEX
  5
13A
330
FA
100
AcDbEntity
  8
OracDecor_cornice_mouldings
 62
   113
420
  5759375
100
AcDbVertex
100
AcDb2dVertex
 10
-6.821659564971923
 20
-71.48624420166015
 30
0.0000044436042117
  0
VERTEX
  5
13B
330
FA
100
AcDbEntity
  8
OracDecor_cornice_mouldings
 62
   113
420
  5759375
100
AcDbVertex
100
AcDb2dVertex
 10
-6.516979694366455
 20
-71.9072265625
 30
0.0000044436042117
  0
VERTEX
  5
13C
330
FA
100
AcDbEntity
  8
OracDecor_cornice_mouldings
 62
   113
420
  5759375
100
AcDbVertex
100
AcDb2dVertex
 10
-6.258202075958251
 20
-72.36519622802735
 30
0.0000044436042117
  0
VERTEX
  5
13D
330
FA
100
AcDbEntity
  8
OracDecor_cornice_mouldings
 62
   113
420
  5759375
100
AcDbVertex
100
AcDb2dVertex
 10
-6.032387256622314
 20
-72.8878173828125
 30
0.0000044436042117
  0
VERTEX
  5
13E
330
FA
100
AcDbEntity
  8
OracDecor_cornice_mouldings
 62
   113
420
  5759375
100
AcDbVertex
100
AcDb2dVertex
 10
-5.835827350616455
 20
-73.51194000244141
 30
0.0000044436042117
  0
VERTEX
  5
13F
330
FA
100
AcDbEntity
  8
OracDecor_cornice_mouldings
 62
   113
420
  5759375
100
AcDbVertex
100
AcDb2dVertex
 10
-5.698826789855957
 20
-74.12966918945312
 30
0.0000044436042117
  0
VERTEX
  5
140
330
FA
100
AcDbEntity
  8
OracDecor_cornice_mouldings
 62
   113
420
  5759375
100
AcDbVertex
100
AcDb2dVertex
 10
-5.612996101379394
 20
-74.74287414550781
 30
0.0000044436042117
  0
VERTEX
  5
141
330
FA
100
AcDbEntity
  8
OracDecor_cornice_mouldings
 62
   113
420
  5759375
100
AcDbVertex
100
AcDb2dVertex
 10
-5.561081886291503
 20
-75.47344970703125
 30
0.0000044436042117
  0
VERTEX
  5
142
330
FA
100
AcDbEntity
  8
OracDecor_cornice_mouldings
 62
   113
420
  5759375
100
AcDbVertex
100
AcDb2dVertex
 10
-5.547863960266113
 20
-75.98907470703125
 30
0.0000044436042117
  0
SEQEND
  5
143
330
FA
100
AcDbEntity
  8
OracDecor_cornice_mouldings
 62
   113
420
  5759375
  0
ENDSEC
  0
SECTION
  2
OBJECTS
  0
DICTIONARY
  5
C
330
0
100
AcDbDictionary
281
     1
  3
ACAD_COLOR
350
DC
  3
ACAD_DETAILVIEWSTYLE
350
F5
  3
ACAD_GROUP
350
D
  3
ACAD_LAYOUT
350
1A
  3
ACAD_MATERIAL
350
AA
  3
ACAD_MLEADERSTYLE
350
F1
  3
ACAD_MLINESTYLE
350
17
  3
ACAD_PLOTSETTINGS
350
19
  3
ACAD_PLOTSTYLENAME
350
E
  3
ACAD_SCALELIST
350
DF
  3
ACAD_SECTIONVIEWSTYLE
350
F3
  3
ACAD_TABLESTYLE
350
DD
  3
ACAD_VISUALSTYLE
350
C3
  3
ACDB_RECOMPOSE_DATA
350
150
  3
AcDbVariableDictionary
350
144
  0
DICTIONARY
  5
DC
102
{ACAD_REACTORS
330
C
102
}
330
C
100
AcDbDictionary
281
     1
  0
DICTIONARY
  5
F5
102
{ACAD_REACTORS
330
C
102
}
330
C
100
AcDbDictionary
281
     1
  3
Imperial24
350
F6
  0
DICTIONARY
  5
D
102
{ACAD_REACTORS
330
C
102
}
330
C
100
AcDbDictionary
281
     1
  0
DICTIONARY
  5
1A
102
{ACAD_REACTORS
330
C
102
}
330
C
100
AcDbDictionary
281
     1
  3
Layout1
350
1E
  3
Layout2
350
26
  3
Model
350
22
  0
DICTIONARY
  5
AA
102
{ACAD_REACTORS
330
C
102
}
330
C
100
AcDbDictionary
281
     1
  3
ByBlock
350
B3
  3
ByLayer
350
AB
  3
Global
350
BB
  0
DICTIONARY
  5
F1
102
{ACAD_REACTORS
330
C
102
}
330
C
100
AcDbDictionary
281
     1
  3
Standard
350
F2
  0
DICTIONARY
  5
17
102
{ACAD_REACTORS
330
C
102
}
330
C
100
AcDbDictionary
281
     1
  3
Standard
350
18
  0
DICTIONARY
  5
19
102
{ACAD_REACTORS
330
C
102
}
330
C
100
AcDbDictionary
281
     1
  0
ACDBDICTIONARYWDFLT
  5
E
102
{ACAD_REACTORS
330
C
102
}
330
C
100
AcDbDictionary
281
     1
  3
ByLayer
350
2D
  3
Normal
350
F
100
AcDbDictionaryWithDefault
340
F
  0
DICTIONARY
  5
DF
102
{ACAD_REACTORS
330
C
102
}
330
C
100
AcDbDictionary
281
     1
  3
A0
350
E0
  3
A1
350
E1
  3
A2
350
E2
  3
A3
350
E3
  3
A4
350
E4
  3
A5
350
E5
  3
A6
350
E6
  3
A7
350
E7
  3
A8
350
E8
  3
A9
350
E9
  3
B0
350
EA
  3
B1
350
EB
  3
B2
350
EC
  3
B3
350
ED
  3
B4
350
EE
  3
B5
350
EF
  3
B6
350
F0
  0
DICTIONARY
  5
F3
102
{ACAD_REACTORS
330
C
102
}
330
C
100
AcDbDictionary
281
     1
  3
Imperial24
350
F4
  0
DICTIONARY
  5
DD
102
{ACAD_REACTORS
330
C
102
}
330
C
100
AcDbDictionary
281
     1
  3
Standard
350
DE
  0
DICTIONARY
  5
C3
102
{ACAD_REACTORS
330
C
102
}
330
C
100
AcDbDictionary
281
     1
  3
2dWireframe
350
C9
  3
Basic
350
C8
  3
Brighten
350
CF
  3
ColorChange
350
D3
  3
Conceptual
350
CC
  3
Dim
350
CE
  3
EdgeColorOff
350
DB
  3
Facepattern
350
D2
  3
Flat
350
C4
  3
FlatWithEdges
350
C5
  3
Gouraud
350
C6
  3
GouraudWithEdges
350
C7
  3
Hidden
350
CB
  3
JitterOff
350
D9
  3
Linepattern
350
D1
  3
OverhangOff
350
DA
  3
Realistic
350
CD
  3
Shaded
350
D8
  3
Shaded with edges
350
D7
  3
Shades of Gray
350
D4
  3
Sketchy
350
D5
  3
Thicken
350
D0
  3
Wireframe
350
CA
  3
X-Ray
350
D6
  0
XRECORD
  5
150
102
{ACAD_REACTORS
330
C
102
}
330
C
100
AcDbXrecord
280
     1
 90
        1
330
DE
  0
DICTIONARY
  5
144
102
{ACAD_REACTORS
330
C
102
}
330
C
100
AcDbDictionary
281
     1
  3
CANNOSCALE
350
14A
  3
CMLEADERSTYLE
350
146
  3
CTABLESTYLE
350
145
  3
CVIEWDETAILSTYLE
350
147
  3
CVIEWSECTIONSTYLE
350
148
  3
LAYEREVAL
350
14C
  3
LAYERNOTIFY
350
14D
  3
LIGHTINGUNITS
350
14B
  3
MSLTSCALE
350
149
  0
ACDBDETAILVIEWSTYLE
  5
F6
102
{ACAD_XDICTIONARY
360
185
102
}
102
{ACAD_REACTORS
330
F5
102
}
330
F5
100
AcDbModelDocViewStyle
 70
     0
  3
Imperial24
290
     0
100
AcDbDetailViewStyle
 70
     0
 71
     0
 90
        3
 71
     1
340
11
 62
   256
 40
0.24
340
0
 62
   256
 40
0.24
300

 40
0.36
280
     3
 71
     2
340
16
 90
       25
 62
   256
 71
     3
340
11
 62
   256
 40
0.24
 90
        1
 40
0.75
 90
        1
300
%<\AcVar ViewType \f "%tc1">% %<\AcVar ViewDetailId>%\PSCALE %<\AcVar ViewScale \f "%sn">%
 71
     4
340
16
 90
       25
 62
   256
340
16
 90
       25
 62
   256
280
     0
  0
LAYOUT
  5
1E
102
{ACAD_REACTORS
330
1A
102
}
330
1A
100
AcDbPlotSettings
  1

  2
\\KTXNTBDC\CASF2PN1
  4

  6

 40
0.0
 41
0.0
 42
0.0
 43
0.0
 44
0.0
 45
0.0
 46
0.0
 47
0.0
 48
0.0
 49
0.0
140
0.0
141
0.0
142
1.0
143
1.0
 70
   688
 72
     0
 73
     0
 74
     5
  7

 75
    16
147
1.0
 76
     0
 77
     2
 78
   300
148
0.0
149
0.0
100
AcDbLayout
  1
Layout1
 70
     1
 71
     1
 10
0.0
 20
0.0
 11
12.0
 21
9.0
 12
0.0
 22
0.0
 32
0.0
 14
1.000000000000000E+20
 24
1.000000000000000E+20
 34
1.000000000000000E+20
 15
-1.000000000000000E+20
 25
-1.000000000000000E+20
 35
-1.000000000000000E+20
146
0.0
 13
0.0
 23
0.0
 33
0.0
 16
1.0
 26
0.0
 36
0.0
 17
0.0
 27
1.0
 37
0.0
 76
     0
330
1B
  0
LAYOUT
  5
26
102
{ACAD_REACTORS
330
1A
102
}
330
1A
100
AcDbPlotSettings
  1

  2
\\KTXNTBDC\CASF2PN1
  4

  6

 40
0.0
 41
0.0
 42
0.0
 43
0.0
 44
0.0
 45
0.0
 46
0.0
 47
0.0
 48
0.0
 49
0.0
140
0.0
141
0.0
142
1.0
143
1.0
 70
   688
 72
     0
 73
     0
 74
     5
  7

 75
    16
147
1.0
 76
     0
 77
     2
 78
   300
148
0.0
149
0.0
100
AcDbLayout
  1
Layout2
 70
     1
 71
     2
 10
0.0
 20
0.0
 11
12.0
 21
9.0
 12
0.0
 22
0.0
 32
0.0
 14
0.0
 24
0.0
 34
0.0
 15
0.0
 25
0.0
 35
0.0
146
0.0
 13
0.0
 23
0.0
 33
0.0
 16
1.0
 26
0.0
 36
0.0
 17
0.0
 27
1.0
 37
0.0
 76
     0
330
23
  0
LAYOUT
  5
22
102
{ACAD_REACTORS
330
1A
102
}
330
1A
100
AcDbPlotSettings
  1

  2
\\KTXNTBDC\CASF2PN1
  4

  6

 40
0.0
 41
0.0
 42
0.0
 43
0.0
 44
0.0
 45
0.0
 46
0.0
 47
0.0
 48
0.0
 49
0.0
140
0.0
141
0.0
142
1.0
143
1.0
 70
  1712
 72
     0
 73
     0
 74
     0
  7

 75
     0
147
1.0
 76
     0
 77
     2
 78
   300
148
0.0
149
0.0
100
AcDbLayout
  1
Model
 70
     1
 71
     0
 10
0.0
 20
0.0
 11
12.0
 21
9.0
 12
0.0
 22
0.0
 32
0.0
 14
0.0
 24
0.0
 34
0.0
 15
0.0
 25
0.0
 35
0.0
146
0.0
 13
0.0
 23
0.0
 33
0.0
 16
1.0
 26
0.0
 36
0.0
 17
0.0
 27
1.0
 37
0.0
 76
     0
330
1F
  0
MATERIAL
  5
B3
102
{ACAD_XDICTIONARY
360
B4
102
}
102
{ACAD_REACTORS
330
AA
102
}
330
AA
100
AcDbMaterial
  1
ByBlock
 72
     0
 43
0.0208333333333333
 43
0.0
 43
0.0
 43
0.0
 43
0.0
 43
0.0208333333333333
 43
0.0
 43
0.0
 43
0.0
 43
0.0
 43
1.0
 43
0.0
 43
0.0
 43
0.0
 43
0.0
 43
1.0
 77
     0
 47
0.0208333333333333
 47
0.0
 47
0.0
 47
0.0
 47
0.0
 47
0.0208333333333333
 47
0.0
 47
0.0
 47
0.0
 47
0.0
 47
1.0
 47
0.0
 47
0.0
 47
0.0
 47
0.0
 47
1.0
171
     0
 49
0.0208333333333333
 49
0.0
 49
0.0
 49
0.0
 49
0.0
 49
0.0208333333333333
 49
0.0
 49
0.0
 49
0.0
 49
0.0
 49
1.0
 49
0.0
 49
0.0
 49
0.0
 49
0.0
 49
1.0
175
     0
142
0.0208333333333333
142
0.0
142
0.0
142
0.0
142
0.0
142
0.0208333333333333
142
0.0
142
0.0
142
0.0
142
0.0
142
1.0
142
0.0
142
0.0
142
0.0
142
0.0
142
1.0
179
     0
144
0.0208333333333333
144
0.0
144
0.0
144
0.0
144
0.0
144
0.0208333333333333
144
0.0
144
0.0
144
0.0
144
0.0
144
1.0
144
0.0
144
0.0
144
0.0
144
0.0
144
1.0
147
0.0208333333333333
147
0.0
147
0.0
147
0.0
147
0.0
147
0.0208333333333333
147
0.0
147
0.0
147
0.0
147
0.0
147
1.0
147
0.0
147
0.0
147
0.0
147
0.0
147
1.0
  0
MATERIAL
  5
AB
102
{ACAD_XDICTIONARY
360
AC
102
}
102
{ACAD_REACTORS
330
AA
102
}
330
AA
100
AcDbMaterial
  1
ByLayer
 72
     0
 43
0.0208333333333333
 43
0.0
 43
0.0
 43
0.0
 43
0.0
 43
0.0208333333333333
 43
0.0
 43
0.0
 43
0.0
 43
0.0
 43
1.0
 43
0.0
 43
0.0
 43
0.0
 43
0.0
 43
1.0
 77
     0
 47
0.0208333333333333
 47
0.0
 47
0.0
 47
0.0
 47
0.0
 47
0.0208333333333333
 47
0.0
 47
0.0
 47
0.0
 47
0.0
 47
1.0
 47
0.0
 47
0.0
 47
0.0
 47
0.0
 47
1.0
171
     0
 49
0.0208333333333333
 49
0.0
 49
0.0
 49
0.0
 49
0.0
 49
0.0208333333333333
 49
0.0
 49
0.0
 49
0.0
 49
0.0
 49
1.0
 49
0.0
 49
0.0
 49
0.0
 49
0.0
 49
1.0
175
     0
142
0.0208333333333333
142
0.0
142
0.0
142
0.0
142
0.0
142
0.0208333333333333
142
0.0
142
0.0
142
0.0
142
0.0
142
1.0
142
0.0
142
0.0
142
0.0
142
0.0
142
1.0
179
     0
144
0.0208333333333333
144
0.0
144
0.0
144
0.0
144
0.0
144
0.0208333333333333
144
0.0
144
0.0
144
0.0
144
0.0
144
1.0
144
0.0
144
0.0
144
0.0
144
0.0
144
1.0
147
0.0208333333333333
147
0.0
147
0.0
147
0.0
147
0.0
147
0.0208333333333333
147
0.0
147
0.0
147
0.0
147
0.0
147
1.0
147
0.0
147
0.0
147
0.0
147
0.0
147
1.0
  0
MATERIAL
  5
BB
102
{ACAD_XDICTIONARY
360
BC
102
}
102
{ACAD_REACTORS
330
AA
102
}
330
AA
100
AcDbMaterial
  1
Global
 72
     0
 43
0.0208333333333333
 43
0.0
 43
0.0
 43
0.0
 43
0.0
 43
0.0208333333333333
 43
0.0
 43
0.0
 43
0.0
 43
0.0
 43
1.0
 43
0.0
 43
0.0
 43
0.0
 43
0.0
 43
1.0
 77
     0
 47
0.0208333333333333
 47
0.0
 47
0.0
 47
0.0
 47
0.0
 47
0.0208333333333333
 47
0.0
 47
0.0
 47
0.0
 47
0.0
 47
1.0
 47
0.0
 47
0.0
 47
0.0
 47
0.0
 47
1.0
171
     0
 49
0.0208333333333333
 49
0.0
 49
0.0
 49
0.0
 49
0.0
 49
0.0208333333333333
 49
0.0
 49
0.0
 49
0.0
 49
0.0
 49
1.0
 49
0.0
 49
0.0
 49
0.0
 49
0.0
 49
1.0
175
     0
142
0.0208333333333333
142
0.0
142
0.0
142
0.0
142
0.0
142
0.0208333333333333
142
0.0
142
0.0
142
0.0
142
0.0
142
1.0
142
0.0
142
0.0
142
0.0
142
0.0
142
1.0
179
     0
144
0.0208333333333333
144
0.0
144
0.0
144
0.0
144
0.0
144
0.0208333333333333
144
0.0
144
0.0
144
0.0
144
0.0
144
1.0
144
0.0
144
0.0
144
0.0
144
0.0
144
1.0
147
0.0208333333333333
147
0.0
147
0.0
147
0.0
147
0.0
147
0.0208333333333333
147
0.0
147
0.0
147
0.0
147
0.0
147
1.0
147
0.0
147
0.0
147
0.0
147
0.0
147
1.0
  0
MLEADERSTYLE
  5
F2
102
{ACAD_XDICTIONARY
360
181
102
}
102
{ACAD_REACTORS
330
F1
102
}
330
F1
100
AcDbMLeaderStyle
179
     2
170
     2
171
     1
172
     0
 90
        2
 40
0.0
 41
0.0
173
     1
 91
-1056964608
340
14
 92
       -2
290
     1
 42
0.09
291
     1
 43
0.36
  3
Standard
 44
0.18
300

342
11
174
     1
178
     6
175
     1
176
     0
 93
-1056964608
 45
0.18
292
     0
297
     0
 46
0.18
 94
-1056964608
 47
1.0
 49
1.0
140
1.0
293
     1
141
0.0
294
     1
177
     0
142
1.0
295
     0
296
     0
143
0.125
271
     0
272
     9
273
     9
  0
MLINESTYLE
  5
18
102
{ACAD_REACTORS
330
17
102
}
330
17
100
AcDbMlineStyle
  2
STANDARD
 70
     0
  3

 62
   256
 51
90.0
 52
90.0
 71
     2
 49
0.5
 62
   256
  6
BYLAYER
 49
-0.5
 62
   256
  6
BYLAYER
  0
ACDBPLACEHOLDER
  5
2D
102
{ACAD_REACTORS
330
E
102
}
330
E
  0
ACDBPLACEHOLDER
  5
F
102
{ACAD_REACTORS
330
E
102
}
330
E
  0
SCALE
  5
E0
102
{ACAD_REACTORS
330
DF
102
}
330
DF
100
AcDbScale
 70
     0
300
1:1
140
1.0
141
1.0
290
     1
  0
SCALE
  5
E1
102
{ACAD_REACTORS
330
DF
102
}
330
DF
100
AcDbScale
 70
     0
300
1/128" = 1'-0"
140
0.0078125
141
12.0
290
     0
  0
SCALE
  5
E2
102
{ACAD_REACTORS
330
DF
102
}
330
DF
100
AcDbScale
 70
     0
300
1/64" = 1'-0"
140
0.015625
141
12.0
290
     0
  0
SCALE
  5
E3
102
{ACAD_REACTORS
330
DF
102
}
330
DF
100
AcDbScale
 70
     0
300
1/32" = 1'-0"
140
0.03125
141
12.0
290
     0
  0
SCALE
  5
E4
102
{ACAD_REACTORS
330
DF
102
}
330
DF
100
AcDbScale
 70
     0
300
1/16" = 1'-0"
140
0.0625
141
12.0
290
     0
  0
SCALE
  5
E5
102
{ACAD_REACTORS
330
DF
102
}
330
DF
100
AcDbScale
 70
     0
300
3/32" = 1'-0"
140
0.09375
141
12.0
290
     0
  0
SCALE
  5
E6
102
{ACAD_REACTORS
330
DF
102
}
330
DF
100
AcDbScale
 70
     0
300
1/8" = 1'-0"
140
0.125
141
12.0
290
     0
  0
SCALE
  5
E7
102
{ACAD_REACTORS
330
DF
102
}
330
DF
100
AcDbScale
 70
     0
300
3/16" = 1'-0"
140
0.1875
141
12.0
290
     0
  0
SCALE
  5
E8
102
{ACAD_REACTORS
330
DF
102
}
330
DF
100
AcDbScale
 70
     0
300
1/4" = 1'-0"
140
0.25
141
12.0
290
     0
  0
SCALE
  5
E9
102
{ACAD_REACTORS
330
DF
102
}
330
DF
100
AcDbScale
 70
     0
300
3/8" = 1'-0"
140
0.375
141
12.0
290
     0
  0
SCALE
  5
EA
102
{ACAD_REACTORS
330
DF
102
}
330
DF
100
AcDbScale
 70
     0
300
1/2" = 1'-0"
140
0.5
141
12.0
290
     0
  0
SCALE
  5
EB
102
{ACAD_REACTORS
330
DF
102
}
330
DF
100
AcDbScale
 70
     0
300
3/4" = 1'-0"
140
0.75
141
12.0
290
     0
  0
SCALE
  5
EC
102
{ACAD_REACTORS
330
DF
102
}
330
DF
100
AcDbScale
 70
     0
300
1" = 1'-0"
140
1.0
141
12.0
290
     0
  0
SCALE
  5
ED
102
{ACAD_REACTORS
330
DF
102
}
330
DF
100
AcDbScale
 70
     0
300
1-1/2" = 1'-0"
140
1.5
141
12.0
290
     0
  0
SCALE
  5
EE
102
{ACAD_REACTORS
330
DF
102
}
330
DF
100
AcDbScale
 70
     0
300
3" = 1'-0"
140
3.0
141
12.0
290
     0
  0
SCALE
  5
EF
102
{ACAD_REACTORS
330
DF
102
}
330
DF
100
AcDbScale
 70
     0
300
6" = 1'-0"
140
6.0
141
12.0
290
     0
  0
SCALE
  5
F0
102
{ACAD_REACTORS
330
DF
102
}
330
DF
100
AcDbScale
 70
     0
300
1'-0" = 1'-0"
140
12.0
141
12.0
290
     0
  0
ACDBSECTIONVIEWSTYLE
  5
F4
102
{ACAD_XDICTIONARY
360
183
102
}
102
{ACAD_REACTORS
330
F3
102
}
330
F3
100
AcDbModelDocViewStyle
 70
     0
  3
Imperial24
290
     0
100
AcDbSectionViewStyle
 70
     0
 71
     0
 90
       78
 71
     1
340
11
 62
   256
 40
0.24
340
0
340
0
 62
   256
 40
0.24
300
I, O, Q, S, X, Z
 40
0.48
 90
        3
 40
0.18
 90
        1
 71
     2
340
16
 90
       25
 62
   256
340
16
 90
       50
 62
   256
 40
0.24
 40
0.0
 40
0.24
 71
     3
340
11
 62
   256
 40
0.24
 90
        1
 40
0.75
 90
        1
300
%<\AcVar ViewType \f "%tc1">% %<\AcVar ViewSectionStartId>%-%<\AcVar ViewSectionEndId>%\PSCALE %<\AcVar ViewScale \f "%sn">%
 71
     4
 62
   256
 62
   257
300
ANSI31
 40
1.0
 90
        0
290
     0
290
     0
 90
        6
 40
0.0
 40
1.570796326794896
 40
0.2617993877991494
 40
1.308996938995747
 40
-0.2617993877991494
 40
1.832595714594046
  0
TABLESTYLE
  5
DE
102
{ACAD_XDICTIONARY
360
14E
102
}
102
{ACAD_REACTORS
330
DD
102
}
330
DD
100
AcDbTableStyle
280
     0
  3
Standard
 70
     0
 71
     0
 40
0.06
 41
0.06
280
     0
281
     0
  7
Standard
140
0.18
170
     2
 62
     0
 63
     7
283
     0
 90
      512
 91
        0
  1

274
    -2
284
     1
 64
     0
275
    -2
285
     1
 65
     0
276
    -2
286
     1
 66
     0
277
    -2
287
     1
 67
     0
278
    -2
288
     1
 68
     0
279
    -2
289
     1
 69
     0
  7
Standard
140
0.25
170
     5
 62
     0
 63
     7
283
     0
 90
      512
 91
        0
  1

274
    -2
284
     1
 64
     0
275
    -2
285
     1
 65
     0
276
    -2
286
     1
 66
     0
277
    -2
287
     1
 67
     0
278
    -2
288
     1
 68
     0
279
    -2
289
     1
 69
     0
  7
Standard
140
0.18
170
     5
 62
     0
 63
     7
283
     0
 90
      512
 91
        0
  1

274
    -2
284
     1
 64
     0
275
    -2
285
     1
 65
     0
276
    -2
286
     1
 66
     0
277
    -2
287
     1
 67
     0
278
    -2
288
     1
 68
     0
279
    -2
289
     1
 69
     0
  0
VISUALSTYLE
  5
C9
102
{ACAD_XDICTIONARY
360
15B
102
}
102
{ACAD_REACTORS
330
C3
102
}
330
C3
100
AcDbVisualStyle
  2
2dWireframe
 70
     4
177
     2
291
     0
 71
     0
176
     1
 72
     2
176
     1
 73
     0
176
     1
 90
        0
176
     1
 40
0.6
176
     1
 41
30.0
176
     1
 63
     7
421
 16777215
176
     1
 74
     1
176
     1
 91
        4
176
     1
 64
     7
176
     1
 65
   257
176
     1
 75
     1
176
     1
175
     1
176
     1
 42
1.0
176
     1
 92
        0
176
     1
 66
   257
176
     1
 43
1.0
176
     1
 76
     1
176
     1
 77
     6
176
     1
 78
     2
176
     1
 67
     7
176
     1
 79
     5
176
     1
170
     0
176
     1
171
     0
176
     1
290
     0
176
     1
 93
        1
176
     1
 44
0.0
176
     1
173
     0
176
     1
1001
ACAD
1000
AcDbSavedByObjectVersion
1070
     0
  0
VISUALSTYLE
  5
C8
102
{ACAD_XDICTIONARY
360
159
102
}
102
{ACAD_REACTORS
330
C3
102
}
330
C3
100
AcDbVisualStyle
  2
Basic
 70
     7
177
     2
291
     1
 71
     1
176
     1
 72
     0
176
     1
 73
     1
176
     1
 90
        0
176
     1
 40
0.6
176
     1
 41
30.0
176
     1
 63
     7
421
 16777215
176
     1
 74
     0
176
     1
 91
        4
176
     1
 64
     7
176
     1
 65
   257
176
     1
 75
     1
176
     1
175
     1
176
     1
 42
1.0
176
     1
 92
        8
176
     1
 66
     7
176
     1
 43
1.0
176
     1
 76
     1
176
     1
 77
     6
176
     1
 78
     2
176
     1
 67
     7
176
     1
 79
     5
176
     1
170
     0
176
     1
171
     0
176
     1
290
     0
176
     1
 93
        1
176
     1
 44
0.0
176
     1
173
     0
176
     1
1001
ACAD
1000
AcDbSavedByObjectVersion
1070
     0
  0
VISUALSTYLE
  5
CF
102
{ACAD_XDICTIONARY
360
167
102
}
102
{ACAD_REACTORS
330
C3
102
}
330
C3
100
AcDbVisualStyle
  2
Brighten
 70
    12
177
     2
291
     1
 71
     2
176
     1
 72
     2
176
     1
 73
     0
176
     1
 90
        0
176
     1
 40
0.6
176
     1
 41
30.0
176
     1
 63
     7
421
 16777215
176
     1
 74
     1
176
     1
 91
        4
176
     1
 64
     7
176
     1
 65
   257
176
     1
 75
     1
176
     1
175
     1
176
     1
 42
1.0
176
     1
 92
        8
176
     1
 66
     7
176
     1
 43
1.0
176
     1
 76
     1
176
     1
 77
     6
176
     1
 78
     2
176
     1
 67
     7
176
     1
 79
     5
176
     1
170
     0
176
     1
171
     0
176
     1
290
     0
176
     1
 93
        1
176
     1
 44
50.0
176
     1
173
     0
176
     1
1001
ACAD
1000
AcDbSavedByObjectVersion
1070
     0
  0
VISUALSTYLE
  5
D3
102
{ACAD_XDICTIONARY
360
16F
102
}
102
{ACAD_REACTORS
330
C3
102
}
330
C3
100
AcDbVisualStyle
  2
ColorChange
 70
    16
177
     2
291
     1
 71
     2
176
     1
 72
     2
176
     1
 73
     3
176
     1
 90
        0
176
     1
 40
0.6
176
     1
 41
30.0
176
     1
 63
     8
421
  8421504
176
     1
 74
     1
176
     1
 91
        4
176
     1
 64
     7
176
     1
 65
   257
176
     1
 75
     1
176
     1
175
     1
176
     1
 42
1.0
176
     1
 92
        8
176
     1
 66
     8
424
  8421504
176
     1
 43
1.0
176
     1
 76
     1
176
     1
 77
     6
176
     1
 78
     2
176
     1
 67
     7
176
     1
 79
     5
176
     1
170
     0
176
     1
171
     0
176
     1
290
     0
176
     1
 93
        1
176
     1
 44
0.0
176
     1
173
     0
176
     1
1001
ACAD
1000
AcDbSavedByObjectVersion
1070
     0
  0
VISUALSTYLE
  5
CC
102
{ACAD_XDICTIONARY
360
161
102
}
102
{ACAD_REACTORS
330
C3
102
}
330
C3
100
AcDbVisualStyle
  2
Conceptual
 70
     9
177
     2
291
     0
 71
     3
176
     1
 72
     2
176
     1
 73
     0
176
     1
 90
        0
176
     1
 40
0.6
176
     1
 41
30.0
176
     1
 63
     7
421
 16777215
176
     1
 74
     2
176
     1
 91
        2
176
     1
 64
     7
176
     1
 65
   257
176
     1
 75
     1
176
     1
175
     1
176
     1
 42
179.0
176
     1
 92
        8
176
     1
 66
     7
176
     1
 43
1.0
176
     1
 76
     1
176
     1
 77
     6
176
     1
 78
     2
176
     1
 67
     7
176
     1
 79
     3
176
     1
170
     0
176
     1
171
     0
176
     1
290
     0
176
     1
 93
        1
176
     1
 44
0.0
176
     1
173
     0
176
     1
1001
ACAD
1000
AcDbSavedByObjectVersion
1070
     0
  0
VISUALSTYLE
  5
CE
102
{ACAD_XDICTIONARY
360
165
102
}
102
{ACAD_REACTORS
330
C3
102
}
330
C3
100
AcDbVisualStyle
  2
Dim
 70
    11
177
     2
291
     1
 71
     2
176
     1
 72
     2
176
     1
 73
     0
176
     1
 90
        0
176
     1
 40
0.6
176
     1
 41
30.0
176
     1
 63
     7
421
 16777215
176
     1
 74
     1
176
     1
 91
        4
176
     1
 64
     7
176
     1
 65
   257
176
     1
 75
     1
176
     1
175
     1
176
     1
 42
1.0
176
     1
 92
        8
176
     1
 66
     7
176
     1
 43
1.0
176
     1
 76
     1
176
     1
 77
     6
176
     1
 78
     2
176
     1
 67
     7
176
     1
 79
     5
176
     1
170
     0
176
     1
171
     0
176
     1
290
     0
176
     1
 93
        1
176
     1
 44
-50.0
176
     1
173
     0
176
     1
1001
ACAD
1000
AcDbSavedByObjectVersion
1070
     0
  0
VISUALSTYLE
  5
DB
102
{ACAD_XDICTIONARY
360
17F
102
}
102
{ACAD_REACTORS
330
C3
102
}
330
C3
100
AcDbVisualStyle
  2
EdgeColorOff
 70
    22
177
     2
291
     1
 71
     2
176
     0
 72
     2
176
     0
 73
     0
176
     0
 90
        0
176
     0
 40
0.6
176
     0
 41
30.0
176
     0
 63
     7
421
 16777215
176
     0
 74
     1
176
     0
 91
        4
176
     0
 64
     7
176
     0
 65
   257
176
     0
 75
     1
176
     0
175
     1
176
     0
 42
1.0
176
     0
 92
        8
176
     2
 66
     7
176
     0
 43
1.0
176
     0
 76
     1
176
     0
 77
     6
176
     0
 78
     2
176
     0
 67
     7
176
     0
 79
     5
176
     0
170
     0
176
     0
171
     0
176
     0
290
     0
176
     0
 93
        1
176
     0
 44
0.0
176
     0
173
     0
176
     0
1001
ACAD
1000
AcDbSavedByObjectVersion
1070
     0
  0
VISUALSTYLE
  5
D2
102
{ACAD_XDICTIONARY
360
16D
102
}
102
{ACAD_REACTORS
330
C3
102
}
330
C3
100
AcDbVisualStyle
  2
Facepattern
 70
    15
177
     2
291
     1
 71
     2
176
     1
 72
     2
176
     1
 73
     0
176
     1
 90
        0
176
     1
 40
0.6
176
     1
 41
30.0
176
     1
 63
     7
421
 16777215
176
     1
 74
     1
176
     1
 91
        4
176
     1
 64
     7
176
     1
 65
   257
176
     1
 75
     1
176
     1
175
     1
176
     1
 42
1.0
176
     1
 92
        8
176
     1
 66
     7
176
     1
 43
1.0
176
     1
 76
     1
176
     1
 77
     6
176
     1
 78
     2
176
     1
 67
     7
176
     1
 79
     5
176
     1
170
     0
176
     1
171
     0
176
     1
290
     0
176
     1
 93
        1
176
     1
 44
0.0
176
     1
173
     0
176
     1
1001
ACAD
1000
AcDbSavedByObjectVersion
1070
     0
  0
VISUALSTYLE
  5
C4
102
{ACAD_XDICTIONARY
360
151
102
}
102
{ACAD_REACTORS
330
C3
102
}
330
C3
100
AcDbVisualStyle
  2
Flat
 70
     0
177
     2
291
     1
 71
     2
176
     1
 72
     1
176
     1
 73
     1
176
     1
 90
        2
176
     1
 40
0.6
176
     1
 41
30.0
176
     1
 63
     7
421
 16777215
176
     1
 74
     0
176
     1
 91
        0
176
     1
 64
     7
176
     1
 65
   257
176
     1
 75
     1
176
     1
175
     1
176
     1
 42
1.0
176
     1
 92
        8
176
     1
 66
     7
176
     1
 43
1.0
176
     1
 76
     1
176
     1
 77
     6
176
     1
 78
     2
176
     1
 67
     7
176
     1
 79
     5
176
     1
170
     0
176
     1
171
     0
176
     1
290
     0
176
     1
 93
       13
176
     1
 44
0.0
176
     1
173
     0
176
     1
1001
ACAD
1000
AcDbSavedByObjectVersion
1070
     0
  0
VISUALSTYLE
  5
C5
102
{ACAD_XDICTIONARY
360
153
102
}
102
{ACAD_REACTORS
330
C3
102
}
330
C3
100
AcDbVisualStyle
  2
FlatWithEdges
 70
     1
177
     2
291
     1
 71
     2
176
     1
 72
     1
176
     1
 73
     1
176
     1
 90
        2
176
     1
 40
0.6
176
     1
 41
30.0
176
     1
 63
     7
421
 16777215
176
     1
 74
     1
176
     1
 91
        0
176
     1
 64
     7
176
     1
 65
   257
176
     1
 75
     1
176
     1
175
     1
176
     1
 42
1.0
176
     1
 92
        0
176
     1
 66
   257
176
     1
 43
1.0
176
     1
 76
     1
176
     1
 77
     6
176
     1
 78
     2
176
     1
 67
     7
176
     1
 79
     5
176
     1
170
     0
176
     1
171
     0
176
     1
290
     0
176
     1
 93
       13
176
     1
 44
0.0
176
     1
173
     0
176
     1
1001
ACAD
1000
AcDbSavedByObjectVersion
1070
     0
  0
VISUALSTYLE
  5
C6
102
{ACAD_XDICTIONARY
360
155
102
}
102
{ACAD_REACTORS
330
C3
102
}
330
C3
100
AcDbVisualStyle
  2
Gouraud
 70
     2
177
     2
291
     1
 71
     2
176
     1
 72
     2
176
     1
 73
     1
176
     1
 90
        2
176
     1
 40
0.6
176
     1
 41
30.0
176
     1
 63
     7
421
 16777215
176
     1
 74
     0
176
     1
 91
        0
176
     1
 64
     7
176
     1
 65
   257
176
     1
 75
     1
176
     1
175
     1
176
     1
 42
1.0
176
     1
 92
        0
176
     1
 66
     7
176
     1
 43
1.0
176
     1
 76
     1
176
     1
 77
     6
176
     1
 78
     2
176
     1
 67
     7
176
     1
 79
     5
176
     1
170
     0
176
     1
171
     0
176
     1
290
     0
176
     1
 93
       13
176
     1
 44
0.0
176
     1
173
     0
176
     1
1001
ACAD
1000
AcDbSavedByObjectVersion
1070
     0
  0
VISUALSTYLE
  5
C7
102
{ACAD_XDICTIONARY
360
157
102
}
102
{ACAD_REACTORS
330
C3
102
}
330
C3
100
AcDbVisualStyle
  2
GouraudWithEdges
 70
     3
177
     2
291
     1
 71
     2
176
     1
 72
     2
176
     1
 73
     1
176
     1
 90
        2
176
     1
 40
0.6
176
     1
 41
30.0
176
     1
 63
     7
421
 16777215
176
     1
 74
     1
176
     1
 91
        0
176
     1
 64
     7
176
     1
 65
   257
176
     1
 75
     1
176
     1
175
     1
176
     1
 42
1.0
176
     1
 92
        0
176
     1
 66
   257
176
     1
 43
1.0
176
     1
 76
     1
176
     1
 77
     6
176
     1
 78
     2
176
     1
 67
     7
176
     1
 79
     5
176
     1
170
     0
176
     1
171
     0
176
     1
290
     0
176
     1
 93
       13
176
     1
 44
0.0
176
     1
173
     0
176
     1
1001
ACAD
1000
AcDbSavedByObjectVersion
1070
     0
  0
VISUALSTYLE
  5
CB
102
{ACAD_XDICTIONARY
360
15F
102
}
102
{ACAD_REACTORS
330
C3
102
}
330
C3
100
AcDbVisualStyle
  2
Hidden
 70
     6
177
     2
291
     0
 71
     1
176
     1
 72
     2
176
     1
 73
     2
176
     1
 90
        0
176
     1
 40
0.6
176
     1
 41
30.0
176
     1
 63
     7
421
 16777215
176
     1
 74
     2
176
     1
 91
        2
176
     1
 64
     7
176
     1
 65
   257
176
     1
 75
     2
176
     1
175
     1
176
     1
 42
40.0
176
     1
 92
        0
176
     1
 66
   257
176
     1
 43
1.0
176
     1
 76
     1
176
     1
 77
     6
176
     1
 78
     2
176
     1
 67
     7
176
     1
 79
     3
176
     1
170
     0
176
     1
171
     0
176
     1
290
     0
176
     1
 93
        1
176
     1
 44
0.0
176
     1
173
     0
176
     1
1001
ACAD
1000
AcDbSavedByObjectVersion
1070
     0
  0
VISUALSTYLE
  5
D9
102
{ACAD_XDICTIONARY
360
17B
102
}
102
{ACAD_REACTORS
330
C3
102
}
330
C3
100
AcDbVisualStyle
  2
JitterOff
 70
    20
177
     2
291
     1
 71
     2
176
     0
 72
     2
176
     0
 73
     0
176
     0
 90
        0
176
     0
 40
0.6
176
     0
 41
30.0
176
     0
 63
     7
421
 16777215
176
     0
 74
     1
176
     0
 91
        4
176
     0
 64
     7
176
     0
 65
   257
176
     0
 75
     1
176
     0
175
     1
176
     0
 42
1.0
176
     0
 92
       10
176
     2
 66
     7
176
     0
 43
1.0
176
     0
 76
     1
176
     0
 77
     6
176
     0
 78
     2
176
     0
 67
     7
176
     0
 79
     5
176
     0
170
     0
176
     0
171
     0
176
     0
290
     0
176
     0
 93
        1
176
     0
 44
0.0
176
     0
173
     0
176
     0
1001
ACAD
1000
AcDbSavedByObjectVersion
1070
     0
  0
VISUALSTYLE
  5
D1
102
{ACAD_XDICTIONARY
360
16B
102
}
102
{ACAD_REACTORS
330
C3
102
}
330
C3
100
AcDbVisualStyle
  2
Linepattern
 70
    14
177
     2
291
     1
 71
     2
176
     1
 72
     2
176
     1
 73
     0
176
     1
 90
        0
176
     1
 40
0.6
176
     1
 41
30.0
176
     1
 63
     7
421
 16777215
176
     1
 74
     1
176
     1
 91
        4
176
     1
 64
     7
176
     1
 65
   257
176
     1
 75
     7
176
     1
175
     7
176
     1
 42
1.0
176
     1
 92
        8
176
     1
 66
     7
176
     1
 43
1.0
176
     1
 76
     1
176
     1
 77
     6
176
     1
 78
     2
176
     1
 67
     7
176
     1
 79
     5
176
     1
170
     0
176
     1
171
     0
176
     1
290
     0
176
     1
 93
        1
176
     1
 44
0.0
176
     1
173
     0
176
     1
1001
ACAD
1000
AcDbSavedByObjectVersion
1070
     0
  0
VISUALSTYLE
  5
DA
102
{ACAD_XDICTIONARY
360
17D
102
}
102
{ACAD_REACTORS
330
C3
102
}
330
C3
100
AcDbVisualStyle
  2
OverhangOff
 70
    21
177
     2
291
     1
 71
     2
176
     0
 72
     2
176
     0
 73
     0
176
     0
 90
        0
176
     0
 40
0.6
176
     0
 41
30.0
176
     0
 63
     7
421
 16777215
176
     0
 74
     1
176
     0
 91
        4
176
     0
 64
     7
176
     0
 65
   257
176
     0
 75
     1
176
     0
175
     1
176
     0
 42
1.0
176
     0
 92
        9
176
     2
 66
     7
176
     0
 43
1.0
176
     0
 76
     1
176
     0
 77
     6
176
     0
 78
     2
176
     0
 67
     7
176
     0
 79
     5
176
     0
170
     0
176
     0
171
     0
176
     0
290
     0
176
     0
 93
        1
176
     0
 44
0.0
176
     0
173
     0
176
     0
1001
ACAD
1000
AcDbSavedByObjectVersion
1070
     0
  0
VISUALSTYLE
  5
CD
102
{ACAD_XDICTIONARY
360
163
102
}
102
{ACAD_REACTORS
330
C3
102
}
330
C3
100
AcDbVisualStyle
  2
Realistic
 70
     8
177
     2
291
     0
 71
     2
176
     1
 72
     3
176
     1
 73
     0
176
     1
 90
        2
176
     1
 40
0.6
176
     1
 41
30.0
176
     1
 63
     7
421
 16777215
176
     1
 74
     0
176
     1
 91
        0
176
     1
 64
     7
176
     1
 65
   257
176
     1
 75
     1
176
     1
175
     1
176
     1
 42
1.0
176
     1
 92
        8
176
     1
 66
   257
176
     1
 43
1.0
176
     1
 76
     1
176
     1
 77
     6
176
     1
 78
     2
176
     1
 67
     7
176
     1
 79
     3
176
     1
170
     0
176
     1
171
     0
176
     1
290
     0
176
     1
 93
       13
176
     1
 44
0.0
176
     1
173
     0
176
     1
1001
ACAD
1000
AcDbSavedByObjectVersion
1070
     0
  0
VISUALSTYLE
  5
D8
102
{ACAD_XDICTIONARY
360
179
102
}
102
{ACAD_REACTORS
330
C3
102
}
330
C3
100
AcDbVisualStyle
  2
Shaded
 70
    27
177
     2
291
     0
 71
     2
176
     1
 72
     2
176
     1
 73
     1
176
     1
 90
        2
176
     1
 40
0.6
176
     1
 41
30.0
176
     1
 63
     7
421
 16777215
176
     1
 74
     0
176
     1
 91
        4
176
     1
 64
     7
176
     1
 65
   257
176
     1
 75
     1
176
     1
175
     1
176
     1
 42
1.0
176
     1
 92
        8
176
     1
 66
   257
176
     1
 43
1.0
176
     1
 76
     1
176
     1
 77
     6
176
     1
 78
     2
176
     1
 67
     8
425
  7895160
176
     1
 79
     3
176
     1
170
     0
176
     1
171
     0
176
     1
290
     0
176
     1
 93
        5
176
     1
 44
0.0
176
     1
173
     0
176
     1
1001
ACAD
1000
AcDbSavedByObjectVersion
1070
     0
  0
VISUALSTYLE
  5
D7
102
{ACAD_XDICTIONARY
360
177
102
}
102
{ACAD_REACTORS
330
C3
102
}
330
C3
100
AcDbVisualStyle
  2
Shaded with edges
 70
    26
177
     2
291
     0
 71
     2
176
     1
 72
     2
176
     1
 73
     1
176
     1
 90
        2
176
     1
 40
0.6
176
     1
 41
30.0
176
     1
 63
     7
421
 16777215
176
     1
 74
     1
176
     1
 91
       10
176
     1
 64
     7
176
     1
 65
   257
176
     1
 75
     2
176
     1
175
     1
176
     1
 42
1.0
176
     1
 92
        8
176
     1
 66
   257
176
     1
 43
1.0
176
     1
 76
     1
176
     1
 77
     6
176
     1
 78
     2
176
     1
 67
     7
176
     1
 79
     3
176
     1
170
     0
176
     1
171
     0
176
     1
290
     0
176
     1
 93
        5
176
     1
 44
0.0
176
     1
173
     0
176
     1
1001
ACAD
1000
AcDbSavedByObjectVersion
1070
     0
  0
VISUALSTYLE
  5
D4
102
{ACAD_XDICTIONARY
360
171
102
}
102
{ACAD_REACTORS
330
C3
102
}
330
C3
100
AcDbVisualStyle
  2
Shades of Gray
 70
    23
177
     2
291
     0
 71
     2
176
     1
 72
     2
176
     1
 73
     3
176
     1
 90
        0
176
     1
 40
0.6
176
     1
 41
30.0
176
     1
 63
     7
421
 16777215
176
     1
 74
     2
176
     1
 91
        2
176
     1
 64
     7
176
     1
 65
     7
176
     1
 75
     1
176
     1
175
     1
176
     1
 42
40.0
176
     1
 92
        8
176
     1
 66
     7
176
     1
 43
1.0
176
     1
 76
     1
176
     1
 77
     6
176
     1
 78
     2
176
     1
 67
     7
176
     1
 79
     3
176
     1
170
     0
176
     1
171
     0
176
     1
290
     0
176
     1
 93
        1
176
     1
 44
0.0
176
     1
173
     0
176
     1
1001
ACAD
1000
AcDbSavedByObjectVersion
1070
     0
  0
VISUALSTYLE
  5
D5
102
{ACAD_XDICTIONARY
360
173
102
}
102
{ACAD_REACTORS
330
C3
102
}
330
C3
100
AcDbVisualStyle
  2
Sketchy
 70
    24
177
     2
291
     0
 71
     1
176
     1
 72
     2
176
     1
 73
     2
176
     1
 90
        0
176
     1
 40
0.6
176
     1
 41
30.0
176
     1
 63
     7
421
 16777215
176
     1
 74
     2
176
     1
 91
        2
176
     1
 64
     7
176
     1
 65
     7
176
     1
 75
     1
176
     1
175
     1
176
     1
 42
40.0
176
     1
 92
       11
176
     1
 66
     7
176
     1
 43
1.0
176
     1
 76
     1
176
     1
 77
     6
176
     1
 78
     2
176
     1
 67
     7
176
     1
 79
     6
176
     1
170
     0
176
     1
171
     0
176
     1
290
     0
176
     1
 93
        1
176
     1
 44
0.0
176
     1
173
     0
176
     1
1001
ACAD
1000
AcDbSavedByObjectVersion
1070
     0
  0
VISUALSTYLE
  5
D0
102
{ACAD_XDICTIONARY
360
169
102
}
102
{ACAD_REACTORS
330
C3
102
}
330
C3
100
AcDbVisualStyle
  2
Thicken
 70
    13
177
     2
291
     1
 71
     2
176
     1
 72
     2
176
     1
 73
     0
176
     1
 90
        0
176
     1
 40
0.6
176
     1
 41
30.0
176
     1
 63
     7
421
 16777215
176
     1
 74
     1
176
     1
 91
        4
176
     1
 64
     7
176
     1
 65
   257
176
     1
 75
     1
176
     1
175
     1
176
     1
 42
1.0
176
     1
 92
       12
176
     1
 66
     7
176
     1
 43
1.0
176
     1
 76
     1
176
     1
 77
     6
176
     1
 78
     2
176
     1
 67
     7
176
     1
 79
     5
176
     1
170
     0
176
     1
171
     0
176
     1
290
     0
176
     1
 93
        1
176
     1
 44
0.0
176
     1
173
     0
176
     1
1001
ACAD
1000
AcDbSavedByObjectVersion
1070
     0
  0
VISUALSTYLE
  5
CA
102
{ACAD_XDICTIONARY
360
15D
102
}
102
{ACAD_REACTORS
330
C3
102
}
330
C3
100
AcDbVisualStyle
  2
Wireframe
 70
     5
177
     2
291
     0
 71
     0
176
     1
 72
     2
176
     1
 73
     0
176
     1
 90
        0
176
     1
 40
0.6
176
     1
 41
30.0
176
     1
 63
     7
421
 16777215
176
     1
 74
     1
176
     1
 91
        4
176
     1
 64
     7
176
     1
 65
   257
176
     1
 75
     1
176
     1
175
     1
176
     1
 42
1.0
176
     1
 92
        0
176
     1
 66
   257
176
     1
 43
1.0
176
     1
 76
     1
176
     1
 77
     6
176
     1
 78
     2
176
     1
 67
     7
176
     1
 79
     3
176
     1
170
     0
176
     1
171
     0
176
     1
290
     0
176
     1
 93
        1
176
     1
 44
0.0
176
     1
173
     0
176
     1
1001
ACAD
1000
AcDbSavedByObjectVersion
1070
     0
  0
VISUALSTYLE
  5
D6
102
{ACAD_XDICTIONARY
360
175
102
}
102
{ACAD_REACTORS
330
C3
102
}
330
C3
100
AcDbVisualStyle
  2
X-Ray
 70
    25
177
     2
291
     0
 71
     2
176
     1
 72
     2
176
     1
 73
     1
176
     1
 90
        1
176
     1
 40
0.5
176
     1
 41
30.0
176
     1
 63
     7
421
 16777215
176
     1
 74
     1
176
     1
 91
        0
176
     1
 64
     7
176
     1
 65
   257
176
     1
 75
     1
176
     1
175
     1
176
     1
 42
1.0
176
     1
 92
        8
176
     1
 66
     7
176
     1
 43
1.0
176
     1
 76
     1
176
     1
 77
     6
176
     1
 78
     2
176
     1
 67
     7
176
     1
 79
     3
176
     1
170
     0
176
     1
171
     0
176
     1
290
     0
176
     1
 93
       13
176
     1
 44
0.0
176
     1
173
     0
176
     1
1001
ACAD
1000
AcDbSavedByObjectVersion
1070
     0
  0
DICTIONARYVAR
  5
14A
102
{ACAD_REACTORS
330
144
102
}
330
144
100
DictionaryVariables
280
     0
  1
1:1
  0
DICTIONARYVAR
  5
146
102
{ACAD_REACTORS
330
144
102
}
330
144
100
DictionaryVariables
280
     0
  1
STANDARD
  0
DICTIONARYVAR
  5
145
102
{ACAD_REACTORS
330
144
102
}
330
144
100
DictionaryVariables
280
     0
  1
STANDARD
  0
DICTIONARYVAR
  5
147
102
{ACAD_REACTORS
330
144
102
}
330
144
100
DictionaryVariables
280
     0
  1
Imperial24
  0
DICTIONARYVAR
  5
148
102
{ACAD_REACTORS
330
144
102
}
330
144
100
DictionaryVariables
280
     0
  1
Imperial24
  0
DICTIONARYVAR
  5
14C
102
{ACAD_REACTORS
330
144
102
}
330
144
100
DictionaryVariables
280
     0
  1
1
  0
DICTIONARYVAR
  5
14D
102
{ACAD_REACTORS
330
144
102
}
330
144
100
DictionaryVariables
280
     0
  1
15
  0
DICTIONARYVAR
  5
14B
102
{ACAD_REACTORS
330
144
102
}
330
144
100
DictionaryVariables
280
     0
  1
0
  0
DICTIONARYVAR
  5
149
102
{ACAD_REACTORS
330
144
102
}
330
144
100
DictionaryVariables
280
     0
  1
0
  0
DICTIONARY
  5
185
330
F6
100
AcDbDictionary
280
     1
281
     1
  3
ACAD_XREC_ROUNDTRIP
360
186
  0
DICTIONARY
  5
B4
330
B3
100
AcDbDictionary
280
     1
281
     1
  3
BUMPTILE
360
B6
  3
DIFFUSETILE
360
B5
  3
OPACITYTILE
360
B9
  3
REFLECTIONTILE
360
B8
  3
REFRACTIONTILE
360
BA
  3
SPECULARTILE
360
B7
  0
DICTIONARY
  5
AC
330
AB
100
AcDbDictionary
280
     1
281
     1
  3
BUMPTILE
360
AE
  3
DIFFUSETILE
360
AD
  3
OPACITYTILE
360
B1
  3
REFLECTIONTILE
360
B0
  3
REFRACTIONTILE
360
B2
  3
SPECULARTILE
360
AF
  0
DICTIONARY
  5
BC
330
BB
100
AcDbDictionary
280
     1
281
     1
  3
BUMPTILE
360
BE
  3
DIFFUSETILE
360
BD
  3
OPACITYTILE
360
C1
  3
REFLECTIONTILE
360
C0
  3
REFRACTIONTILE
360
C2
  3
SPECULARTILE
360
BF
  0
DICTIONARY
  5
181
330
F2
100
AcDbDictionary
280
     1
281
     1
  3
ACAD_XREC_ROUNDTRIP
360
182
  0
DICTIONARY
  5
183
330
F4
100
AcDbDictionary
280
     1
281
     1
  3
ACAD_XREC_ROUNDTRIP
360
184
  0
DICTIONARY
  5
14E
330
DE
100
AcDbDictionary
280
     1
281
     1
  3
ACAD_ROUNDTRIP_2008_TABLESTYLE_CELLSTYLEMAP
360
14F
  0
DICTIONARY
  5
15B
330
C9
100
AcDbDictionary
280
     1
281
     1
  3
ACAD_XREC_ROUNDTRIP
360
15C
  0
DICTIONARY
  5
159
330
C8
100
AcDbDictionary
280
     1
281
     1
  3
ACAD_XREC_ROUNDTRIP
360
15A
  0
DICTIONARY
  5
167
330
CF
100
AcDbDictionary
280
     1
281
     1
  3
ACAD_XREC_ROUNDTRIP
360
168
  0
DICTIONARY
  5
16F
330
D3
100
AcDbDictionary
280
     1
281
     1
  3
ACAD_XREC_ROUNDTRIP
360
170
  0
DICTIONARY
  5
161
330
CC
100
AcDbDictionary
280
     1
281
     1
  3
ACAD_XREC_ROUNDTRIP
360
162
  0
DICTIONARY
  5
165
330
CE
100
AcDbDictionary
280
     1
281
     1
  3
ACAD_XREC_ROUNDTRIP
360
166
  0
DICTIONARY
  5
17F
330
DB
100
AcDbDictionary
280
     1
281
     1
  3
ACAD_XREC_ROUNDTRIP
360
180
  0
DICTIONARY
  5
16D
330
D2
100
AcDbDictionary
280
     1
281
     1
  3
ACAD_XREC_ROUNDTRIP
360
16E
  0
DICTIONARY
  5
151
330
C4
100
AcDbDictionary
280
     1
281
     1
  3
ACAD_XREC_ROUNDTRIP
360
152
  0
DICTIONARY
  5
153
330
C5
100
AcDbDictionary
280
     1
281
     1
  3
ACAD_XREC_ROUNDTRIP
360
154
  0
DICTIONARY
  5
155
330
C6
100
AcDbDictionary
280
     1
281
     1
  3
ACAD_XREC_ROUNDTRIP
360
156
  0
DICTIONARY
  5
157
330
C7
100
AcDbDictionary
280
     1
281
     1
  3
ACAD_XREC_ROUNDTRIP
360
158
  0
DICTIONARY
  5
15F
330
CB
100
AcDbDictionary
280
     1
281
     1
  3
ACAD_XREC_ROUNDTRIP
360
160
  0
DICTIONARY
  5
17B
330
D9
100
AcDbDictionary
280
     1
281
     1
  3
ACAD_XREC_ROUNDTRIP
360
17C
  0
DICTIONARY
  5
16B
330
D1
100
AcDbDictionary
280
     1
281
     1
  3
ACAD_XREC_ROUNDTRIP
360
16C
  0
DICTIONARY
  5
17D
330
DA
100
AcDbDictionary
280
     1
281
     1
  3
ACAD_XREC_ROUNDTRIP
360
17E
  0
DICTIONARY
  5
163
330
CD
100
AcDbDictionary
280
     1
281
     1
  3
ACAD_XREC_ROUNDTRIP
360
164
  0
DICTIONARY
  5
179
330
D8
100
AcDbDictionary
280
     1
281
     1
  3
ACAD_XREC_ROUNDTRIP
360
17A
  0
DICTIONARY
  5
177
330
D7
100
AcDbDictionary
280
     1
281
     1
  3
ACAD_XREC_ROUNDTRIP
360
178
  0
DICTIONARY
  5
171
330
D4
100
AcDbDictionary
280
     1
281
     1
  3
ACAD_XREC_ROUNDTRIP
360
172
  0
DICTIONARY
  5
173
330
D5
100
AcDbDictionary
280
     1
281
     1
  3
ACAD_XREC_ROUNDTRIP
360
174
  0
DICTIONARY
  5
169
330
D0
100
AcDbDictionary
280
     1
281
     1
  3
ACAD_XREC_ROUNDTRIP
360
16A
  0
DICTIONARY
  5
15D
330
CA
100
AcDbDictionary
280
     1
281
     1
  3
ACAD_XREC_ROUNDTRIP
360
15E
  0
DICTIONARY
  5
175
330
D6
100
AcDbDictionary
280
     1
281
     1
  3
ACAD_XREC_ROUNDTRIP
360
176
  0
XRECORD
  5
186
102
{ACAD_REACTORS
330
185
102
}
330
185
100
AcDbXrecord
280
     1
102
DISPLAYNAME
  1
Imperial24
102
FLAGS
 90
        0
  0
XRECORD
  5
B6
102
{ACAD_REACTORS
330
B4
102
}
330
B4
100
AcDbXrecord
280
     1
270
     1
271
     1
  0
XRECORD
  5
B5
102
{ACAD_REACTORS
330
B4
102
}
330
B4
100
AcDbXrecord
280
     1
270
     1
271
     1
  0
XRECORD
  5
B9
102
{ACAD_REACTORS
330
B4
102
}
330
B4
100
AcDbXrecord
280
     1
270
     1
271
     1
  0
XRECORD
  5
B8
102
{ACAD_REACTORS
330
B4
102
}
330
B4
100
AcDbXrecord
280
     1
270
     1
271
     1
  0
XRECORD
  5
BA
102
{ACAD_REACTORS
330
B4
102
}
330
B4
100
AcDbXrecord
280
     1
270
     1
271
     1
  0
XRECORD
  5
B7
102
{ACAD_REACTORS
330
B4
102
}
330
B4
100
AcDbXrecord
280
     1
270
     1
271
     1
  0
XRECORD
  5
AE
102
{ACAD_REACTORS
330
AC
102
}
330
AC
100
AcDbXrecord
280
     1
270
     1
271
     1
  0
XRECORD
  5
AD
102
{ACAD_REACTORS
330
AC
102
}
330
AC
100
AcDbXrecord
280
     1
270
     1
271
     1
  0
XRECORD
  5
B1
102
{ACAD_REACTORS
330
AC
102
}
330
AC
100
AcDbXrecord
280
     1
270
     1
271
     1
  0
XRECORD
  5
B0
102
{ACAD_REACTORS
330
AC
102
}
330
AC
100
AcDbXrecord
280
     1
270
     1
271
     1
  0
XRECORD
  5
B2
102
{ACAD_REACTORS
330
AC
102
}
330
AC
100
AcDbXrecord
280
     1
270
     1
271
     1
  0
XRECORD
  5
AF
102
{ACAD_REACTORS
330
AC
102
}
330
AC
100
AcDbXrecord
280
     1
270
     1
271
     1
  0
XRECORD
  5
BE
102
{ACAD_REACTORS
330
BC
102
}
330
BC
100
AcDbXrecord
280
     1
270
     1
271
     1
  0
XRECORD
  5
BD
102
{ACAD_REACTORS
330
BC
102
}
330
BC
100
AcDbXrecord
280
     1
270
     1
271
     1
  0
XRECORD
  5
C1
102
{ACAD_REACTORS
330
BC
102
}
330
BC
100
AcDbXrecord
280
     1
270
     1
271
     1
  0
XRECORD
  5
C0
102
{ACAD_REACTORS
330
BC
102
}
330
BC
100
AcDbXrecord
280
     1
270
     1
271
     1
  0
XRECORD
  5
C2
102
{ACAD_REACTORS
330
BC
102
}
330
BC
100
AcDbXrecord
280
     1
270
     1
271
     1
  0
XRECORD
  5
BF
102
{ACAD_REACTORS
330
BC
102
}
330
BC
100
AcDbXrecord
280
     1
270
     1
271
     1
  0
XRECORD
  5
182
102
{ACAD_REACTORS
330
181
102
}
330
181
100
AcDbXrecord
280
     1
102
ACAD_ROUNDTRIP_2012_MLEADER_STYLE
298
     1
  0
XRECORD
  5
184
102
{ACAD_REACTORS
330
183
102
}
330
183
100
AcDbXrecord
280
     1
102
DISPLAYNAME
  1
Imperial24
102
FLAGS
 90
        0
  0
CELLSTYLEMAP
  5
14F
102
{ACAD_REACTORS
330
14E
102
}
330
14E
100
AcDbCellStyleMap
 90
        3
300
CELLSTYLE
  1
TABLEFORMAT_BEGIN
 90
        5
170
     1
 91
        0
 92
    32768
 62
   257
 93
        1
300
CONTENTFORMAT
  1
CONTENTFORMAT_BEGIN
 90
        0
 91
        0
 92
      512
 93
        0
300

 40
0.0
140
1.0
 94
        5
 62
     0
340
11
144
0.25
309
CONTENTFORMAT_END
171
     0
 94
        0
309
TABLEFORMAT_END
  1
CELLSTYLE_BEGIN
 90
        1
 91
        1
300
_TITLE
309
CELLSTYLE_END
300
CELLSTYLE
  1
TABLEFORMAT_BEGIN
 90
        5
170
     1
 91
        0
 92
        0
 62
   257
 93
        1
300
CONTENTFORMAT
  1
CONTENTFORMAT_BEGIN
 90
        0
 91
        0
 92
      512
 93
        0
300

 40
0.0
140
1.0
 94
        5
 62
     0
340
11
144
0.18
309
CONTENTFORMAT_END
171
     0
 94
        0
309
TABLEFORMAT_END
  1
CELLSTYLE_BEGIN
 90
        2
 91
        1
300
_HEADER
309
CELLSTYLE_END
300
CELLSTYLE
  1
TABLEFORMAT_BEGIN
 90
        5
170
     1
 91
        0
 92
        0
 62
   257
 93
        1
300
CONTENTFORMAT
  1
CONTENTFORMAT_BEGIN
 90
        0
 91
        0
 92
      512
 93
        0
300

 40
0.0
140
1.0
 94
        2
 62
     0
340
11
144
0.18
309
CONTENTFORMAT_END
171
     0
 94
        0
309
TABLEFORMAT_END
  1
CELLSTYLE_BEGIN
 90
        3
 91
        2
300
_DATA
309
CELLSTYLE_END
  0
XRECORD
  5
15C
102
{ACAD_REACTORS
330
15B
102
}
330
15B
100
AcDbXrecord
280
     1
102
RTVSPost2010Prop28
280
     1
102
RTVSPost2010PropOp28
 70
     1
102
RTVSPost2010Prop29
280
     1
102
RTVSPost2010PropOp29
 70
     1
102
RTVSPost2010Prop30
280
     0
102
RTVSPost2010PropOp30
 70
     1
102
RTVSPost2010Prop31
280
     0
102
RTVSPost2010PropOp31
 70
     1
102
RTVSPost2010Prop32
280
     0
102
RTVSPost2010PropOp32
 70
     1
102
RTVSPost2010Prop33
280
     0
102
RTVSPost2010PropOp33
 70
     1
102
RTVSPost2010Prop34
280
     0
102
RTVSPost2010PropOp34
 70
     1
102
RTVSPost2010Prop35
280
     0
102
RTVSPost2010PropOp35
 70
     1
102
RTVSPost2010Prop36
280
     0
102
RTVSPost2010PropOp36
 70
     1
102
RTVSPost2010Prop37
 90
       50
102
RTVSPost2010PropOp37
 70
     1
102
RTVSPost2010Prop38
140
0.0
102
RTVSPost2010PropOp38
 70
     1
102
RTVSPost2010Prop39
140
1.0
102
RTVSPost2010PropOp39
 70
     1
102
RTVSPost2010Prop40
 90
        0
102
RTVSPost2010PropOp40
 70
     1
102
RTVSPost2010Prop41ColorIndex
 90
       18
102
RTVSPost2010Prop41ColorRGB
 90
        0
102
RTVSPost2010PropOp41
 70
     1
102
RTVSPost2010Prop42
 90
       50
102
RTVSPost2010PropOp42
 70
     1
102
RTVSPost2010Prop43
 90
        3
102
RTVSPost2010PropOp43
 70
     1
102
RTVSPost2010Prop44ColorIndex
 90
        5
102
RTVSPost2010Prop44ColorRGB
 90
      255
102
RTVSPost2010PropOp44
 70
     1
102
RTVSPost2010Prop45
280
     0
102
RTVSPost2010PropOp45
 70
     1
102
RTVSPost2010Prop46
 90
       50
102
RTVSPost2010PropOp46
 70
     1
102
RTVSPost2010Prop47
 90
       50
102
RTVSPost2010PropOp47
 70
     1
102
RTVSPost2010Prop48
 90
       50
102
RTVSPost2010PropOp48
 70
     1
102
RTVSPost2010Prop49
280
     0
102
RTVSPost2010PropOp49
 70
     1
102
RTVSPost2010Prop50
 90
       50
102
RTVSPost2010PropOp50
 70
     1
102
RTVSPost2010Prop51ColorIndex
 90
      256
102
RTVSPost2010Prop51ColorRGB
 90
-16777216
102
RTVSPost2010PropOp51
 70
     0
102
RTVSPost2010Prop52
140
1.0
102
RTVSPost2010PropOp52
 70
     0
102
RTVSPost2010Prop53
 90
        2
102
RTVSPost2010PropOp53
 70
     1
102
RTVSPost2010Prop54
  1
strokes_ogs.tif
102
RTVSPost2010PropOp54
 70
     1
102
RTVSPost2010Prop55
280
     0
102
RTVSPost2010PropOp55
 70
     1
102
RTVSPost2010Prop56
140
1.0
102
RTVSPost2010PropOp56
 70
     1
102
RTVSPost2010Prop57
140
1.0
102
RTVSPost2010PropOp57
 70
     1
  0
XRECORD
  5
15A
102
{ACAD_REACTORS
330
159
102
}
330
159
100
AcDbXrecord
280
     1
102
RTVSPost2010Prop28
280
     0
102
RTVSPost2010PropOp28
 70
     1
102
RTVSPost2010Prop29
280
     1
102
RTVSPost2010PropOp29
 70
     1
102
RTVSPost2010Prop30
280
     1
102
RTVSPost2010PropOp30
 70
     1
102
RTVSPost2010Prop31
280
     0
102
RTVSPost2010PropOp31
 70
     1
102
RTVSPost2010Prop32
280
     0
102
RTVSPost2010PropOp32
 70
     1
102
RTVSPost2010Prop33
280
     0
102
RTVSPost2010PropOp33
 70
     1
102
RTVSPost2010Prop34
280
     0
102
RTVSPost2010PropOp34
 70
     1
102
RTVSPost2010Prop35
280
     0
102
RTVSPost2010PropOp35
 70
     1
102
RTVSPost2010Prop36
280
     0
102
RTVSPost2010PropOp36
 70
     1
102
RTVSPost2010Prop37
 90
       50
102
RTVSPost2010PropOp37
 70
     1
102
RTVSPost2010Prop38
140
0.0
102
RTVSPost2010PropOp38
 70
     1
102
RTVSPost2010Prop39
140
1.0
102
RTVSPost2010PropOp39
 70
     1
102
RTVSPost2010Prop40
 90
        0
102
RTVSPost2010PropOp40
 70
     1
102
RTVSPost2010Prop41ColorIndex
 90
       18
102
RTVSPost2010Prop41ColorRGB
 90
        0
102
RTVSPost2010PropOp41
 70
     1
102
RTVSPost2010Prop42
 90
       50
102
RTVSPost2010PropOp42
 70
     1
102
RTVSPost2010Prop43
 90
        3
102
RTVSPost2010PropOp43
 70
     1
102
RTVSPost2010Prop44ColorIndex
 90
        5
102
RTVSPost2010Prop44ColorRGB
 90
      255
102
RTVSPost2010PropOp44
 70
     1
102
RTVSPost2010Prop45
280
     0
102
RTVSPost2010PropOp45
 70
     1
102
RTVSPost2010Prop46
 90
       50
102
RTVSPost2010PropOp46
 70
     1
102
RTVSPost2010Prop47
 90
       50
102
RTVSPost2010PropOp47
 70
     1
102
RTVSPost2010Prop48
 90
       50
102
RTVSPost2010PropOp48
 70
     1
102
RTVSPost2010Prop49
280
     0
102
RTVSPost2010PropOp49
 70
     1
102
RTVSPost2010Prop50
 90
       50
102
RTVSPost2010PropOp50
 70
     1
102
RTVSPost2010Prop51ColorIndex
 90
      256
102
RTVSPost2010Prop51ColorRGB
 90
-16777216
102
RTVSPost2010PropOp51
 70
     0
102
RTVSPost2010Prop52
140
1.0
102
RTVSPost2010PropOp52
 70
     0
102
RTVSPost2010Prop53
 90
        2
102
RTVSPost2010PropOp53
 70
     1
102
RTVSPost2010Prop54
  1
strokes_ogs.tif
102
RTVSPost2010PropOp54
 70
     1
102
RTVSPost2010Prop55
280
     0
102
RTVSPost2010PropOp55
 70
     1
102
RTVSPost2010Prop56
140
1.0
102
RTVSPost2010PropOp56
 70
     1
102
RTVSPost2010Prop57
140
1.0
102
RTVSPost2010PropOp57
 70
     1
  0
XRECORD
  5
168
102
{ACAD_REACTORS
330
167
102
}
330
167
100
AcDbXrecord
280
     1
102
RTVSPost2010Prop28
280
     0
102
RTVSPost2010PropOp28
 70
     1
102
RTVSPost2010Prop29
280
     1
102
RTVSPost2010PropOp29
 70
     1
102
RTVSPost2010Prop30
280
     1
102
RTVSPost2010PropOp30
 70
     1
102
RTVSPost2010Prop31
280
     0
102
RTVSPost2010PropOp31
 70
     1
102
RTVSPost2010Prop32
280
     0
102
RTVSPost2010PropOp32
 70
     1
102
RTVSPost2010Prop33
280
     0
102
RTVSPost2010PropOp33
 70
     1
102
RTVSPost2010Prop34
280
     0
102
RTVSPost2010PropOp34
 70
     1
102
RTVSPost2010Prop35
280
     0
102
RTVSPost2010PropOp35
 70
     1
102
RTVSPost2010Prop36
280
     0
102
RTVSPost2010PropOp36
 70
     1
102
RTVSPost2010Prop37
 90
       50
102
RTVSPost2010PropOp37
 70
     1
102
RTVSPost2010Prop38
140
0.0
102
RTVSPost2010PropOp38
 70
     1
102
RTVSPost2010Prop39
140
1.0
102
RTVSPost2010PropOp39
 70
     1
102
RTVSPost2010Prop40
 90
        0
102
RTVSPost2010PropOp40
 70
     1
102
RTVSPost2010Prop41ColorIndex
 90
       18
102
RTVSPost2010Prop41ColorRGB
 90
        0
102
RTVSPost2010PropOp41
 70
     1
102
RTVSPost2010Prop42
 90
       50
102
RTVSPost2010PropOp42
 70
     1
102
RTVSPost2010Prop43
 90
        3
102
RTVSPost2010PropOp43
 70
     1
102
RTVSPost2010Prop44ColorIndex
 90
        5
102
RTVSPost2010Prop44ColorRGB
 90
      255
102
RTVSPost2010PropOp44
 70
     1
102
RTVSPost2010Prop45
280
     0
102
RTVSPost2010PropOp45
 70
     1
102
RTVSPost2010Prop46
 90
       50
102
RTVSPost2010PropOp46
 70
     1
102
RTVSPost2010Prop47
 90
       50
102
RTVSPost2010PropOp47
 70
     1
102
RTVSPost2010Prop48
 90
       50
102
RTVSPost2010PropOp48
 70
     1
102
RTVSPost2010Prop49
280
     0
102
RTVSPost2010PropOp49
 70
     1
102
RTVSPost2010Prop50
 90
       50
102
RTVSPost2010PropOp50
 70
     1
102
RTVSPost2010Prop51ColorIndex
 90
      256
102
RTVSPost2010Prop51ColorRGB
 90
-16777216
102
RTVSPost2010PropOp51
 70
     0
102
RTVSPost2010Prop52
140
1.0
102
RTVSPost2010PropOp52
 70
     0
102
RTVSPost2010Prop53
 90
        2
102
RTVSPost2010PropOp53
 70
     1
102
RTVSPost2010Prop54
  1
strokes_ogs.tif
102
RTVSPost2010PropOp54
 70
     1
102
RTVSPost2010Prop55
280
     0
102
RTVSPost2010PropOp55
 70
     1
102
RTVSPost2010Prop56
140
1.0
102
RTVSPost2010PropOp56
 70
     1
102
RTVSPost2010Prop57
140
1.0
102
RTVSPost2010PropOp57
 70
     1
  0
XRECORD
  5
170
102
{ACAD_REACTORS
330
16F
102
}
330
16F
100
AcDbXrecord
280
     1
102
RTVSPost2010Prop28
280
     0
102
RTVSPost2010PropOp28
 70
     1
102
RTVSPost2010Prop29
280
     1
102
RTVSPost2010PropOp29
 70
     1
102
RTVSPost2010Prop30
280
     1
102
RTVSPost2010PropOp30
 70
     1
102
RTVSPost2010Prop31
280
     0
102
RTVSPost2010PropOp31
 70
     1
102
RTVSPost2010Prop32
280
     0
102
RTVSPost2010PropOp32
 70
     1
102
RTVSPost2010Prop33
280
     0
102
RTVSPost2010PropOp33
 70
     1
102
RTVSPost2010Prop34
280
     0
102
RTVSPost2010PropOp34
 70
     1
102
RTVSPost2010Prop35
280
     0
102
RTVSPost2010PropOp35
 70
     1
102
RTVSPost2010Prop36
280
     0
102
RTVSPost2010PropOp36
 70
     1
102
RTVSPost2010Prop37
 90
       50
102
RTVSPost2010PropOp37
 70
     1
102
RTVSPost2010Prop38
140
0.0
102
RTVSPost2010PropOp38
 70
     1
102
RTVSPost2010Prop39
140
1.0
102
RTVSPost2010PropOp39
 70
     1
102
RTVSPost2010Prop40
 90
        0
102
RTVSPost2010PropOp40
 70
     1
102
RTVSPost2010Prop41ColorIndex
 90
       18
102
RTVSPost2010Prop41ColorRGB
 90
        0
102
RTVSPost2010PropOp41
 70
     1
102
RTVSPost2010Prop42
 90
       50
102
RTVSPost2010PropOp42
 70
     1
102
RTVSPost2010Prop43
 90
        3
102
RTVSPost2010PropOp43
 70
     1
102
RTVSPost2010Prop44ColorIndex
 90
        5
102
RTVSPost2010Prop44ColorRGB
 90
      255
102
RTVSPost2010PropOp44
 70
     1
102
RTVSPost2010Prop45
280
     0
102
RTVSPost2010PropOp45
 70
     1
102
RTVSPost2010Prop46
 90
       50
102
RTVSPost2010PropOp46
 70
     1
102
RTVSPost2010Prop47
 90
       50
102
RTVSPost2010PropOp47
 70
     1
102
RTVSPost2010Prop48
 90
       50
102
RTVSPost2010PropOp48
 70
     1
102
RTVSPost2010Prop49
280
     0
102
RTVSPost2010PropOp49
 70
     1
102
RTVSPost2010Prop50
 90
       50
102
RTVSPost2010PropOp50
 70
     1
102
RTVSPost2010Prop51ColorIndex
 90
      256
102
RTVSPost2010Prop51ColorRGB
 90
-16777216
102
RTVSPost2010PropOp51
 70
     0
102
RTVSPost2010Prop52
140
1.0
102
RTVSPost2010PropOp52
 70
     0
102
RTVSPost2010Prop53
 90
        2
102
RTVSPost2010PropOp53
 70
     1
102
RTVSPost2010Prop54
  1
strokes_ogs.tif
102
RTVSPost2010PropOp54
 70
     1
102
RTVSPost2010Prop55
280
     0
102
RTVSPost2010PropOp55
 70
     1
102
RTVSPost2010Prop56
140
1.0
102
RTVSPost2010PropOp56
 70
     1
102
RTVSPost2010Prop57
140
1.0
102
RTVSPost2010PropOp57
 70
     1
  0
XRECORD
  5
162
102
{ACAD_REACTORS
330
161
102
}
330
161
100
AcDbXrecord
280
     1
102
RTVSPost2010Prop28
280
     0
102
RTVSPost2010PropOp28
 70
     1
102
RTVSPost2010Prop29
280
     1
102
RTVSPost2010PropOp29
 70
     1
102
RTVSPost2010Prop30
280
     1
102
RTVSPost2010PropOp30
 70
     1
102
RTVSPost2010Prop31
280
     0
102
RTVSPost2010PropOp31
 70
     1
102
RTVSPost2010Prop32
280
     0
102
RTVSPost2010PropOp32
 70
     1
102
RTVSPost2010Prop33
280
     0
102
RTVSPost2010PropOp33
 70
     1
102
RTVSPost2010Prop34
280
     0
102
RTVSPost2010PropOp34
 70
     1
102
RTVSPost2010Prop35
280
     0
102
RTVSPost2010PropOp35
 70
     1
102
RTVSPost2010Prop36
280
     0
102
RTVSPost2010PropOp36
 70
     1
102
RTVSPost2010Prop37
 90
       50
102
RTVSPost2010PropOp37
 70
     1
102
RTVSPost2010Prop38
140
0.0
102
RTVSPost2010PropOp38
 70
     1
102
RTVSPost2010Prop39
140
1.0
102
RTVSPost2010PropOp39
 70
     1
102
RTVSPost2010Prop40
 90
        0
102
RTVSPost2010PropOp40
 70
     1
102
RTVSPost2010Prop41ColorIndex
 90
       18
102
RTVSPost2010Prop41ColorRGB
 90
        0
102
RTVSPost2010PropOp41
 70
     1
102
RTVSPost2010Prop42
 90
       50
102
RTVSPost2010PropOp42
 70
     1
102
RTVSPost2010Prop43
 90
        3
102
RTVSPost2010PropOp43
 70
     1
102
RTVSPost2010Prop44ColorIndex
 90
        5
102
RTVSPost2010Prop44ColorRGB
 90
      255
102
RTVSPost2010PropOp44
 70
     1
102
RTVSPost2010Prop45
280
     0
102
RTVSPost2010PropOp45
 70
     1
102
RTVSPost2010Prop46
 90
       50
102
RTVSPost2010PropOp46
 70
     1
102
RTVSPost2010Prop47
 90
       50
102
RTVSPost2010PropOp47
 70
     1
102
RTVSPost2010Prop48
 90
       50
102
RTVSPost2010PropOp48
 70
     1
102
RTVSPost2010Prop49
280
     0
102
RTVSPost2010PropOp49
 70
     1
102
RTVSPost2010Prop50
 90
       50
102
RTVSPost2010PropOp50
 70
     1
102
RTVSPost2010Prop51ColorIndex
 90
      256
102
RTVSPost2010Prop51ColorRGB
 90
-16777216
102
RTVSPost2010PropOp51
 70
     0
102
RTVSPost2010Prop52
140
1.0
102
RTVSPost2010PropOp52
 70
     0
102
RTVSPost2010Prop53
 90
        2
102
RTVSPost2010PropOp53
 70
     1
102
RTVSPost2010Prop54
  1
strokes_ogs.tif
102
RTVSPost2010PropOp54
 70
     1
102
RTVSPost2010Prop55
280
     0
102
RTVSPost2010PropOp55
 70
     1
102
RTVSPost2010Prop56
140
1.0
102
RTVSPost2010PropOp56
 70
     1
102
RTVSPost2010Prop57
140
1.0
102
RTVSPost2010PropOp57
 70
     1
  0
XRECORD
  5
166
102
{ACAD_REACTORS
330
165
102
}
330
165
100
AcDbXrecord
280
     1
102
RTVSPost2010Prop28
280
     0
102
RTVSPost2010PropOp28
 70
     1
102
RTVSPost2010Prop29
280
     1
102
RTVSPost2010PropOp29
 70
     1
102
RTVSPost2010Prop30
280
     1
102
RTVSPost2010PropOp30
 70
     1
102
RTVSPost2010Prop31
280
     0
102
RTVSPost2010PropOp31
 70
     1
102
RTVSPost2010Prop32
280
     0
102
RTVSPost2010PropOp32
 70
     1
102
RTVSPost2010Prop33
280
     0
102
RTVSPost2010PropOp33
 70
     1
102
RTVSPost2010Prop34
280
     0
102
RTVSPost2010PropOp34
 70
     1
102
RTVSPost2010Prop35
280
     0
102
RTVSPost2010PropOp35
 70
     1
102
RTVSPost2010Prop36
280
     0
102
RTVSPost2010PropOp36
 70
     1
102
RTVSPost2010Prop37
 90
       50
102
RTVSPost2010PropOp37
 70
     1
102
RTVSPost2010Prop38
140
0.0
102
RTVSPost2010PropOp38
 70
     1
102
RTVSPost2010Prop39
140
1.0
102
RTVSPost2010PropOp39
 70
     1
102
RTVSPost2010Prop40
 90
        0
102
RTVSPost2010PropOp40
 70
     1
102
RTVSPost2010Prop41ColorIndex
 90
       18
102
RTVSPost2010Prop41ColorRGB
 90
        0
102
RTVSPost2010PropOp41
 70
     1
102
RTVSPost2010Prop42
 90
       50
102
RTVSPost2010PropOp42
 70
     1
102
RTVSPost2010Prop43
 90
        3
102
RTVSPost2010PropOp43
 70
     1
102
RTVSPost2010Prop44ColorIndex
 90
        5
102
RTVSPost2010Prop44ColorRGB
 90
      255
102
RTVSPost2010PropOp44
 70
     1
102
RTVSPost2010Prop45
280
     0
102
RTVSPost2010PropOp45
 70
     1
102
RTVSPost2010Prop46
 90
       50
102
RTVSPost2010PropOp46
 70
     1
102
RTVSPost2010Prop47
 90
       50
102
RTVSPost2010PropOp47
 70
     1
102
RTVSPost2010Prop48
 90
       50
102
RTVSPost2010PropOp48
 70
     1
102
RTVSPost2010Prop49
280
     0
102
RTVSPost2010PropOp49
 70
     1
102
RTVSPost2010Prop50
 90
       50
102
RTVSPost2010PropOp50
 70
     1
102
RTVSPost2010Prop51ColorIndex
 90
      256
102
RTVSPost2010Prop51ColorRGB
 90
-16777216
102
RTVSPost2010PropOp51
 70
     0
102
RTVSPost2010Prop52
140
1.0
102
RTVSPost2010PropOp52
 70
     0
102
RTVSPost2010Prop53
 90
        2
102
RTVSPost2010PropOp53
 70
     1
102
RTVSPost2010Prop54
  1
strokes_ogs.tif
102
RTVSPost2010PropOp54
 70
     1
102
RTVSPost2010Prop55
280
     0
102
RTVSPost2010PropOp55
 70
     1
102
RTVSPost2010Prop56
140
1.0
102
RTVSPost2010PropOp56
 70
     1
102
RTVSPost2010Prop57
140
1.0
102
RTVSPost2010PropOp57
 70
     1
  0
XRECORD
  5
180
102
{ACAD_REACTORS
330
17F
102
}
330
17F
100
AcDbXrecord
280
     1
102
RTVSPost2010Prop28
280
     0
102
RTVSPost2010PropOp28
 70
     0
102
RTVSPost2010Prop29
280
     1
102
RTVSPost2010PropOp29
 70
     0
102
RTVSPost2010Prop30
280
     1
102
RTVSPost2010PropOp30
 70
     0
102
RTVSPost2010Prop31
280
     0
102
RTVSPost2010PropOp31
 70
     0
102
RTVSPost2010Prop32
280
     0
102
RTVSPost2010PropOp32
 70
     0
102
RTVSPost2010Prop33
280
     0
102
RTVSPost2010PropOp33
 70
     0
102
RTVSPost2010Prop34
280
     0
102
RTVSPost2010PropOp34
 70
     0
102
RTVSPost2010Prop35
280
     0
102
RTVSPost2010PropOp35
 70
     0
102
RTVSPost2010Prop36
280
     0
102
RTVSPost2010PropOp36
 70
     0
102
RTVSPost2010Prop37
 90
       50
102
RTVSPost2010PropOp37
 70
     0
102
RTVSPost2010Prop38
140
0.0
102
RTVSPost2010PropOp38
 70
     0
102
RTVSPost2010Prop39
140
1.0
102
RTVSPost2010PropOp39
 70
     0
102
RTVSPost2010Prop40
 90
        0
102
RTVSPost2010PropOp40
 70
     0
102
RTVSPost2010Prop41ColorIndex
 90
       18
102
RTVSPost2010Prop41ColorRGB
 90
        0
102
RTVSPost2010PropOp41
 70
     0
102
RTVSPost2010Prop42
 90
       50
102
RTVSPost2010PropOp42
 70
     0
102
RTVSPost2010Prop43
 90
        3
102
RTVSPost2010PropOp43
 70
     0
102
RTVSPost2010Prop44ColorIndex
 90
        5
102
RTVSPost2010Prop44ColorRGB
 90
      255
102
RTVSPost2010PropOp44
 70
     0
102
RTVSPost2010Prop45
280
     0
102
RTVSPost2010PropOp45
 70
     0
102
RTVSPost2010Prop46
 90
       50
102
RTVSPost2010PropOp46
 70
     0
102
RTVSPost2010Prop47
 90
       50
102
RTVSPost2010PropOp47
 70
     0
102
RTVSPost2010Prop48
 90
       50
102
RTVSPost2010PropOp48
 70
     0
102
RTVSPost2010Prop49
280
     0
102
RTVSPost2010PropOp49
 70
     0
102
RTVSPost2010Prop50
 90
       50
102
RTVSPost2010PropOp50
 70
     0
102
RTVSPost2010Prop51ColorIndex
 90
      256
102
RTVSPost2010Prop51ColorRGB
 90
-16777216
102
RTVSPost2010PropOp51
 70
     0
102
RTVSPost2010Prop52
140
1.0
102
RTVSPost2010PropOp52
 70
     0
102
RTVSPost2010Prop53
 90
        2
102
RTVSPost2010PropOp53
 70
     0
102
RTVSPost2010Prop54
  1
strokes_ogs.tif
102
RTVSPost2010PropOp54
 70
     0
102
RTVSPost2010Prop55
280
     0
102
RTVSPost2010PropOp55
 70
     0
102
RTVSPost2010Prop56
140
1.0
102
RTVSPost2010PropOp56
 70
     0
102
RTVSPost2010Prop57
140
1.0
102
RTVSPost2010PropOp57
 70
     0
  0
XRECORD
  5
16E
102
{ACAD_REACTORS
330
16D
102
}
330
16D
100
AcDbXrecord
280
     1
102
RTVSPost2010Prop28
280
     0
102
RTVSPost2010PropOp28
 70
     1
102
RTVSPost2010Prop29
280
     1
102
RTVSPost2010PropOp29
 70
     1
102
RTVSPost2010Prop30
280
     1
102
RTVSPost2010PropOp30
 70
     1
102
RTVSPost2010Prop31
280
     0
102
RTVSPost2010PropOp31
 70
     1
102
RTVSPost2010Prop32
280
     0
102
RTVSPost2010PropOp32
 70
     1
102
RTVSPost2010Prop33
280
     0
102
RTVSPost2010PropOp33
 70
     1
102
RTVSPost2010Prop34
280
     0
102
RTVSPost2010PropOp34
 70
     1
102
RTVSPost2010Prop35
280
     0
102
RTVSPost2010PropOp35
 70
     1
102
RTVSPost2010Prop36
280
     0
102
RTVSPost2010PropOp36
 70
     1
102
RTVSPost2010Prop37
 90
       50
102
RTVSPost2010PropOp37
 70
     1
102
RTVSPost2010Prop38
140
0.0
102
RTVSPost2010PropOp38
 70
     1
102
RTVSPost2010Prop39
140
1.0
102
RTVSPost2010PropOp39
 70
     1
102
RTVSPost2010Prop40
 90
        0
102
RTVSPost2010PropOp40
 70
     1
102
RTVSPost2010Prop41ColorIndex
 90
       18
102
RTVSPost2010Prop41ColorRGB
 90
        0
102
RTVSPost2010PropOp41
 70
     1
102
RTVSPost2010Prop42
 90
       50
102
RTVSPost2010PropOp42
 70
     1
102
RTVSPost2010Prop43
 90
        3
102
RTVSPost2010PropOp43
 70
     1
102
RTVSPost2010Prop44ColorIndex
 90
        5
102
RTVSPost2010Prop44ColorRGB
 90
      255
102
RTVSPost2010PropOp44
 70
     1
102
RTVSPost2010Prop45
280
     0
102
RTVSPost2010PropOp45
 70
     1
102
RTVSPost2010Prop46
 90
       50
102
RTVSPost2010PropOp46
 70
     1
102
RTVSPost2010Prop47
 90
       50
102
RTVSPost2010PropOp47
 70
     1
102
RTVSPost2010Prop48
 90
       50
102
RTVSPost2010PropOp48
 70
     1
102
RTVSPost2010Prop49
280
     0
102
RTVSPost2010PropOp49
 70
     1
102
RTVSPost2010Prop50
 90
       50
102
RTVSPost2010PropOp50
 70
     1
102
RTVSPost2010Prop51ColorIndex
 90
      256
102
RTVSPost2010Prop51ColorRGB
 90
-16777216
102
RTVSPost2010PropOp51
 70
     0
102
RTVSPost2010Prop52
140
1.0
102
RTVSPost2010PropOp52
 70
     0
102
RTVSPost2010Prop53
 90
        2
102
RTVSPost2010PropOp53
 70
     1
102
RTVSPost2010Prop54
  1
strokes_ogs.tif
102
RTVSPost2010PropOp54
 70
     1
102
RTVSPost2010Prop55
280
     0
102
RTVSPost2010PropOp55
 70
     1
102
RTVSPost2010Prop56
140
1.0
102
RTVSPost2010PropOp56
 70
     1
102
RTVSPost2010Prop57
140
1.0
102
RTVSPost2010PropOp57
 70
     1
  0
XRECORD
  5
152
102
{ACAD_REACTORS
330
151
102
}
330
151
100
AcDbXrecord
280
     1
102
RTVSPost2010Prop28
280
     0
102
RTVSPost2010PropOp28
 70
     1
102
RTVSPost2010Prop29
280
     1
102
RTVSPost2010PropOp29
 70
     1
102
RTVSPost2010Prop30
280
     1
102
RTVSPost2010PropOp30
 70
     1
102
RTVSPost2010Prop31
280
     0
102
RTVSPost2010PropOp31
 70
     1
102
RTVSPost2010Prop32
280
     0
102
RTVSPost2010PropOp32
 70
     1
102
RTVSPost2010Prop33
280
     0
102
RTVSPost2010PropOp33
 70
     1
102
RTVSPost2010Prop34
280
     0
102
RTVSPost2010PropOp34
 70
     1
102
RTVSPost2010Prop35
280
     0
102
RTVSPost2010PropOp35
 70
     1
102
RTVSPost2010Prop36
280
     0
102
RTVSPost2010PropOp36
 70
     1
102
RTVSPost2010Prop37
 90
       50
102
RTVSPost2010PropOp37
 70
     1
102
RTVSPost2010Prop38
140
0.0
102
RTVSPost2010PropOp38
 70
     1
102
RTVSPost2010Prop39
140
1.0
102
RTVSPost2010PropOp39
 70
     1
102
RTVSPost2010Prop40
 90
        0
102
RTVSPost2010PropOp40
 70
     1
102
RTVSPost2010Prop41ColorIndex
 90
       18
102
RTVSPost2010Prop41ColorRGB
 90
        0
102
RTVSPost2010PropOp41
 70
     1
102
RTVSPost2010Prop42
 90
       50
102
RTVSPost2010PropOp42
 70
     1
102
RTVSPost2010Prop43
 90
        3
102
RTVSPost2010PropOp43
 70
     1
102
RTVSPost2010Prop44ColorIndex
 90
        5
102
RTVSPost2010Prop44ColorRGB
 90
      255
102
RTVSPost2010PropOp44
 70
     1
102
RTVSPost2010Prop45
280
     0
102
RTVSPost2010PropOp45
 70
     1
102
RTVSPost2010Prop46
 90
       50
102
RTVSPost2010PropOp46
 70
     1
102
RTVSPost2010Prop47
 90
       50
102
RTVSPost2010PropOp47
 70
     1
102
RTVSPost2010Prop48
 90
       50
102
RTVSPost2010PropOp48
 70
     1
102
RTVSPost2010Prop49
280
     0
102
RTVSPost2010PropOp49
 70
     1
102
RTVSPost2010Prop50
 90
       50
102
RTVSPost2010PropOp50
 70
     1
102
RTVSPost2010Prop51ColorIndex
 90
      256
102
RTVSPost2010Prop51ColorRGB
 90
-16777216
102
RTVSPost2010PropOp51
 70
     0
102
RTVSPost2010Prop52
140
1.0
102
RTVSPost2010PropOp52
 70
     0
102
RTVSPost2010Prop53
 90
        2
102
RTVSPost2010PropOp53
 70
     1
102
RTVSPost2010Prop54
  1
strokes_ogs.tif
102
RTVSPost2010PropOp54
 70
     1
102
RTVSPost2010Prop55
280
     0
102
RTVSPost2010PropOp55
 70
     1
102
RTVSPost2010Prop56
140
1.0
102
RTVSPost2010PropOp56
 70
     1
102
RTVSPost2010Prop57
140
1.0
102
RTVSPost2010PropOp57
 70
     1
  0
XRECORD
  5
154
102
{ACAD_REACTORS
330
153
102
}
330
153
100
AcDbXrecord
280
     1
102
RTVSPost2010Prop28
280
     0
102
RTVSPost2010PropOp28
 70
     1
102
RTVSPost2010Prop29
280
     1
102
RTVSPost2010PropOp29
 70
     1
102
RTVSPost2010Prop30
280
     1
102
RTVSPost2010PropOp30
 70
     1
102
RTVSPost2010Prop31
280
     0
102
RTVSPost2010PropOp31
 70
     1
102
RTVSPost2010Prop32
280
     0
102
RTVSPost2010PropOp32
 70
     1
102
RTVSPost2010Prop33
280
     0
102
RTVSPost2010PropOp33
 70
     1
102
RTVSPost2010Prop34
280
     0
102
RTVSPost2010PropOp34
 70
     1
102
RTVSPost2010Prop35
280
     0
102
RTVSPost2010PropOp35
 70
     1
102
RTVSPost2010Prop36
280
     0
102
RTVSPost2010PropOp36
 70
     1
102
RTVSPost2010Prop37
 90
       50
102
RTVSPost2010PropOp37
 70
     1
102
RTVSPost2010Prop38
140
0.0
102
RTVSPost2010PropOp38
 70
     1
102
RTVSPost2010Prop39
140
1.0
102
RTVSPost2010PropOp39
 70
     1
102
RTVSPost2010Prop40
 90
        0
102
RTVSPost2010PropOp40
 70
     1
102
RTVSPost2010Prop41ColorIndex
 90
       18
102
RTVSPost2010Prop41ColorRGB
 90
        0
102
RTVSPost2010PropOp41
 70
     1
102
RTVSPost2010Prop42
 90
       50
102
RTVSPost2010PropOp42
 70
     1
102
RTVSPost2010Prop43
 90
        3
102
RTVSPost2010PropOp43
 70
     1
102
RTVSPost2010Prop44ColorIndex
 90
        5
102
RTVSPost2010Prop44ColorRGB
 90
      255
102
RTVSPost2010PropOp44
 70
     1
102
RTVSPost2010Prop45
280
     0
102
RTVSPost2010PropOp45
 70
     1
102
RTVSPost2010Prop46
 90
       50
102
RTVSPost2010PropOp46
 70
     1
102
RTVSPost2010Prop47
 90
       50
102
RTVSPost2010PropOp47
 70
     1
102
RTVSPost2010Prop48
 90
       50
102
RTVSPost2010PropOp48
 70
     1
102
RTVSPost2010Prop49
280
     0
102
RTVSPost2010PropOp49
 70
     1
102
RTVSPost2010Prop50
 90
       50
102
RTVSPost2010PropOp50
 70
     1
102
RTVSPost2010Prop51ColorIndex
 90
      256
102
RTVSPost2010Prop51ColorRGB
 90
-16777216
102
RTVSPost2010PropOp51
 70
     0
102
RTVSPost2010Prop52
140
1.0
102
RTVSPost2010PropOp52
 70
     0
102
RTVSPost2010Prop53
 90
        2
102
RTVSPost2010PropOp53
 70
     1
102
RTVSPost2010Prop54
  1
strokes_ogs.tif
102
RTVSPost2010PropOp54
 70
     1
102
RTVSPost2010Prop55
280
     0
102
RTVSPost2010PropOp55
 70
     1
102
RTVSPost2010Prop56
140
1.0
102
RTVSPost2010PropOp56
 70
     1
102
RTVSPost2010Prop57
140
1.0
102
RTVSPost2010PropOp57
 70
     1
  0
XRECORD
  5
156
102
{ACAD_REACTORS
330
155
102
}
330
155
100
AcDbXrecord
280
     1
102
RTVSPost2010Prop28
280
     0
102
RTVSPost2010PropOp28
 70
     1
102
RTVSPost2010Prop29
280
     1
102
RTVSPost2010PropOp29
 70
     1
102
RTVSPost2010Prop30
280
     1
102
RTVSPost2010PropOp30
 70
     1
102
RTVSPost2010Prop31
280
     0
102
RTVSPost2010PropOp31
 70
     1
102
RTVSPost2010Prop32
280
     0
102
RTVSPost2010PropOp32
 70
     1
102
RTVSPost2010Prop33
280
     0
102
RTVSPost2010PropOp33
 70
     1
102
RTVSPost2010Prop34
280
     0
102
RTVSPost2010PropOp34
 70
     1
102
RTVSPost2010Prop35
280
     0
102
RTVSPost2010PropOp35
 70
     1
102
RTVSPost2010Prop36
280
     0
102
RTVSPost2010PropOp36
 70
     1
102
RTVSPost2010Prop37
 90
       50
102
RTVSPost2010PropOp37
 70
     1
102
RTVSPost2010Prop38
140
0.0
102
RTVSPost2010PropOp38
 70
     1
102
RTVSPost2010Prop39
140
1.0
102
RTVSPost2010PropOp39
 70
     1
102
RTVSPost2010Prop40
 90
        0
102
RTVSPost2010PropOp40
 70
     1
102
RTVSPost2010Prop41ColorIndex
 90
       18
102
RTVSPost2010Prop41ColorRGB
 90
        0
102
RTVSPost2010PropOp41
 70
     1
102
RTVSPost2010Prop42
 90
       50
102
RTVSPost2010PropOp42
 70
     1
102
RTVSPost2010Prop43
 90
        3
102
RTVSPost2010PropOp43
 70
     1
102
RTVSPost2010Prop44ColorIndex
 90
        5
102
RTVSPost2010Prop44ColorRGB
 90
      255
102
RTVSPost2010PropOp44
 70
     1
102
RTVSPost2010Prop45
280
     0
102
RTVSPost2010PropOp45
 70
     1
102
RTVSPost2010Prop46
 90
       50
102
RTVSPost2010PropOp46
 70
     1
102
RTVSPost2010Prop47
 90
       50
102
RTVSPost2010PropOp47
 70
     1
102
RTVSPost2010Prop48
 90
       50
102
RTVSPost2010PropOp48
 70
     1
102
RTVSPost2010Prop49
280
     0
102
RTVSPost2010PropOp49
 70
     1
102
RTVSPost2010Prop50
 90
       50
102
RTVSPost2010PropOp50
 70
     1
102
RTVSPost2010Prop51ColorIndex
 90
      256
102
RTVSPost2010Prop51ColorRGB
 90
-16777216
102
RTVSPost2010PropOp51
 70
     0
102
RTVSPost2010Prop52
140
1.0
102
RTVSPost2010PropOp52
 70
     0
102
RTVSPost2010Prop53
 90
        2
102
RTVSPost2010PropOp53
 70
     1
102
RTVSPost2010Prop54
  1
strokes_ogs.tif
102
RTVSPost2010PropOp54
 70
     1
102
RTVSPost2010Prop55
280
     0
102
RTVSPost2010PropOp55
 70
     1
102
RTVSPost2010Prop56
140
1.0
102
RTVSPost2010PropOp56
 70
     1
102
RTVSPost2010Prop57
140
1.0
102
RTVSPost2010PropOp57
 70
     1
  0
XRECORD
  5
158
102
{ACAD_REACTORS
330
157
102
}
330
157
100
AcDbXrecord
280
     1
102
RTVSPost2010Prop28
280
     0
102
RTVSPost2010PropOp28
 70
     1
102
RTVSPost2010Prop29
280
     1
102
RTVSPost2010PropOp29
 70
     1
102
RTVSPost2010Prop30
280
     1
102
RTVSPost2010PropOp30
 70
     1
102
RTVSPost2010Prop31
280
     0
102
RTVSPost2010PropOp31
 70
     1
102
RTVSPost2010Prop32
280
     0
102
RTVSPost2010PropOp32
 70
     1
102
RTVSPost2010Prop33
280
     0
102
RTVSPost2010PropOp33
 70
     1
102
RTVSPost2010Prop34
280
     0
102
RTVSPost2010PropOp34
 70
     1
102
RTVSPost2010Prop35
280
     0
102
RTVSPost2010PropOp35
 70
     1
102
RTVSPost2010Prop36
280
     0
102
RTVSPost2010PropOp36
 70
     1
102
RTVSPost2010Prop37
 90
       50
102
RTVSPost2010PropOp37
 70
     1
102
RTVSPost2010Prop38
140
0.0
102
RTVSPost2010PropOp38
 70
     1
102
RTVSPost2010Prop39
140
1.0
102
RTVSPost2010PropOp39
 70
     1
102
RTVSPost2010Prop40
 90
        0
102
RTVSPost2010PropOp40
 70
     1
102
RTVSPost2010Prop41ColorIndex
 90
       18
102
RTVSPost2010Prop41ColorRGB
 90
        0
102
RTVSPost2010PropOp41
 70
     1
102
RTVSPost2010Prop42
 90
       50
102
RTVSPost2010PropOp42
 70
     1
102
RTVSPost2010Prop43
 90
        3
102
RTVSPost2010PropOp43
 70
     1
102
RTVSPost2010Prop44ColorIndex
 90
        5
102
RTVSPost2010Prop44ColorRGB
 90
      255
102
RTVSPost2010PropOp44
 70
     1
102
RTVSPost2010Prop45
280
     0
102
RTVSPost2010PropOp45
 70
     1
102
RTVSPost2010Prop46
 90
       50
102
RTVSPost2010PropOp46
 70
     1
102
RTVSPost2010Prop47
 90
       50
102
RTVSPost2010PropOp47
 70
     1
102
RTVSPost2010Prop48
 90
       50
102
RTVSPost2010PropOp48
 70
     1
102
RTVSPost2010Prop49
280
     0
102
RTVSPost2010PropOp49
 70
     1
102
RTVSPost2010Prop50
 90
       50
102
RTVSPost2010PropOp50
 70
     1
102
RTVSPost2010Prop51ColorIndex
 90
      256
102
RTVSPost2010Prop51ColorRGB
 90
-16777216
102
RTVSPost2010PropOp51
 70
     0
102
RTVSPost2010Prop52
140
1.0
102
RTVSPost2010PropOp52
 70
     0
102
RTVSPost2010Prop53
 90
        2
102
RTVSPost2010PropOp53
 70
     1
102
RTVSPost2010Prop54
  1
strokes_ogs.tif
102
RTVSPost2010PropOp54
 70
     1
102
RTVSPost2010Prop55
280
     0
102
RTVSPost2010PropOp55
 70
     1
102
RTVSPost2010Prop56
140
1.0
102
RTVSPost2010PropOp56
 70
     1
102
RTVSPost2010Prop57
140
1.0
102
RTVSPost2010PropOp57
 70
     1
  0
XRECORD
  5
160
102
{ACAD_REACTORS
330
15F
102
}
330
15F
100
AcDbXrecord
280
     1
102
RTVSPost2010Prop28
280
     0
102
RTVSPost2010PropOp28
 70
     1
102
RTVSPost2010Prop29
280
     1
102
RTVSPost2010PropOp29
 70
     1
102
RTVSPost2010Prop30
280
     1
102
RTVSPost2010PropOp30
 70
     1
102
RTVSPost2010Prop31
280
     0
102
RTVSPost2010PropOp31
 70
     1
102
RTVSPost2010Prop32
280
     0
102
RTVSPost2010PropOp32
 70
     1
102
RTVSPost2010Prop33
280
     0
102
RTVSPost2010PropOp33
 70
     1
102
RTVSPost2010Prop34
280
     0
102
RTVSPost2010PropOp34
 70
     1
102
RTVSPost2010Prop35
280
     0
102
RTVSPost2010PropOp35
 70
     1
102
RTVSPost2010Prop36
280
     0
102
RTVSPost2010PropOp36
 70
     1
102
RTVSPost2010Prop37
 90
       50
102
RTVSPost2010PropOp37
 70
     1
102
RTVSPost2010Prop38
140
0.0
102
RTVSPost2010PropOp38
 70
     1
102
RTVSPost2010Prop39
140
1.0
102
RTVSPost2010PropOp39
 70
     1
102
RTVSPost2010Prop40
 90
        0
102
RTVSPost2010PropOp40
 70
     1
102
RTVSPost2010Prop41ColorIndex
 90
       18
102
RTVSPost2010Prop41ColorRGB
 90
        0
102
RTVSPost2010PropOp41
 70
     1
102
RTVSPost2010Prop42
 90
       50
102
RTVSPost2010PropOp42
 70
     1
102
RTVSPost2010Prop43
 90
        3
102
RTVSPost2010PropOp43
 70
     1
102
RTVSPost2010Prop44ColorIndex
 90
        5
102
RTVSPost2010Prop44ColorRGB
 90
      255
102
RTVSPost2010PropOp44
 70
     1
102
RTVSPost2010Prop45
280
     0
102
RTVSPost2010PropOp45
 70
     1
102
RTVSPost2010Prop46
 90
       50
102
RTVSPost2010PropOp46
 70
     1
102
RTVSPost2010Prop47
 90
       50
102
RTVSPost2010PropOp47
 70
     1
102
RTVSPost2010Prop48
 90
       50
102
RTVSPost2010PropOp48
 70
     1
102
RTVSPost2010Prop49
280
     0
102
RTVSPost2010PropOp49
 70
     1
102
RTVSPost2010Prop50
 90
       50
102
RTVSPost2010PropOp50
 70
     1
102
RTVSPost2010Prop51ColorIndex
 90
      256
102
RTVSPost2010Prop51ColorRGB
 90
-16777216
102
RTVSPost2010PropOp51
 70
     0
102
RTVSPost2010Prop52
140
1.0
102
RTVSPost2010PropOp52
 70
     0
102
RTVSPost2010Prop53
 90
        2
102
RTVSPost2010PropOp53
 70
     1
102
RTVSPost2010Prop54
  1
strokes_ogs.tif
102
RTVSPost2010PropOp54
 70
     1
102
RTVSPost2010Prop55
280
     0
102
RTVSPost2010PropOp55
 70
     1
102
RTVSPost2010Prop56
140
1.0
102
RTVSPost2010PropOp56
 70
     1
102
RTVSPost2010Prop57
140
1.0
102
RTVSPost2010PropOp57
 70
     1
  0
XRECORD
  5
17C
102
{ACAD_REACTORS
330
17B
102
}
330
17B
100
AcDbXrecord
280
     1
102
RTVSPost2010Prop28
280
     0
102
RTVSPost2010PropOp28
 70
     0
102
RTVSPost2010Prop29
280
     1
102
RTVSPost2010PropOp29
 70
     0
102
RTVSPost2010Prop30
280
     1
102
RTVSPost2010PropOp30
 70
     0
102
RTVSPost2010Prop31
280
     0
102
RTVSPost2010PropOp31
 70
     0
102
RTVSPost2010Prop32
280
     0
102
RTVSPost2010PropOp32
 70
     0
102
RTVSPost2010Prop33
280
     0
102
RTVSPost2010PropOp33
 70
     0
102
RTVSPost2010Prop34
280
     0
102
RTVSPost2010PropOp34
 70
     0
102
RTVSPost2010Prop35
280
     0
102
RTVSPost2010PropOp35
 70
     0
102
RTVSPost2010Prop36
280
     0
102
RTVSPost2010PropOp36
 70
     0
102
RTVSPost2010Prop37
 90
       50
102
RTVSPost2010PropOp37
 70
     0
102
RTVSPost2010Prop38
140
0.0
102
RTVSPost2010PropOp38
 70
     0
102
RTVSPost2010Prop39
140
1.0
102
RTVSPost2010PropOp39
 70
     0
102
RTVSPost2010Prop40
 90
        0
102
RTVSPost2010PropOp40
 70
     0
102
RTVSPost2010Prop41ColorIndex
 90
       18
102
RTVSPost2010Prop41ColorRGB
 90
        0
102
RTVSPost2010PropOp41
 70
     0
102
RTVSPost2010Prop42
 90
       50
102
RTVSPost2010PropOp42
 70
     0
102
RTVSPost2010Prop43
 90
        3
102
RTVSPost2010PropOp43
 70
     0
102
RTVSPost2010Prop44ColorIndex
 90
        5
102
RTVSPost2010Prop44ColorRGB
 90
      255
102
RTVSPost2010PropOp44
 70
     0
102
RTVSPost2010Prop45
280
     0
102
RTVSPost2010PropOp45
 70
     0
102
RTVSPost2010Prop46
 90
       50
102
RTVSPost2010PropOp46
 70
     0
102
RTVSPost2010Prop47
 90
       50
102
RTVSPost2010PropOp47
 70
     0
102
RTVSPost2010Prop48
 90
       50
102
RTVSPost2010PropOp48
 70
     0
102
RTVSPost2010Prop49
280
     0
102
RTVSPost2010PropOp49
 70
     0
102
RTVSPost2010Prop50
 90
       50
102
RTVSPost2010PropOp50
 70
     0
102
RTVSPost2010Prop51ColorIndex
 90
      256
102
RTVSPost2010Prop51ColorRGB
 90
-16777216
102
RTVSPost2010PropOp51
 70
     0
102
RTVSPost2010Prop52
140
1.0
102
RTVSPost2010PropOp52
 70
     0
102
RTVSPost2010Prop53
 90
        2
102
RTVSPost2010PropOp53
 70
     0
102
RTVSPost2010Prop54
  1
strokes_ogs.tif
102
RTVSPost2010PropOp54
 70
     0
102
RTVSPost2010Prop55
280
     0
102
RTVSPost2010PropOp55
 70
     0
102
RTVSPost2010Prop56
140
1.0
102
RTVSPost2010PropOp56
 70
     0
102
RTVSPost2010Prop57
140
1.0
102
RTVSPost2010PropOp57
 70
     0
  0
XRECORD
  5
16C
102
{ACAD_REACTORS
330
16B
102
}
330
16B
100
AcDbXrecord
280
     1
102
RTVSPost2010Prop28
280
     0
102
RTVSPost2010PropOp28
 70
     1
102
RTVSPost2010Prop29
280
     1
102
RTVSPost2010PropOp29
 70
     1
102
RTVSPost2010Prop30
280
     1
102
RTVSPost2010PropOp30
 70
     1
102
RTVSPost2010Prop31
280
     0
102
RTVSPost2010PropOp31
 70
     1
102
RTVSPost2010Prop32
280
     0
102
RTVSPost2010PropOp32
 70
     1
102
RTVSPost2010Prop33
280
     0
102
RTVSPost2010PropOp33
 70
     1
102
RTVSPost2010Prop34
280
     0
102
RTVSPost2010PropOp34
 70
     1
102
RTVSPost2010Prop35
280
     0
102
RTVSPost2010PropOp35
 70
     1
102
RTVSPost2010Prop36
280
     0
102
RTVSPost2010PropOp36
 70
     1
102
RTVSPost2010Prop37
 90
       50
102
RTVSPost2010PropOp37
 70
     1
102
RTVSPost2010Prop38
140
0.0
102
RTVSPost2010PropOp38
 70
     1
102
RTVSPost2010Prop39
140
1.0
102
RTVSPost2010PropOp39
 70
     1
102
RTVSPost2010Prop40
 90
        0
102
RTVSPost2010PropOp40
 70
     1
102
RTVSPost2010Prop41ColorIndex
 90
       18
102
RTVSPost2010Prop41ColorRGB
 90
        0
102
RTVSPost2010PropOp41
 70
     1
102
RTVSPost2010Prop42
 90
       50
102
RTVSPost2010PropOp42
 70
     1
102
RTVSPost2010Prop43
 90
        3
102
RTVSPost2010PropOp43
 70
     1
102
RTVSPost2010Prop44ColorIndex
 90
        5
102
RTVSPost2010Prop44ColorRGB
 90
      255
102
RTVSPost2010PropOp44
 70
     1
102
RTVSPost2010Prop45
280
     0
102
RTVSPost2010PropOp45
 70
     1
102
RTVSPost2010Prop46
 90
       50
102
RTVSPost2010PropOp46
 70
     1
102
RTVSPost2010Prop47
 90
       50
102
RTVSPost2010PropOp47
 70
     1
102
RTVSPost2010Prop48
 90
       50
102
RTVSPost2010PropOp48
 70
     1
102
RTVSPost2010Prop49
280
     0
102
RTVSPost2010PropOp49
 70
     1
102
RTVSPost2010Prop50
 90
       50
102
RTVSPost2010PropOp50
 70
     1
102
RTVSPost2010Prop51ColorIndex
 90
      256
102
RTVSPost2010Prop51ColorRGB
 90
-16777216
102
RTVSPost2010PropOp51
 70
     0
102
RTVSPost2010Prop52
140
1.0
102
RTVSPost2010PropOp52
 70
     0
102
RTVSPost2010Prop53
 90
        2
102
RTVSPost2010PropOp53
 70
     1
102
RTVSPost2010Prop54
  1
strokes_ogs.tif
102
RTVSPost2010PropOp54
 70
     1
102
RTVSPost2010Prop55
280
     0
102
RTVSPost2010PropOp55
 70
     1
102
RTVSPost2010Prop56
140
1.0
102
RTVSPost2010PropOp56
 70
     1
102
RTVSPost2010Prop57
140
1.0
102
RTVSPost2010PropOp57
 70
     1
  0
XRECORD
  5
17E
102
{ACAD_REACTORS
330
17D
102
}
330
17D
100
AcDbXrecord
280
     1
102
RTVSPost2010Prop28
280
     0
102
RTVSPost2010PropOp28
 70
     0
102
RTVSPost2010Prop29
280
     1
102
RTVSPost2010PropOp29
 70
     0
102
RTVSPost2010Prop30
280
     1
102
RTVSPost2010PropOp30
 70
     0
102
RTVSPost2010Prop31
280
     0
102
RTVSPost2010PropOp31
 70
     0
102
RTVSPost2010Prop32
280
     0
102
RTVSPost2010PropOp32
 70
     0
102
RTVSPost2010Prop33
280
     0
102
RTVSPost2010PropOp33
 70
     0
102
RTVSPost2010Prop34
280
     0
102
RTVSPost2010PropOp34
 70
     0
102
RTVSPost2010Prop35
280
     0
102
RTVSPost2010PropOp35
 70
     0
102
RTVSPost2010Prop36
280
     0
102
RTVSPost2010PropOp36
 70
     0
102
RTVSPost2010Prop37
 90
       50
102
RTVSPost2010PropOp37
 70
     0
102
RTVSPost2010Prop38
140
0.0
102
RTVSPost2010PropOp38
 70
     0
102
RTVSPost2010Prop39
140
1.0
102
RTVSPost2010PropOp39
 70
     0
102
RTVSPost2010Prop40
 90
        0
102
RTVSPost2010PropOp40
 70
     0
102
RTVSPost2010Prop41ColorIndex
 90
       18
102
RTVSPost2010Prop41ColorRGB
 90
        0
102
RTVSPost2010PropOp41
 70
     0
102
RTVSPost2010Prop42
 90
       50
102
RTVSPost2010PropOp42
 70
     0
102
RTVSPost2010Prop43
 90
        3
102
RTVSPost2010PropOp43
 70
     0
102
RTVSPost2010Prop44ColorIndex
 90
        5
102
RTVSPost2010Prop44ColorRGB
 90
      255
102
RTVSPost2010PropOp44
 70
     0
102
RTVSPost2010Prop45
280
     0
102
RTVSPost2010PropOp45
 70
     0
102
RTVSPost2010Prop46
 90
       50
102
RTVSPost2010PropOp46
 70
     0
102
RTVSPost2010Prop47
 90
       50
102
RTVSPost2010PropOp47
 70
     0
102
RTVSPost2010Prop48
 90
       50
102
RTVSPost2010PropOp48
 70
     0
102
RTVSPost2010Prop49
280
     0
102
RTVSPost2010PropOp49
 70
     0
102
RTVSPost2010Prop50
 90
       50
102
RTVSPost2010PropOp50
 70
     0
102
RTVSPost2010Prop51ColorIndex
 90
      256
102
RTVSPost2010Prop51ColorRGB
 90
-16777216
102
RTVSPost2010PropOp51
 70
     0
102
RTVSPost2010Prop52
140
1.0
102
RTVSPost2010PropOp52
 70
     0
102
RTVSPost2010Prop53
 90
        2
102
RTVSPost2010PropOp53
 70
     0
102
RTVSPost2010Prop54
  1
strokes_ogs.tif
102
RTVSPost2010PropOp54
 70
     0
102
RTVSPost2010Prop55
280
     0
102
RTVSPost2010PropOp55
 70
     0
102
RTVSPost2010Prop56
140
1.0
102
RTVSPost2010PropOp56
 70
     0
102
RTVSPost2010Prop57
140
1.0
102
RTVSPost2010PropOp57
 70
     0
  0
XRECORD
  5
164
102
{ACAD_REACTORS
330
163
102
}
330
163
100
AcDbXrecord
280
     1
102
RTVSPost2010Prop28
280
     0
102
RTVSPost2010PropOp28
 70
     1
102
RTVSPost2010Prop29
280
     1
102
RTVSPost2010PropOp29
 70
     1
102
RTVSPost2010Prop30
280
     1
102
RTVSPost2010PropOp30
 70
     1
102
RTVSPost2010Prop31
280
     0
102
RTVSPost2010PropOp31
 70
     1
102
RTVSPost2010Prop32
280
     0
102
RTVSPost2010PropOp32
 70
     1
102
RTVSPost2010Prop33
280
     0
102
RTVSPost2010PropOp33
 70
     1
102
RTVSPost2010Prop34
280
     0
102
RTVSPost2010PropOp34
 70
     1
102
RTVSPost2010Prop35
280
     0
102
RTVSPost2010PropOp35
 70
     1
102
RTVSPost2010Prop36
280
     0
102
RTVSPost2010PropOp36
 70
     1
102
RTVSPost2010Prop37
 90
       50
102
RTVSPost2010PropOp37
 70
     1
102
RTVSPost2010Prop38
140
0.0
102
RTVSPost2010PropOp38
 70
     1
102
RTVSPost2010Prop39
140
1.0
102
RTVSPost2010PropOp39
 70
     1
102
RTVSPost2010Prop40
 90
        0
102
RTVSPost2010PropOp40
 70
     1
102
RTVSPost2010Prop41ColorIndex
 90
       18
102
RTVSPost2010Prop41ColorRGB
 90
        0
102
RTVSPost2010PropOp41
 70
     1
102
RTVSPost2010Prop42
 90
       50
102
RTVSPost2010PropOp42
 70
     1
102
RTVSPost2010Prop43
 90
        3
102
RTVSPost2010PropOp43
 70
     1
102
RTVSPost2010Prop44ColorIndex
 90
        5
102
RTVSPost2010Prop44ColorRGB
 90
      255
102
RTVSPost2010PropOp44
 70
     1
102
RTVSPost2010Prop45
280
     0
102
RTVSPost2010PropOp45
 70
     1
102
RTVSPost2010Prop46
 90
       50
102
RTVSPost2010PropOp46
 70
     1
102
RTVSPost2010Prop47
 90
       50
102
RTVSPost2010PropOp47
 70
     1
102
RTVSPost2010Prop48
 90
       50
102
RTVSPost2010PropOp48
 70
     1
102
RTVSPost2010Prop49
280
     0
102
RTVSPost2010PropOp49
 70
     1
102
RTVSPost2010Prop50
 90
       50
102
RTVSPost2010PropOp50
 70
     1
102
RTVSPost2010Prop51ColorIndex
 90
      256
102
RTVSPost2010Prop51ColorRGB
 90
-16777216
102
RTVSPost2010PropOp51
 70
     0
102
RTVSPost2010Prop52
140
1.0
102
RTVSPost2010PropOp52
 70
     0
102
RTVSPost2010Prop53
 90
        2
102
RTVSPost2010PropOp53
 70
     1
102
RTVSPost2010Prop54
  1
strokes_ogs.tif
102
RTVSPost2010PropOp54
 70
     1
102
RTVSPost2010Prop55
280
     0
102
RTVSPost2010PropOp55
 70
     1
102
RTVSPost2010Prop56
140
1.0
102
RTVSPost2010PropOp56
 70
     1
102
RTVSPost2010Prop57
140
1.0
102
RTVSPost2010PropOp57
 70
     1
  0
XRECORD
  5
17A
102
{ACAD_REACTORS
330
179
102
}
330
179
100
AcDbXrecord
280
     1
102
RTVSPost2010Prop28
280
     0
102
RTVSPost2010PropOp28
 70
     1
102
RTVSPost2010Prop29
280
     1
102
RTVSPost2010PropOp29
 70
     1
102
RTVSPost2010Prop30
280
     1
102
RTVSPost2010PropOp30
 70
     1
102
RTVSPost2010Prop31
280
     0
102
RTVSPost2010PropOp31
 70
     1
102
RTVSPost2010Prop32
280
     0
102
RTVSPost2010PropOp32
 70
     1
102
RTVSPost2010Prop33
280
     0
102
RTVSPost2010PropOp33
 70
     1
102
RTVSPost2010Prop34
280
     0
102
RTVSPost2010PropOp34
 70
     1
102
RTVSPost2010Prop35
280
     0
102
RTVSPost2010PropOp35
 70
     1
102
RTVSPost2010Prop36
280
     0
102
RTVSPost2010PropOp36
 70
     1
102
RTVSPost2010Prop37
 90
       50
102
RTVSPost2010PropOp37
 70
     1
102
RTVSPost2010Prop38
140
0.0
102
RTVSPost2010PropOp38
 70
     1
102
RTVSPost2010Prop39
140
1.0
102
RTVSPost2010PropOp39
 70
     1
102
RTVSPost2010Prop40
 90
        0
102
RTVSPost2010PropOp40
 70
     1
102
RTVSPost2010Prop41ColorIndex
 90
       18
102
RTVSPost2010Prop41ColorRGB
 90
        0
102
RTVSPost2010PropOp41
 70
     1
102
RTVSPost2010Prop42
 90
       50
102
RTVSPost2010PropOp42
 70
     1
102
RTVSPost2010Prop43
 90
        3
102
RTVSPost2010PropOp43
 70
     1
102
RTVSPost2010Prop44ColorIndex
 90
        5
102
RTVSPost2010Prop44ColorRGB
 90
      255
102
RTVSPost2010PropOp44
 70
     1
102
RTVSPost2010Prop45
280
     0
102
RTVSPost2010PropOp45
 70
     1
102
RTVSPost2010Prop46
 90
       50
102
RTVSPost2010PropOp46
 70
     1
102
RTVSPost2010Prop47
 90
       50
102
RTVSPost2010PropOp47
 70
     1
102
RTVSPost2010Prop48
 90
       50
102
RTVSPost2010PropOp48
 70
     1
102
RTVSPost2010Prop49
280
     0
102
RTVSPost2010PropOp49
 70
     1
102
RTVSPost2010Prop50
 90
       50
102
RTVSPost2010PropOp50
 70
     1
102
RTVSPost2010Prop51ColorIndex
 90
      256
102
RTVSPost2010Prop51ColorRGB
 90
-16777216
102
RTVSPost2010PropOp51
 70
     0
102
RTVSPost2010Prop52
140
1.0
102
RTVSPost2010PropOp52
 70
     0
102
RTVSPost2010Prop53
 90
        2
102
RTVSPost2010PropOp53
 70
     1
102
RTVSPost2010Prop54
  1
strokes_ogs.tif
102
RTVSPost2010PropOp54
 70
     1
102
RTVSPost2010Prop55
280
     0
102
RTVSPost2010PropOp55
 70
     1
102
RTVSPost2010Prop56
140
1.0
102
RTVSPost2010PropOp56
 70
     1
102
RTVSPost2010Prop57
140
1.0
102
RTVSPost2010PropOp57
 70
     1
  0
XRECORD
  5
178
102
{ACAD_REACTORS
330
177
102
}
330
177
100
AcDbXrecord
280
     1
102
RTVSPost2010Prop28
280
     0
102
RTVSPost2010PropOp28
 70
     1
102
RTVSPost2010Prop29
280
     1
102
RTVSPost2010PropOp29
 70
     1
102
RTVSPost2010Prop30
280
     1
102
RTVSPost2010PropOp30
 70
     1
102
RTVSPost2010Prop31
280
     0
102
RTVSPost2010PropOp31
 70
     1
102
RTVSPost2010Prop32
280
     0
102
RTVSPost2010PropOp32
 70
     1
102
RTVSPost2010Prop33
280
     0
102
RTVSPost2010PropOp33
 70
     1
102
RTVSPost2010Prop34
280
     0
102
RTVSPost2010PropOp34
 70
     1
102
RTVSPost2010Prop35
280
     0
102
RTVSPost2010PropOp35
 70
     1
102
RTVSPost2010Prop36
280
     0
102
RTVSPost2010PropOp36
 70
     1
102
RTVSPost2010Prop37
 90
       50
102
RTVSPost2010PropOp37
 70
     1
102
RTVSPost2010Prop38
140
0.0
102
RTVSPost2010PropOp38
 70
     1
102
RTVSPost2010Prop39
140
1.0
102
RTVSPost2010PropOp39
 70
     1
102
RTVSPost2010Prop40
 90
        0
102
RTVSPost2010PropOp40
 70
     1
102
RTVSPost2010Prop41ColorIndex
 90
       18
102
RTVSPost2010Prop41ColorRGB
 90
        0
102
RTVSPost2010PropOp41
 70
     1
102
RTVSPost2010Prop42
 90
       50
102
RTVSPost2010PropOp42
 70
     1
102
RTVSPost2010Prop43
 90
        3
102
RTVSPost2010PropOp43
 70
     1
102
RTVSPost2010Prop44ColorIndex
 90
        5
102
RTVSPost2010Prop44ColorRGB
 90
      255
102
RTVSPost2010PropOp44
 70
     1
102
RTVSPost2010Prop45
280
     0
102
RTVSPost2010PropOp45
 70
     1
102
RTVSPost2010Prop46
 90
       50
102
RTVSPost2010PropOp46
 70
     1
102
RTVSPost2010Prop47
 90
       50
102
RTVSPost2010PropOp47
 70
     1
102
RTVSPost2010Prop48
 90
       50
102
RTVSPost2010PropOp48
 70
     1
102
RTVSPost2010Prop49
280
     0
102
RTVSPost2010PropOp49
 70
     1
102
RTVSPost2010Prop50
 90
       50
102
RTVSPost2010PropOp50
 70
     1
102
RTVSPost2010Prop51ColorIndex
 90
      256
102
RTVSPost2010Prop51ColorRGB
 90
-16777216
102
RTVSPost2010PropOp51
 70
     0
102
RTVSPost2010Prop52
140
1.0
102
RTVSPost2010PropOp52
 70
     0
102
RTVSPost2010Prop53
 90
        2
102
RTVSPost2010PropOp53
 70
     1
102
RTVSPost2010Prop54
  1
strokes_ogs.tif
102
RTVSPost2010PropOp54
 70
     1
102
RTVSPost2010Prop55
280
     0
102
RTVSPost2010PropOp55
 70
     1
102
RTVSPost2010Prop56
140
1.0
102
RTVSPost2010PropOp56
 70
     1
102
RTVSPost2010Prop57
140
1.0
102
RTVSPost2010PropOp57
 70
     1
  0
XRECORD
  5
172
102
{ACAD_REACTORS
330
171
102
}
330
171
100
AcDbXrecord
280
     1
102
RTVSPost2010Prop28
280
     0
102
RTVSPost2010PropOp28
 70
     1
102
RTVSPost2010Prop29
280
     1
102
RTVSPost2010PropOp29
 70
     1
102
RTVSPost2010Prop30
280
     1
102
RTVSPost2010PropOp30
 70
     1
102
RTVSPost2010Prop31
280
     0
102
RTVSPost2010PropOp31
 70
     1
102
RTVSPost2010Prop32
280
     0
102
RTVSPost2010PropOp32
 70
     1
102
RTVSPost2010Prop33
280
     0
102
RTVSPost2010PropOp33
 70
     1
102
RTVSPost2010Prop34
280
     0
102
RTVSPost2010PropOp34
 70
     1
102
RTVSPost2010Prop35
280
     0
102
RTVSPost2010PropOp35
 70
     1
102
RTVSPost2010Prop36
280
     0
102
RTVSPost2010PropOp36
 70
     1
102
RTVSPost2010Prop37
 90
       50
102
RTVSPost2010PropOp37
 70
     1
102
RTVSPost2010Prop38
140
0.0
102
RTVSPost2010PropOp38
 70
     1
102
RTVSPost2010Prop39
140
1.0
102
RTVSPost2010PropOp39
 70
     1
102
RTVSPost2010Prop40
 90
        0
102
RTVSPost2010PropOp40
 70
     1
102
RTVSPost2010Prop41ColorIndex
 90
       18
102
RTVSPost2010Prop41ColorRGB
 90
        0
102
RTVSPost2010PropOp41
 70
     1
102
RTVSPost2010Prop42
 90
       50
102
RTVSPost2010PropOp42
 70
     1
102
RTVSPost2010Prop43
 90
        3
102
RTVSPost2010PropOp43
 70
     1
102
RTVSPost2010Prop44ColorIndex
 90
        5
102
RTVSPost2010Prop44ColorRGB
 90
      255
102
RTVSPost2010PropOp44
 70
     1
102
RTVSPost2010Prop45
280
     0
102
RTVSPost2010PropOp45
 70
     1
102
RTVSPost2010Prop46
 90
       50
102
RTVSPost2010PropOp46
 70
     1
102
RTVSPost2010Prop47
 90
       50
102
RTVSPost2010PropOp47
 70
     1
102
RTVSPost2010Prop48
 90
       50
102
RTVSPost2010PropOp48
 70
     1
102
RTVSPost2010Prop49
280
     0
102
RTVSPost2010PropOp49
 70
     1
102
RTVSPost2010Prop50
 90
       50
102
RTVSPost2010PropOp50
 70
     1
102
RTVSPost2010Prop51ColorIndex
 90
      256
102
RTVSPost2010Prop51ColorRGB
 90
-16777216
102
RTVSPost2010PropOp51
 70
     0
102
RTVSPost2010Prop52
140
1.0
102
RTVSPost2010PropOp52
 70
     0
102
RTVSPost2010Prop53
 90
        2
102
RTVSPost2010PropOp53
 70
     1
102
RTVSPost2010Prop54
  1
strokes_ogs.tif
102
RTVSPost2010PropOp54
 70
     1
102
RTVSPost2010Prop55
280
     0
102
RTVSPost2010PropOp55
 70
     1
102
RTVSPost2010Prop56
140
1.0
102
RTVSPost2010PropOp56
 70
     1
102
RTVSPost2010Prop57
140
1.0
102
RTVSPost2010PropOp57
 70
     1
  0
XRECORD
  5
174
102
{ACAD_REACTORS
330
173
102
}
330
173
100
AcDbXrecord
280
     1
102
RTVSPost2010Prop28
280
     0
102
RTVSPost2010PropOp28
 70
     1
102
RTVSPost2010Prop29
280
     1
102
RTVSPost2010PropOp29
 70
     1
102
RTVSPost2010Prop30
280
     1
102
RTVSPost2010PropOp30
 70
     1
102
RTVSPost2010Prop31
280
     0
102
RTVSPost2010PropOp31
 70
     1
102
RTVSPost2010Prop32
280
     0
102
RTVSPost2010PropOp32
 70
     1
102
RTVSPost2010Prop33
280
     0
102
RTVSPost2010PropOp33
 70
     1
102
RTVSPost2010Prop34
280
     0
102
RTVSPost2010PropOp34
 70
     1
102
RTVSPost2010Prop35
280
     0
102
RTVSPost2010PropOp35
 70
     1
102
RTVSPost2010Prop36
280
     0
102
RTVSPost2010PropOp36
 70
     1
102
RTVSPost2010Prop37
 90
       50
102
RTVSPost2010PropOp37
 70
     1
102
RTVSPost2010Prop38
140
0.0
102
RTVSPost2010PropOp38
 70
     1
102
RTVSPost2010Prop39
140
1.0
102
RTVSPost2010PropOp39
 70
     1
102
RTVSPost2010Prop40
 90
        0
102
RTVSPost2010PropOp40
 70
     1
102
RTVSPost2010Prop41ColorIndex
 90
       18
102
RTVSPost2010Prop41ColorRGB
 90
        0
102
RTVSPost2010PropOp41
 70
     1
102
RTVSPost2010Prop42
 90
       50
102
RTVSPost2010PropOp42
 70
     1
102
RTVSPost2010Prop43
 90
        3
102
RTVSPost2010PropOp43
 70
     1
102
RTVSPost2010Prop44ColorIndex
 90
        5
102
RTVSPost2010Prop44ColorRGB
 90
      255
102
RTVSPost2010PropOp44
 70
     1
102
RTVSPost2010Prop45
280
     0
102
RTVSPost2010PropOp45
 70
     1
102
RTVSPost2010Prop46
 90
       50
102
RTVSPost2010PropOp46
 70
     1
102
RTVSPost2010Prop47
 90
       50
102
RTVSPost2010PropOp47
 70
     1
102
RTVSPost2010Prop48
 90
       50
102
RTVSPost2010PropOp48
 70
     1
102
RTVSPost2010Prop49
280
     0
102
RTVSPost2010PropOp49
 70
     1
102
RTVSPost2010Prop50
 90
       50
102
RTVSPost2010PropOp50
 70
     1
102
RTVSPost2010Prop51ColorIndex
 90
      256
102
RTVSPost2010Prop51ColorRGB
 90
-16777216
102
RTVSPost2010PropOp51
 70
     0
102
RTVSPost2010Prop52
140
1.0
102
RTVSPost2010PropOp52
 70
     0
102
RTVSPost2010Prop53
 90
        2
102
RTVSPost2010PropOp53
 70
     1
102
RTVSPost2010Prop54
  1
strokes_ogs.tif
102
RTVSPost2010PropOp54
 70
     1
102
RTVSPost2010Prop55
280
     0
102
RTVSPost2010PropOp55
 70
     1
102
RTVSPost2010Prop56
140
1.0
102
RTVSPost2010PropOp56
 70
     1
102
RTVSPost2010Prop57
140
1.0
102
RTVSPost2010PropOp57
 70
     1
  0
XRECORD
  5
16A
102
{ACAD_REACTORS
330
169
102
}
330
169
100
AcDbXrecord
280
     1
102
RTVSPost2010Prop28
280
     0
102
RTVSPost2010PropOp28
 70
     1
102
RTVSPost2010Prop29
280
     1
102
RTVSPost2010PropOp29
 70
     1
102
RTVSPost2010Prop30
280
     1
102
RTVSPost2010PropOp30
 70
     1
102
RTVSPost2010Prop31
280
     0
102
RTVSPost2010PropOp31
 70
     1
102
RTVSPost2010Prop32
280
     0
102
RTVSPost2010PropOp32
 70
     1
102
RTVSPost2010Prop33
280
     0
102
RTVSPost2010PropOp33
 70
     1
102
RTVSPost2010Prop34
280
     0
102
RTVSPost2010PropOp34
 70
     1
102
RTVSPost2010Prop35
280
     0
102
RTVSPost2010PropOp35
 70
     1
102
RTVSPost2010Prop36
280
     0
102
RTVSPost2010PropOp36
 70
     1
102
RTVSPost2010Prop37
 90
       50
102
RTVSPost2010PropOp37
 70
     1
102
RTVSPost2010Prop38
140
0.0
102
RTVSPost2010PropOp38
 70
     1
102
RTVSPost2010Prop39
140
1.0
102
RTVSPost2010PropOp39
 70
     1
102
RTVSPost2010Prop40
 90
        0
102
RTVSPost2010PropOp40
 70
     1
102
RTVSPost2010Prop41ColorIndex
 90
       18
102
RTVSPost2010Prop41ColorRGB
 90
        0
102
RTVSPost2010PropOp41
 70
     1
102
RTVSPost2010Prop42
 90
       50
102
RTVSPost2010PropOp42
 70
     1
102
RTVSPost2010Prop43
 90
        3
102
RTVSPost2010PropOp43
 70
     1
102
RTVSPost2010Prop44ColorIndex
 90
        5
102
RTVSPost2010Prop44ColorRGB
 90
      255
102
RTVSPost2010PropOp44
 70
     1
102
RTVSPost2010Prop45
280
     0
102
RTVSPost2010PropOp45
 70
     1
102
RTVSPost2010Prop46
 90
       50
102
RTVSPost2010PropOp46
 70
     1
102
RTVSPost2010Prop47
 90
       50
102
RTVSPost2010PropOp47
 70
     1
102
RTVSPost2010Prop48
 90
       50
102
RTVSPost2010PropOp48
 70
     1
102
RTVSPost2010Prop49
280
     0
102
RTVSPost2010PropOp49
 70
     1
102
RTVSPost2010Prop50
 90
       50
102
RTVSPost2010PropOp50
 70
     1
102
RTVSPost2010Prop51ColorIndex
 90
      256
102
RTVSPost2010Prop51ColorRGB
 90
-16777216
102
RTVSPost2010PropOp51
 70
     0
102
RTVSPost2010Prop52
140
1.0
102
RTVSPost2010PropOp52
 70
     0
102
RTVSPost2010Prop53
 90
        2
102
RTVSPost2010PropOp53
 70
     1
102
RTVSPost2010Prop54
  1
strokes_ogs.tif
102
RTVSPost2010PropOp54
 70
     1
102
RTVSPost2010Prop55
280
     0
102
RTVSPost2010PropOp55
 70
     1
102
RTVSPost2010Prop56
140
1.0
102
RTVSPost2010PropOp56
 70
     1
102
RTVSPost2010Prop57
140
1.0
102
RTVSPost2010PropOp57
 70
     1
  0
XRECORD
  5
15E
102
{ACAD_REACTORS
330
15D
102
}
330
15D
100
AcDbXrecord
280
     1
102
RTVSPost2010Prop28
280
     0
102
RTVSPost2010PropOp28
 70
     1
102
RTVSPost2010Prop29
280
     1
102
RTVSPost2010PropOp29
 70
     1
102
RTVSPost2010Prop30
280
     1
102
RTVSPost2010PropOp30
 70
     1
102
RTVSPost2010Prop31
280
     0
102
RTVSPost2010PropOp31
 70
     1
102
RTVSPost2010Prop32
280
     0
102
RTVSPost2010PropOp32
 70
     1
102
RTVSPost2010Prop33
280
     0
102
RTVSPost2010PropOp33
 70
     1
102
RTVSPost2010Prop34
280
     0
102
RTVSPost2010PropOp34
 70
     1
102
RTVSPost2010Prop35
280
     0
102
RTVSPost2010PropOp35
 70
     1
102
RTVSPost2010Prop36
280
     0
102
RTVSPost2010PropOp36
 70
     1
102
RTVSPost2010Prop37
 90
       50
102
RTVSPost2010PropOp37
 70
     1
102
RTVSPost2010Prop38
140
0.0
102
RTVSPost2010PropOp38
 70
     1
102
RTVSPost2010Prop39
140
1.0
102
RTVSPost2010PropOp39
 70
     1
102
RTVSPost2010Prop40
 90
        0
102
RTVSPost2010PropOp40
 70
     1
102
RTVSPost2010Prop41ColorIndex
 90
       18
102
RTVSPost2010Prop41ColorRGB
 90
        0
102
RTVSPost2010PropOp41
 70
     1
102
RTVSPost2010Prop42
 90
       50
102
RTVSPost2010PropOp42
 70
     1
102
RTVSPost2010Prop43
 90
        3
102
RTVSPost2010PropOp43
 70
     1
102
RTVSPost2010Prop44ColorIndex
 90
        5
102
RTVSPost2010Prop44ColorRGB
 90
      255
102
RTVSPost2010PropOp44
 70
     1
102
RTVSPost2010Prop45
280
     0
102
RTVSPost2010PropOp45
 70
     1
102
RTVSPost2010Prop46
 90
       50
102
RTVSPost2010PropOp46
 70
     1
102
RTVSPost2010Prop47
 90
       50
102
RTVSPost2010PropOp47
 70
     1
102
RTVSPost2010Prop48
 90
       50
102
RTVSPost2010PropOp48
 70
     1
102
RTVSPost2010Prop49
280
     0
102
RTVSPost2010PropOp49
 70
     1
102
RTVSPost2010Prop50
 90
       50
102
RTVSPost2010PropOp50
 70
     1
102
RTVSPost2010Prop51ColorIndex
 90
      256
102
RTVSPost2010Prop51ColorRGB
 90
-16777216
102
RTVSPost2010PropOp51
 70
     0
102
RTVSPost2010Prop52
140
1.0
102
RTVSPost2010PropOp52
 70
     0
102
RTVSPost2010Prop53
 90
        2
102
RTVSPost2010PropOp53
 70
     1
102
RTVSPost2010Prop54
  1
strokes_ogs.tif
102
RTVSPost2010PropOp54
 70
     1
102
RTVSPost2010Prop55
280
     0
102
RTVSPost2010PropOp55
 70
     1
102
RTVSPost2010Prop56
140
1.0
102
RTVSPost2010PropOp56
 70
     1
102
RTVSPost2010Prop57
140
1.0
102
RTVSPost2010PropOp57
 70
     1
  0
XRECORD
  5
176
102
{ACAD_REACTORS
330
175
102
}
330
175
100
AcDbXrecord
280
     1
102
RTVSPost2010Prop28
280
     0
102
RTVSPost2010PropOp28
 70
     1
102
RTVSPost2010Prop29
280
     1
102
RTVSPost2010PropOp29
 70
     1
102
RTVSPost2010Prop30
280
     1
102
RTVSPost2010PropOp30
 70
     1
102
RTVSPost2010Prop31
280
     0
102
RTVSPost2010PropOp31
 70
     1
102
RTVSPost2010Prop32
280
     0
102
RTVSPost2010PropOp32
 70
     1
102
RTVSPost2010Prop33
280
     0
102
RTVSPost2010PropOp33
 70
     1
102
RTVSPost2010Prop34
280
     0
102
RTVSPost2010PropOp34
 70
     1
102
RTVSPost2010Prop35
280
     0
102
RTVSPost2010PropOp35
 70
     1
102
RTVSPost2010Prop36
280
     0
102
RTVSPost2010PropOp36
 70
     1
102
RTVSPost2010Prop37
 90
       50
102
RTVSPost2010PropOp37
 70
     1
102
RTVSPost2010Prop38
140
0.0
102
RTVSPost2010PropOp38
 70
     1
102
RTVSPost2010Prop39
140
1.0
102
RTVSPost2010PropOp39
 70
     1
102
RTVSPost2010Prop40
 90
        0
102
RTVSPost2010PropOp40
 70
     1
102
RTVSPost2010Prop41ColorIndex
 90
       18
102
RTVSPost2010Prop41ColorRGB
 90
        0
102
RTVSPost2010PropOp41
 70
     1
102
RTVSPost2010Prop42
 90
       50
102
RTVSPost2010PropOp42
 70
     1
102
RTVSPost2010Prop43
 90
        3
102
RTVSPost2010PropOp43
 70
     1
102
RTVSPost2010Prop44ColorIndex
 90
        5
102
RTVSPost2010Prop44ColorRGB
 90
      255
102
RTVSPost2010PropOp44
 70
     1
102
RTVSPost2010Prop45
280
     0
102
RTVSPost2010PropOp45
 70
     1
102
RTVSPost2010Prop46
 90
       50
102
RTVSPost2010PropOp46
 70
     1
102
RTVSPost2010Prop47
 90
       50
102
RTVSPost2010PropOp47
 70
     1
102
RTVSPost2010Prop48
 90
       50
102
RTVSPost2010PropOp48
 70
     1
102
RTVSPost2010Prop49
280
     0
102
RTVSPost2010PropOp49
 70
     1
102
RTVSPost2010Prop50
 90
       50
102
RTVSPost2010PropOp50
 70
     1
102
RTVSPost2010Prop51ColorIndex
 90
      256
102
RTVSPost2010Prop51ColorRGB
 90
-16777216
102
RTVSPost2010PropOp51
 70
     0
102
RTVSPost2010Prop52
140
1.0
102
RTVSPost2010PropOp52
 70
     0
102
RTVSPost2010Prop53
 90
        2
102
RTVSPost2010PropOp53
 70
     1
102
RTVSPost2010Prop54
  1
strokes_ogs.tif
102
RTVSPost2010PropOp54
 70
     1
102
RTVSPost2010Prop55
280
     0
102
RTVSPost2010PropOp55
 70
     1
102
RTVSPost2010Prop56
140
1.0
102
RTVSPost2010PropOp56
 70
     1
102
RTVSPost2010Prop57
140
1.0
102
RTVSPost2010PropOp57
 70
     1
  0
ENDSEC
  0
EOF
